ISO-10303-21;
HEADER;
/* Generated by software containing ST-Developer
 * from STEP Tools, Inc. (www.steptools.com) 
 */
/* OPTION: using custom renumber hook */

FILE_DESCRIPTION(
/* description */ ('STEP AP214'),
/* implementation_level */ '2;1');

FILE_NAME(
/* name */ '4806_RTU-PK-4_4',
/* time_stamp */ '2024-09-14T22:25:15+02:00',
/* author */ ('License CC BY-ND 4.0'),
/* organization */ ('CADENAS'),
/* preprocessor_version */ 'ST-DEVELOPER v19.3',
/* originating_system */ 'PARTsolutions',
/* authorisation */ '  ');

FILE_SCHEMA (('AUTOMOTIVE_DESIGN {1 0 10303 214 3 1 1}'));
ENDSEC;

DATA;
#10=PROPERTY_DEFINITION_REPRESENTATION(#14,#12);
#11=PROPERTY_DEFINITION_REPRESENTATION(#15,#13);
#12=REPRESENTATION('',(#16),#557);
#13=REPRESENTATION('',(#17),#557);
#14=PROPERTY_DEFINITION('pmi validation property','',#562);
#15=PROPERTY_DEFINITION('pmi validation property','',#562);
#16=VALUE_REPRESENTATION_ITEM('number of annotations',COUNT_MEASURE(0.));
#17=VALUE_REPRESENTATION_ITEM('number of views',COUNT_MEASURE(0.));
#18=SHAPE_REPRESENTATION_RELATIONSHIP('','',#317,#19);
#19=ADVANCED_BREP_SHAPE_REPRESENTATION('',(#315),#557);
#20=CONICAL_SURFACE('',#330,2.05384750524582,0.436332312998597);
#21=CONICAL_SURFACE('',#342,2.0585786437627,0.785398163397445);
#22=CONICAL_SURFACE('',#358,2.4,0.785398163397452);
#23=CONICAL_SURFACE('',#370,2.39063077870367,0.436332312998584);
#24=CYLINDRICAL_SURFACE('',#324,1.7);
#25=CYLINDRICAL_SURFACE('',#334,2.4);
#26=CYLINDRICAL_SURFACE('',#338,2.);
#27=CYLINDRICAL_SURFACE('',#344,2.4);
#28=CYLINDRICAL_SURFACE('',#350,3.);
#29=CYLINDRICAL_SURFACE('',#356,2.4);
#30=CYLINDRICAL_SURFACE('',#362,2.);
#31=CYLINDRICAL_SURFACE('',#366,2.4);
#32=PLANE('',#322);
#33=PLANE('',#326);
#34=PLANE('',#336);
#35=PLANE('',#348);
#36=PLANE('',#352);
#37=PLANE('',#364);
#38=ORIENTED_EDGE('',*,*,#90,.T.);
#39=ORIENTED_EDGE('',*,*,#91,.F.);
#40=ORIENTED_EDGE('',*,*,#92,.T.);
#41=ORIENTED_EDGE('',*,*,#90,.F.);
#42=ORIENTED_EDGE('',*,*,#93,.T.);
#43=ORIENTED_EDGE('',*,*,#92,.F.);
#44=ORIENTED_EDGE('',*,*,#94,.T.);
#45=ORIENTED_EDGE('',*,*,#93,.F.);
#46=ORIENTED_EDGE('',*,*,#95,.T.);
#47=ORIENTED_EDGE('',*,*,#94,.F.);
#48=ORIENTED_EDGE('',*,*,#96,.T.);
#49=ORIENTED_EDGE('',*,*,#95,.F.);
#50=ORIENTED_EDGE('',*,*,#97,.T.);
#51=ORIENTED_EDGE('',*,*,#96,.F.);
#52=ORIENTED_EDGE('',*,*,#98,.T.);
#53=ORIENTED_EDGE('',*,*,#97,.F.);
#54=ORIENTED_EDGE('',*,*,#99,.T.);
#55=ORIENTED_EDGE('',*,*,#98,.F.);
#56=ORIENTED_EDGE('',*,*,#100,.T.);
#57=ORIENTED_EDGE('',*,*,#99,.F.);
#58=ORIENTED_EDGE('',*,*,#100,.F.);
#59=ORIENTED_EDGE('',*,*,#101,.T.);
#60=ORIENTED_EDGE('',*,*,#102,.T.);
#61=ORIENTED_EDGE('',*,*,#101,.F.);
#62=ORIENTED_EDGE('',*,*,#103,.T.);
#63=ORIENTED_EDGE('',*,*,#102,.F.);
#64=ORIENTED_EDGE('',*,*,#103,.F.);
#65=ORIENTED_EDGE('',*,*,#104,.T.);
#66=ORIENTED_EDGE('',*,*,#105,.T.);
#67=ORIENTED_EDGE('',*,*,#104,.F.);
#68=ORIENTED_EDGE('',*,*,#106,.T.);
#69=ORIENTED_EDGE('',*,*,#105,.F.);
#70=ORIENTED_EDGE('',*,*,#107,.T.);
#71=ORIENTED_EDGE('',*,*,#106,.F.);
#72=ORIENTED_EDGE('',*,*,#107,.F.);
#73=ORIENTED_EDGE('',*,*,#108,.T.);
#74=ORIENTED_EDGE('',*,*,#109,.T.);
#75=ORIENTED_EDGE('',*,*,#108,.F.);
#76=ORIENTED_EDGE('',*,*,#110,.T.);
#77=ORIENTED_EDGE('',*,*,#109,.F.);
#78=ORIENTED_EDGE('',*,*,#110,.F.);
#79=ORIENTED_EDGE('',*,*,#111,.T.);
#80=ORIENTED_EDGE('',*,*,#112,.T.);
#81=ORIENTED_EDGE('',*,*,#111,.F.);
#82=ORIENTED_EDGE('',*,*,#113,.T.);
#83=ORIENTED_EDGE('',*,*,#112,.F.);
#84=ORIENTED_EDGE('',*,*,#114,.T.);
#85=ORIENTED_EDGE('',*,*,#113,.F.);
#86=ORIENTED_EDGE('',*,*,#115,.T.);
#87=ORIENTED_EDGE('',*,*,#114,.F.);
#88=ORIENTED_EDGE('',*,*,#91,.T.);
#89=ORIENTED_EDGE('',*,*,#115,.F.);
#90=EDGE_CURVE('',#116,#116,#142,.T.);
#91=EDGE_CURVE('',#117,#117,#143,.T.);
#92=EDGE_CURVE('',#118,#118,#144,.T.);
#93=EDGE_CURVE('',#119,#119,#145,.T.);
#94=EDGE_CURVE('',#120,#120,#146,.T.);
#95=EDGE_CURVE('',#121,#121,#147,.T.);
#96=EDGE_CURVE('',#122,#122,#148,.T.);
#97=EDGE_CURVE('',#123,#123,#149,.T.);
#98=EDGE_CURVE('',#124,#124,#150,.T.);
#99=EDGE_CURVE('',#125,#125,#151,.T.);
#100=EDGE_CURVE('',#126,#126,#152,.T.);
#101=EDGE_CURVE('',#127,#127,#153,.T.);
#102=EDGE_CURVE('',#128,#128,#154,.T.);
#103=EDGE_CURVE('',#129,#129,#155,.T.);
#104=EDGE_CURVE('',#130,#130,#156,.T.);
#105=EDGE_CURVE('',#131,#131,#157,.T.);
#106=EDGE_CURVE('',#132,#132,#158,.T.);
#107=EDGE_CURVE('',#133,#133,#159,.T.);
#108=EDGE_CURVE('',#134,#134,#160,.T.);
#109=EDGE_CURVE('',#135,#135,#161,.T.);
#110=EDGE_CURVE('',#136,#136,#162,.T.);
#111=EDGE_CURVE('',#137,#137,#163,.T.);
#112=EDGE_CURVE('',#138,#138,#164,.T.);
#113=EDGE_CURVE('',#139,#139,#165,.T.);
#114=EDGE_CURVE('',#140,#140,#166,.T.);
#115=EDGE_CURVE('',#141,#141,#167,.T.);
#116=VERTEX_POINT('',#480);
#117=VERTEX_POINT('',#482);
#118=VERTEX_POINT('',#485);
#119=VERTEX_POINT('',#488);
#120=VERTEX_POINT('',#491);
#121=VERTEX_POINT('',#494);
#122=VERTEX_POINT('',#497);
#123=VERTEX_POINT('',#500);
#124=VERTEX_POINT('',#503);
#125=VERTEX_POINT('',#506);
#126=VERTEX_POINT('',#509);
#127=VERTEX_POINT('',#512);
#128=VERTEX_POINT('',#515);
#129=VERTEX_POINT('',#518);
#130=VERTEX_POINT('',#521);
#131=VERTEX_POINT('',#524);
#132=VERTEX_POINT('',#527);
#133=VERTEX_POINT('',#530);
#134=VERTEX_POINT('',#533);
#135=VERTEX_POINT('',#536);
#136=VERTEX_POINT('',#539);
#137=VERTEX_POINT('',#542);
#138=VERTEX_POINT('',#545);
#139=VERTEX_POINT('',#548);
#140=VERTEX_POINT('',#551);
#141=VERTEX_POINT('',#554);
#142=CIRCLE('',#320,1.8725859478385);
#143=CIRCLE('',#321,2.05384750524583);
#144=CIRCLE('',#323,1.7);
#145=CIRCLE('',#325,1.7);
#146=CIRCLE('',#327,1.87258594783852);
#147=CIRCLE('',#329,2.05384750524582);
#148=CIRCLE('',#331,2.39063077870367);
#149=CIRCLE('',#333,2.4);
#150=CIRCLE('',#335,2.4);
#151=CIRCLE('',#337,2.);
#152=CIRCLE('',#339,2.);
#153=CIRCLE('',#341,2.0585786437627);
#154=CIRCLE('',#343,2.4);
#155=CIRCLE('',#345,2.4);
#156=CIRCLE('',#347,2.79999999999999);
#157=CIRCLE('',#349,3.);
#158=CIRCLE('',#351,3.);
#159=CIRCLE('',#353,2.8);
#160=CIRCLE('',#355,2.4);
#161=CIRCLE('',#357,2.4);
#162=CIRCLE('',#359,2.05857864376269);
#163=CIRCLE('',#361,2.);
#164=CIRCLE('',#363,2.);
#165=CIRCLE('',#365,2.4);
#166=CIRCLE('',#367,2.4);
#167=CIRCLE('',#369,2.39063077870367);
#168=EDGE_LOOP('',(#38));
#169=EDGE_LOOP('',(#39));
#170=EDGE_LOOP('',(#40));
#171=EDGE_LOOP('',(#41));
#172=EDGE_LOOP('',(#42));
#173=EDGE_LOOP('',(#43));
#174=EDGE_LOOP('',(#44));
#175=EDGE_LOOP('',(#45));
#176=EDGE_LOOP('',(#46));
#177=EDGE_LOOP('',(#47));
#178=EDGE_LOOP('',(#48));
#179=EDGE_LOOP('',(#49));
#180=EDGE_LOOP('',(#50));
#181=EDGE_LOOP('',(#51));
#182=EDGE_LOOP('',(#52));
#183=EDGE_LOOP('',(#53));
#184=EDGE_LOOP('',(#54));
#185=EDGE_LOOP('',(#55));
#186=EDGE_LOOP('',(#56));
#187=EDGE_LOOP('',(#57));
#188=EDGE_LOOP('',(#58));
#189=EDGE_LOOP('',(#59));
#190=EDGE_LOOP('',(#60));
#191=EDGE_LOOP('',(#61));
#192=EDGE_LOOP('',(#62));
#193=EDGE_LOOP('',(#63));
#194=EDGE_LOOP('',(#64));
#195=EDGE_LOOP('',(#65));
#196=EDGE_LOOP('',(#66));
#197=EDGE_LOOP('',(#67));
#198=EDGE_LOOP('',(#68));
#199=EDGE_LOOP('',(#69));
#200=EDGE_LOOP('',(#70));
#201=EDGE_LOOP('',(#71));
#202=EDGE_LOOP('',(#72));
#203=EDGE_LOOP('',(#73));
#204=EDGE_LOOP('',(#74));
#205=EDGE_LOOP('',(#75));
#206=EDGE_LOOP('',(#76));
#207=EDGE_LOOP('',(#77));
#208=EDGE_LOOP('',(#78));
#209=EDGE_LOOP('',(#79));
#210=EDGE_LOOP('',(#80));
#211=EDGE_LOOP('',(#81));
#212=EDGE_LOOP('',(#82));
#213=EDGE_LOOP('',(#83));
#214=EDGE_LOOP('',(#84));
#215=EDGE_LOOP('',(#85));
#216=EDGE_LOOP('',(#86));
#217=EDGE_LOOP('',(#87));
#218=EDGE_LOOP('',(#88));
#219=EDGE_LOOP('',(#89));
#220=FACE_BOUND('',#168,.T.);
#221=FACE_BOUND('',#169,.T.);
#222=FACE_BOUND('',#170,.T.);
#223=FACE_BOUND('',#171,.T.);
#224=FACE_BOUND('',#172,.T.);
#225=FACE_BOUND('',#173,.T.);
#226=FACE_BOUND('',#174,.T.);
#227=FACE_BOUND('',#175,.T.);
#228=FACE_BOUND('',#176,.T.);
#229=FACE_BOUND('',#177,.T.);
#230=FACE_BOUND('',#178,.T.);
#231=FACE_BOUND('',#179,.T.);
#232=FACE_BOUND('',#180,.T.);
#233=FACE_BOUND('',#181,.T.);
#234=FACE_BOUND('',#182,.T.);
#235=FACE_BOUND('',#183,.T.);
#236=FACE_BOUND('',#184,.T.);
#237=FACE_BOUND('',#185,.T.);
#238=FACE_BOUND('',#186,.T.);
#239=FACE_BOUND('',#187,.T.);
#240=FACE_BOUND('',#188,.T.);
#241=FACE_BOUND('',#189,.T.);
#242=FACE_BOUND('',#190,.T.);
#243=FACE_BOUND('',#191,.T.);
#244=FACE_BOUND('',#192,.T.);
#245=FACE_BOUND('',#193,.T.);
#246=FACE_BOUND('',#194,.T.);
#247=FACE_BOUND('',#195,.T.);
#248=FACE_BOUND('',#196,.T.);
#249=FACE_BOUND('',#197,.T.);
#250=FACE_BOUND('',#198,.T.);
#251=FACE_BOUND('',#199,.T.);
#252=FACE_BOUND('',#200,.T.);
#253=FACE_BOUND('',#201,.T.);
#254=FACE_BOUND('',#202,.T.);
#255=FACE_BOUND('',#203,.T.);
#256=FACE_BOUND('',#204,.T.);
#257=FACE_BOUND('',#205,.T.);
#258=FACE_BOUND('',#206,.T.);
#259=FACE_BOUND('',#207,.T.);
#260=FACE_BOUND('',#208,.T.);
#261=FACE_BOUND('',#209,.T.);
#262=FACE_BOUND('',#210,.T.);
#263=FACE_BOUND('',#211,.T.);
#264=FACE_BOUND('',#212,.T.);
#265=FACE_BOUND('',#213,.T.);
#266=FACE_BOUND('',#214,.T.);
#267=FACE_BOUND('',#215,.T.);
#268=FACE_BOUND('',#216,.T.);
#269=FACE_BOUND('',#217,.T.);
#270=FACE_BOUND('',#218,.T.);
#271=FACE_BOUND('',#219,.T.);
#272=TOROIDAL_SURFACE('',#319,1.87258594783851,0.199999999999993);
#273=TOROIDAL_SURFACE('',#328,1.87258594783849,0.2);
#274=TOROIDAL_SURFACE('',#332,2.30000000000002,0.0999999999999777);
#275=TOROIDAL_SURFACE('',#340,2.2,0.200000000000001);
#276=TOROIDAL_SURFACE('',#346,2.8,0.400000000000003);
#277=TOROIDAL_SURFACE('',#354,2.8,0.400000000000003);
#278=TOROIDAL_SURFACE('',#360,2.19999999999999,0.199999999999989);
#279=TOROIDAL_SURFACE('',#368,2.29999999999997,0.100000000000035);
#280=ADVANCED_FACE('',(#220,#221),#272,.T.);
#281=ADVANCED_FACE('',(#222,#223),#32,.T.);
#282=ADVANCED_FACE('',(#224,#225),#24,.F.);
#283=ADVANCED_FACE('',(#226,#227),#33,.T.);
#284=ADVANCED_FACE('',(#228,#229),#273,.T.);
#285=ADVANCED_FACE('',(#230,#231),#20,.T.);
#286=ADVANCED_FACE('',(#232,#233),#274,.T.);
#287=ADVANCED_FACE('',(#234,#235),#25,.T.);
#288=ADVANCED_FACE('',(#236,#237),#34,.T.);
#289=ADVANCED_FACE('',(#238,#239),#26,.T.);
#290=ADVANCED_FACE('',(#240,#241),#275,.F.);
#291=ADVANCED_FACE('',(#242,#243),#21,.T.);
#292=ADVANCED_FACE('',(#244,#245),#27,.T.);
#293=ADVANCED_FACE('',(#246,#247),#276,.F.);
#294=ADVANCED_FACE('',(#248,#249),#35,.T.);
#295=ADVANCED_FACE('',(#250,#251),#28,.T.);
#296=ADVANCED_FACE('',(#252,#253),#36,.T.);
#297=ADVANCED_FACE('',(#254,#255),#277,.F.);
#298=ADVANCED_FACE('',(#256,#257),#29,.T.);
#299=ADVANCED_FACE('',(#258,#259),#22,.T.);
#300=ADVANCED_FACE('',(#260,#261),#278,.F.);
#301=ADVANCED_FACE('',(#262,#263),#30,.T.);
#302=ADVANCED_FACE('',(#264,#265),#37,.T.);
#303=ADVANCED_FACE('',(#266,#267),#31,.T.);
#304=ADVANCED_FACE('',(#268,#269),#279,.T.);
#305=ADVANCED_FACE('',(#270,#271),#23,.T.);
#306=CLOSED_SHELL('',(#280,#281,#282,#283,#284,#285,#286,#287,#288,#289,
#290,#291,#292,#293,#294,#295,#296,#297,#298,#299,#300,#301,#302,#303,#304,
#305));
#307=STYLED_ITEM('',(#308),#315);
#308=PRESENTATION_STYLE_ASSIGNMENT((#309));
#309=SURFACE_STYLE_USAGE(.BOTH.,#310);
#310=SURFACE_SIDE_STYLE('',(#311));
#311=SURFACE_STYLE_FILL_AREA(#312);
#312=FILL_AREA_STYLE('',(#313));
#313=FILL_AREA_STYLE_COLOUR('',#314);
#314=COLOUR_RGB('',0.689999997615814,0.689999997615814,0.689999997615814);
#315=MANIFOLD_SOLID_BREP('4806 RTU-PK-4/4',#306);
#316=SHAPE_DEFINITION_REPRESENTATION(#562,#317);
#317=SHAPE_REPRESENTATION('4806 RTU-PK-4/4',(#318),#557);
#318=AXIS2_PLACEMENT_3D('',#477,#371,#372);
#319=AXIS2_PLACEMENT_3D('',#478,#373,#374);
#320=AXIS2_PLACEMENT_3D('',#479,#375,#376);
#321=AXIS2_PLACEMENT_3D('',#481,#377,#378);
#322=AXIS2_PLACEMENT_3D('',#483,#379,#380);
#323=AXIS2_PLACEMENT_3D('',#484,#381,#382);
#324=AXIS2_PLACEMENT_3D('',#486,#383,#384);
#325=AXIS2_PLACEMENT_3D('',#487,#385,#386);
#326=AXIS2_PLACEMENT_3D('',#489,#387,#388);
#327=AXIS2_PLACEMENT_3D('',#490,#389,#390);
#328=AXIS2_PLACEMENT_3D('',#492,#391,#392);
#329=AXIS2_PLACEMENT_3D('',#493,#393,#394);
#330=AXIS2_PLACEMENT_3D('',#495,#395,#396);
#331=AXIS2_PLACEMENT_3D('',#496,#397,#398);
#332=AXIS2_PLACEMENT_3D('',#498,#399,#400);
#333=AXIS2_PLACEMENT_3D('',#499,#401,#402);
#334=AXIS2_PLACEMENT_3D('',#501,#403,#404);
#335=AXIS2_PLACEMENT_3D('',#502,#405,#406);
#336=AXIS2_PLACEMENT_3D('',#504,#407,#408);
#337=AXIS2_PLACEMENT_3D('',#505,#409,#410);
#338=AXIS2_PLACEMENT_3D('',#507,#411,#412);
#339=AXIS2_PLACEMENT_3D('',#508,#413,#414);
#340=AXIS2_PLACEMENT_3D('',#510,#415,#416);
#341=AXIS2_PLACEMENT_3D('',#511,#417,#418);
#342=AXIS2_PLACEMENT_3D('',#513,#419,#420);
#343=AXIS2_PLACEMENT_3D('',#514,#421,#422);
#344=AXIS2_PLACEMENT_3D('',#516,#423,#424);
#345=AXIS2_PLACEMENT_3D('',#517,#425,#426);
#346=AXIS2_PLACEMENT_3D('',#519,#427,#428);
#347=AXIS2_PLACEMENT_3D('',#520,#429,#430);
#348=AXIS2_PLACEMENT_3D('',#522,#431,#432);
#349=AXIS2_PLACEMENT_3D('',#523,#433,#434);
#350=AXIS2_PLACEMENT_3D('',#525,#435,#436);
#351=AXIS2_PLACEMENT_3D('',#526,#437,#438);
#352=AXIS2_PLACEMENT_3D('',#528,#439,#440);
#353=AXIS2_PLACEMENT_3D('',#529,#441,#442);
#354=AXIS2_PLACEMENT_3D('',#531,#443,#444);
#355=AXIS2_PLACEMENT_3D('',#532,#445,#446);
#356=AXIS2_PLACEMENT_3D('',#534,#447,#448);
#357=AXIS2_PLACEMENT_3D('',#535,#449,#450);
#358=AXIS2_PLACEMENT_3D('',#537,#451,#452);
#359=AXIS2_PLACEMENT_3D('',#538,#453,#454);
#360=AXIS2_PLACEMENT_3D('',#540,#455,#456);
#361=AXIS2_PLACEMENT_3D('',#541,#457,#458);
#362=AXIS2_PLACEMENT_3D('',#543,#459,#460);
#363=AXIS2_PLACEMENT_3D('',#544,#461,#462);
#364=AXIS2_PLACEMENT_3D('',#546,#463,#464);
#365=AXIS2_PLACEMENT_3D('',#547,#465,#466);
#366=AXIS2_PLACEMENT_3D('',#549,#467,#468);
#367=AXIS2_PLACEMENT_3D('',#550,#469,#470);
#368=AXIS2_PLACEMENT_3D('',#552,#471,#472);
#369=AXIS2_PLACEMENT_3D('',#553,#473,#474);
#370=AXIS2_PLACEMENT_3D('',#555,#475,#476);
#371=DIRECTION('',(0.,0.,1.));
#372=DIRECTION('',(1.,0.,0.));
#373=DIRECTION('',(0.,0.,-1.));
#374=DIRECTION('',(-1.,0.,0.));
#375=DIRECTION('',(0.,0.,-1.));
#376=DIRECTION('',(-1.,0.,0.));
#377=DIRECTION('',(0.,0.,-1.));
#378=DIRECTION('',(-1.,0.,0.));
#379=DIRECTION('',(0.,0.,1.));
#380=DIRECTION('',(1.,0.,0.));
#381=DIRECTION('',(0.,0.,-1.));
#382=DIRECTION('',(-1.,0.,0.));
#383=DIRECTION('',(0.,0.,-1.));
#384=DIRECTION('',(-1.,0.,0.));
#385=DIRECTION('',(0.,0.,-1.));
#386=DIRECTION('',(-1.,0.,0.));
#387=DIRECTION('',(0.,0.,-1.));
#388=DIRECTION('',(-1.,0.,0.));
#389=DIRECTION('',(0.,0.,-1.));
#390=DIRECTION('',(-1.,0.,0.));
#391=DIRECTION('',(0.,0.,-1.));
#392=DIRECTION('',(-1.,0.,0.));
#393=DIRECTION('',(0.,0.,-1.));
#394=DIRECTION('',(-1.,0.,0.));
#395=DIRECTION('',(0.,0.,1.));
#396=DIRECTION('',(1.,0.,0.));
#397=DIRECTION('',(0.,0.,-1.));
#398=DIRECTION('',(-1.,0.,0.));
#399=DIRECTION('',(0.,0.,-1.));
#400=DIRECTION('',(-1.,0.,0.));
#401=DIRECTION('',(0.,0.,-1.));
#402=DIRECTION('',(-1.,0.,0.));
#403=DIRECTION('',(0.,0.,-1.));
#404=DIRECTION('',(-1.,0.,0.));
#405=DIRECTION('',(0.,0.,-1.));
#406=DIRECTION('',(-1.,0.,0.));
#407=DIRECTION('',(0.,0.,1.));
#408=DIRECTION('',(1.,0.,0.));
#409=DIRECTION('',(0.,0.,-1.));
#410=DIRECTION('',(-1.,0.,0.));
#411=DIRECTION('',(0.,0.,-1.));
#412=DIRECTION('',(-1.,0.,0.));
#413=DIRECTION('',(0.,0.,-1.));
#414=DIRECTION('',(-1.,0.,0.));
#415=DIRECTION('',(0.,0.,-1.));
#416=DIRECTION('',(-1.,0.,0.));
#417=DIRECTION('',(0.,0.,-1.));
#418=DIRECTION('',(-1.,0.,0.));
#419=DIRECTION('',(0.,0.,1.));
#420=DIRECTION('',(1.,0.,0.));
#421=DIRECTION('',(0.,0.,-1.));
#422=DIRECTION('',(-1.,0.,0.));
#423=DIRECTION('',(0.,0.,-1.));
#424=DIRECTION('',(-1.,0.,0.));
#425=DIRECTION('',(0.,0.,-1.));
#426=DIRECTION('',(-1.,0.,0.));
#427=DIRECTION('',(0.,0.,-1.));
#428=DIRECTION('',(-1.,0.,0.));
#429=DIRECTION('',(0.,0.,-1.));
#430=DIRECTION('',(-1.,0.,0.));
#431=DIRECTION('',(0.,0.,-1.));
#432=DIRECTION('',(-1.,0.,0.));
#433=DIRECTION('',(0.,0.,-1.));
#434=DIRECTION('',(-1.,0.,0.));
#435=DIRECTION('',(0.,0.,-1.));
#436=DIRECTION('',(-1.,0.,0.));
#437=DIRECTION('',(0.,0.,-1.));
#438=DIRECTION('',(-1.,0.,0.));
#439=DIRECTION('',(0.,0.,1.));
#440=DIRECTION('',(1.,0.,0.));
#441=DIRECTION('',(0.,0.,-1.));
#442=DIRECTION('',(-1.,0.,0.));
#443=DIRECTION('',(0.,0.,-1.));
#444=DIRECTION('',(-1.,0.,0.));
#445=DIRECTION('',(0.,0.,-1.));
#446=DIRECTION('',(-1.,0.,0.));
#447=DIRECTION('',(0.,0.,-1.));
#448=DIRECTION('',(-1.,0.,0.));
#449=DIRECTION('',(0.,0.,-1.));
#450=DIRECTION('',(-1.,0.,0.));
#451=DIRECTION('',(0.,0.,-1.));
#452=DIRECTION('',(-1.,0.,0.));
#453=DIRECTION('',(0.,0.,-1.));
#454=DIRECTION('',(-1.,0.,0.));
#455=DIRECTION('',(0.,0.,-1.));
#456=DIRECTION('',(-1.,0.,0.));
#457=DIRECTION('',(0.,0.,-1.));
#458=DIRECTION('',(-1.,0.,0.));
#459=DIRECTION('',(0.,0.,-1.));
#460=DIRECTION('',(-1.,0.,0.));
#461=DIRECTION('',(0.,0.,-1.));
#462=DIRECTION('',(-1.,0.,0.));
#463=DIRECTION('',(0.,0.,-1.));
#464=DIRECTION('',(-1.,0.,0.));
#465=DIRECTION('',(0.,0.,-1.));
#466=DIRECTION('',(-1.,0.,0.));
#467=DIRECTION('',(0.,0.,-1.));
#468=DIRECTION('',(-1.,0.,0.));
#469=DIRECTION('',(0.,0.,-1.));
#470=DIRECTION('',(-1.,0.,0.));
#471=DIRECTION('',(0.,0.,-1.));
#472=DIRECTION('',(-1.,0.,0.));
#473=DIRECTION('',(0.,0.,-1.));
#474=DIRECTION('',(-1.,0.,0.));
#475=DIRECTION('',(0.,0.,-1.));
#476=DIRECTION('',(-1.,0.,0.));
#477=CARTESIAN_POINT('',(0.,0.,0.));
#478=CARTESIAN_POINT('',(0.,0.,22.8));
#479=CARTESIAN_POINT('',(0.,0.,23.));
#480=CARTESIAN_POINT('',(-1.8725859478385,0.,23.));
#481=CARTESIAN_POINT('',(0.,0.,22.8845236523481));
#482=CARTESIAN_POINT('',(-2.05384750524583,0.,22.8845236523481));
#483=CARTESIAN_POINT('',(0.,1.8725859478385,23.));
#484=CARTESIAN_POINT('',(0.,0.,23.));
#485=CARTESIAN_POINT('',(-1.7,0.,23.));
#486=CARTESIAN_POINT('',(0.,0.,0.));
#487=CARTESIAN_POINT('',(0.,0.,0.));
#488=CARTESIAN_POINT('',(-1.7,0.,0.));
#489=CARTESIAN_POINT('',(0.,1.7,0.));
#490=CARTESIAN_POINT('',(0.,0.,0.));
#491=CARTESIAN_POINT('',(-1.87258594783852,0.,0.));
#492=CARTESIAN_POINT('',(0.,0.,0.2));
#493=CARTESIAN_POINT('',(0.,0.,0.115476347651866));
#494=CARTESIAN_POINT('',(-2.05384750524582,0.,0.115476347651866));
#495=CARTESIAN_POINT('',(0.,0.,0.115476347651866));
#496=CARTESIAN_POINT('',(0.,0.,0.837710408294042));
#497=CARTESIAN_POINT('',(-2.39063077870367,0.,0.837710408294042));
#498=CARTESIAN_POINT('',(0.,0.,0.879972234468099));
#499=CARTESIAN_POINT('',(0.,0.,0.879972234468116));
#500=CARTESIAN_POINT('',(-2.4,0.,0.879972234468116));
#501=CARTESIAN_POINT('',(0.,0.,0.));
#502=CARTESIAN_POINT('',(0.,0.,1.1));
#503=CARTESIAN_POINT('',(-2.4,0.,1.1));
#504=CARTESIAN_POINT('',(0.,2.4,1.1));
#505=CARTESIAN_POINT('',(0.,0.,1.1));
#506=CARTESIAN_POINT('',(-2.,0.,1.1));
#507=CARTESIAN_POINT('',(0.,0.,0.));
#508=CARTESIAN_POINT('',(0.,0.,5.41715728752538));
#509=CARTESIAN_POINT('',(-2.,0.,5.41715728752538));
#510=CARTESIAN_POINT('',(0.,0.,5.41715728752538));
#511=CARTESIAN_POINT('',(0.,0.,5.55857864376269));
#512=CARTESIAN_POINT('',(-2.0585786437627,0.,5.55857864376269));
#513=CARTESIAN_POINT('',(0.,0.,5.55857864376269));
#514=CARTESIAN_POINT('',(0.,0.,5.9));
#515=CARTESIAN_POINT('',(-2.4,0.,5.9));
#516=CARTESIAN_POINT('',(0.,0.,0.));
#517=CARTESIAN_POINT('',(0.,0.,10.1));
#518=CARTESIAN_POINT('',(-2.4,0.,10.1));
#519=CARTESIAN_POINT('',(0.,0.,10.1));
#520=CARTESIAN_POINT('',(0.,0.,10.5));
#521=CARTESIAN_POINT('',(-2.79999999999999,0.,10.5));
#522=CARTESIAN_POINT('',(0.,2.79999999999999,10.5));
#523=CARTESIAN_POINT('',(0.,0.,10.5));
#524=CARTESIAN_POINT('',(-3.,0.,10.5));
#525=CARTESIAN_POINT('',(0.,0.,0.));
#526=CARTESIAN_POINT('',(0.,0.,12.5));
#527=CARTESIAN_POINT('',(-3.,0.,12.5));
#528=CARTESIAN_POINT('',(0.,3.,12.5));
#529=CARTESIAN_POINT('',(0.,0.,12.5));
#530=CARTESIAN_POINT('',(-2.8,0.,12.5));
#531=CARTESIAN_POINT('',(0.,0.,12.9));
#532=CARTESIAN_POINT('',(0.,0.,12.9));
#533=CARTESIAN_POINT('',(-2.4,0.,12.9));
#534=CARTESIAN_POINT('',(0.,0.,0.));
#535=CARTESIAN_POINT('',(0.,0.,17.1));
#536=CARTESIAN_POINT('',(-2.4,0.,17.1));
#537=CARTESIAN_POINT('',(0.,0.,17.1));
#538=CARTESIAN_POINT('',(0.,0.,17.4414213562373));
#539=CARTESIAN_POINT('',(-2.05857864376269,0.,17.4414213562373));
#540=CARTESIAN_POINT('',(0.,0.,17.5828427124746));
#541=CARTESIAN_POINT('',(0.,0.,17.5828427124746));
#542=CARTESIAN_POINT('',(-2.,0.,17.5828427124746));
#543=CARTESIAN_POINT('',(0.,0.,0.));
#544=CARTESIAN_POINT('',(0.,0.,21.9));
#545=CARTESIAN_POINT('',(-2.,0.,21.9));
#546=CARTESIAN_POINT('',(0.,2.,21.9));
#547=CARTESIAN_POINT('',(0.,0.,21.9));
#548=CARTESIAN_POINT('',(-2.4,0.,21.9));
#549=CARTESIAN_POINT('',(0.,0.,0.));
#550=CARTESIAN_POINT('',(0.,0.,22.1200277655319));
#551=CARTESIAN_POINT('',(-2.4,0.,22.1200277655319));
#552=CARTESIAN_POINT('',(0.,0.,22.1200277655319));
#553=CARTESIAN_POINT('',(0.,0.,22.162289591706));
#554=CARTESIAN_POINT('',(-2.39063077870367,0.,22.162289591706));
#555=CARTESIAN_POINT('',(0.,0.,22.162289591706));
#556=MECHANICAL_DESIGN_GEOMETRIC_PRESENTATION_REPRESENTATION('',(#307),
#557);
#557=(
GEOMETRIC_REPRESENTATION_CONTEXT(3)
GLOBAL_UNCERTAINTY_ASSIGNED_CONTEXT((#558))
GLOBAL_UNIT_ASSIGNED_CONTEXT((#561,#560,#559))
REPRESENTATION_CONTEXT('4806 RTU-PK-4/4','TOP_LEVEL_ASSEMBLY_PART')
);
#558=UNCERTAINTY_MEASURE_WITH_UNIT(LENGTH_MEASURE(0.005),#561,
'DISTANCE_ACCURACY_VALUE','Maximum Tolerance applied to model');
#559=(
NAMED_UNIT(*)
SI_UNIT($,.STERADIAN.)
SOLID_ANGLE_UNIT()
);
#560=(
NAMED_UNIT(*)
PLANE_ANGLE_UNIT()
SI_UNIT($,.RADIAN.)
);
#561=(
LENGTH_UNIT()
NAMED_UNIT(*)
SI_UNIT(.MILLI.,.METRE.)
);
#562=PRODUCT_DEFINITION_SHAPE('','',#563);
#563=PRODUCT_DEFINITION('','',#565,#564);
#564=PRODUCT_DEFINITION_CONTEXT('',#571,'design');
#565=PRODUCT_DEFINITION_FORMATION_WITH_SPECIFIED_SOURCE('','',#567,
 .NOT_KNOWN.);
#566=PRODUCT_RELATED_PRODUCT_CATEGORY('','',(#567));
#567=PRODUCT('4806 RTU-PK-4/4','4806 RTU-PK-4/4','4806 RTU-PK-4/4',(#569));
#568=PRODUCT_CATEGORY('','');
#569=PRODUCT_CONTEXT('',#571,'mechanical');
#570=APPLICATION_PROTOCOL_DEFINITION('international standard',
'automotive_design',2010,#571);
#571=APPLICATION_CONTEXT(
'core data for automotive mechanical design processes');
ENDSEC;
END-ISO-10303-21;
