ISO-10303-21;
HEADER;
/* Generated by software containing ST-Developer
 * from STEP Tools, Inc. (www.steptools.com) 
 */
/* OPTION: using custom renumber hook */

FILE_DESCRIPTION(
/* description */ ('STEP AP214'),
/* implementation_level */ '2;1');

FILE_NAME(
/* name */ '5127_HBN-20_25X1',
/* time_stamp */ '2024-08-21T11:55:08+02:00',
/* author */ ('License CC BY-ND 4.0'),
/* organization */ ('CADENAS'),
/* preprocessor_version */ 'ST-DEVELOPER v19.3',
/* originating_system */ 'PARTsolutions',
/* authorisation */ '  ');

FILE_SCHEMA (('AUTOMOTIVE_DESIGN {1 0 10303 214 3 1 1}'));
ENDSEC;

DATA;
#10=PROPERTY_DEFINITION_REPRESENTATION(#14,#12);
#11=PROPERTY_DEFINITION_REPRESENTATION(#15,#13);
#12=REPRESENTATION('',(#16),#505);
#13=REPRESENTATION('',(#17),#505);
#14=PROPERTY_DEFINITION('pmi validation property','',#512);
#15=PROPERTY_DEFINITION('pmi validation property','',#512);
#16=VALUE_REPRESENTATION_ITEM('number of annotations',COUNT_MEASURE(0.));
#17=VALUE_REPRESENTATION_ITEM('number of views',COUNT_MEASURE(0.));
#18=CONTEXT_DEPENDENT_SHAPE_REPRESENTATION(#20,#514);
#19=NEXT_ASSEMBLY_USAGE_OCCURRENCE('NAUO1','5127 HBN-20/25x1---(1)',
'5127 HBN-20/25x1---(1)',#515,#516,'');
#20=(
REPRESENTATION_RELATIONSHIP(' ',' ',#305,#304)
REPRESENTATION_RELATIONSHIP_WITH_TRANSFORMATION(#21)
SHAPE_REPRESENTATION_RELATIONSHIP()
);
#21=ITEM_DEFINED_TRANSFORMATION(' ',' ',#306,#338);
#22=SHAPE_REPRESENTATION_RELATIONSHIP('','',#305,#23);
#23=ADVANCED_BREP_SHAPE_REPRESENTATION('',(#301),#506);
#24=ELLIPSE('',#311,7.32799699053429,7.);
#25=ELLIPSE('',#312,7.32799699053429,7.);
#26=ELLIPSE('',#316,2.09371342586694,2.);
#27=ELLIPSE('',#319,2.09371342586694,2.);
#28=CYLINDRICAL_SURFACE('',#310,7.);
#29=CYLINDRICAL_SURFACE('',#315,2.);
#30=CYLINDRICAL_SURFACE('',#332,20.);
#31=CYLINDRICAL_SURFACE('',#335,11.05);
#32=CYLINDRICAL_SURFACE('',#336,3.3);
#33=CYLINDRICAL_SURFACE('',#337,3.3);
#34=LINE('',#429,#54);
#35=LINE('',#434,#55);
#36=LINE('',#436,#56);
#37=LINE('',#444,#57);
#38=LINE('',#448,#58);
#39=LINE('',#455,#59);
#40=LINE('',#463,#60);
#41=LINE('',#465,#61);
#42=LINE('',#469,#62);
#43=LINE('',#470,#63);
#44=LINE('',#472,#64);
#45=LINE('',#474,#65);
#46=LINE('',#476,#66);
#47=LINE('',#477,#67);
#48=LINE('',#479,#68);
#49=LINE('',#481,#69);
#50=LINE('',#487,#70);
#51=LINE('',#489,#71);
#52=LINE('',#496,#72);
#53=LINE('',#497,#73);
#54=VECTOR('',#345,1000.);
#55=VECTOR('',#348,1000.);
#56=VECTOR('',#349,1000.);
#57=VECTOR('',#358,1000.);
#58=VECTOR('',#363,1000.);
#59=VECTOR('',#368,1000.);
#60=VECTOR('',#377,1000.);
#61=VECTOR('',#378,1000.);
#62=VECTOR('',#383,1000.);
#63=VECTOR('',#384,1000.);
#64=VECTOR('',#385,1000.);
#65=VECTOR('',#386,1000.);
#66=VECTOR('',#389,1000.);
#67=VECTOR('',#390,1000.);
#68=VECTOR('',#391,1000.);
#69=VECTOR('',#392,1000.);
#70=VECTOR('',#399,1000.);
#71=VECTOR('',#402,1000.);
#72=VECTOR('',#411,1000.);
#73=VECTOR('',#412,1000.);
#74=ORIENTED_EDGE('',*,*,#146,.F.);
#75=ORIENTED_EDGE('',*,*,#147,.F.);
#76=ORIENTED_EDGE('',*,*,#148,.T.);
#77=ORIENTED_EDGE('',*,*,#149,.F.);
#78=ORIENTED_EDGE('',*,*,#150,.F.);
#79=ORIENTED_EDGE('',*,*,#151,.F.);
#80=ORIENTED_EDGE('',*,*,#150,.T.);
#81=ORIENTED_EDGE('',*,*,#152,.F.);
#82=ORIENTED_EDGE('',*,*,#153,.T.);
#83=ORIENTED_EDGE('',*,*,#154,.F.);
#84=ORIENTED_EDGE('',*,*,#155,.F.);
#85=ORIENTED_EDGE('',*,*,#156,.F.);
#86=ORIENTED_EDGE('',*,*,#157,.T.);
#87=ORIENTED_EDGE('',*,*,#158,.T.);
#88=ORIENTED_EDGE('',*,*,#159,.T.);
#89=ORIENTED_EDGE('',*,*,#160,.F.);
#90=ORIENTED_EDGE('',*,*,#161,.T.);
#91=ORIENTED_EDGE('',*,*,#162,.F.);
#92=ORIENTED_EDGE('',*,*,#163,.F.);
#93=ORIENTED_EDGE('',*,*,#156,.T.);
#94=ORIENTED_EDGE('',*,*,#164,.F.);
#95=ORIENTED_EDGE('',*,*,#165,.T.);
#96=ORIENTED_EDGE('',*,*,#158,.F.);
#97=ORIENTED_EDGE('',*,*,#166,.T.);
#98=ORIENTED_EDGE('',*,*,#155,.T.);
#99=ORIENTED_EDGE('',*,*,#167,.T.);
#100=ORIENTED_EDGE('',*,*,#168,.T.);
#101=ORIENTED_EDGE('',*,*,#169,.T.);
#102=ORIENTED_EDGE('',*,*,#170,.F.);
#103=ORIENTED_EDGE('',*,*,#160,.T.);
#104=ORIENTED_EDGE('',*,*,#171,.F.);
#105=ORIENTED_EDGE('',*,*,#172,.F.);
#106=ORIENTED_EDGE('',*,*,#173,.F.);
#107=ORIENTED_EDGE('',*,*,#153,.F.);
#108=ORIENTED_EDGE('',*,*,#174,.F.);
#109=ORIENTED_EDGE('',*,*,#175,.F.);
#110=ORIENTED_EDGE('',*,*,#173,.T.);
#111=ORIENTED_EDGE('',*,*,#176,.F.);
#112=ORIENTED_EDGE('',*,*,#167,.F.);
#113=ORIENTED_EDGE('',*,*,#154,.T.);
#114=ORIENTED_EDGE('',*,*,#172,.T.);
#115=ORIENTED_EDGE('',*,*,#177,.F.);
#116=ORIENTED_EDGE('',*,*,#168,.F.);
#117=ORIENTED_EDGE('',*,*,#176,.T.);
#118=ORIENTED_EDGE('',*,*,#178,.F.);
#119=ORIENTED_EDGE('',*,*,#179,.F.);
#120=ORIENTED_EDGE('',*,*,#171,.T.);
#121=ORIENTED_EDGE('',*,*,#159,.F.);
#122=ORIENTED_EDGE('',*,*,#169,.F.);
#123=ORIENTED_EDGE('',*,*,#177,.T.);
#124=ORIENTED_EDGE('',*,*,#180,.F.);
#125=ORIENTED_EDGE('',*,*,#165,.F.);
#126=ORIENTED_EDGE('',*,*,#181,.T.);
#127=ORIENTED_EDGE('',*,*,#148,.F.);
#128=ORIENTED_EDGE('',*,*,#163,.T.);
#129=ORIENTED_EDGE('',*,*,#180,.T.);
#130=ORIENTED_EDGE('',*,*,#147,.T.);
#131=ORIENTED_EDGE('',*,*,#151,.T.);
#132=ORIENTED_EDGE('',*,*,#166,.F.);
#133=ORIENTED_EDGE('',*,*,#157,.F.);
#134=ORIENTED_EDGE('',*,*,#164,.T.);
#135=ORIENTED_EDGE('',*,*,#161,.F.);
#136=ORIENTED_EDGE('',*,*,#170,.T.);
#137=ORIENTED_EDGE('',*,*,#152,.T.);
#138=ORIENTED_EDGE('',*,*,#149,.T.);
#139=ORIENTED_EDGE('',*,*,#181,.F.);
#140=ORIENTED_EDGE('',*,*,#162,.T.);
#141=ORIENTED_EDGE('',*,*,#146,.T.);
#142=ORIENTED_EDGE('',*,*,#179,.T.);
#143=ORIENTED_EDGE('',*,*,#175,.T.);
#144=ORIENTED_EDGE('',*,*,#178,.T.);
#145=ORIENTED_EDGE('',*,*,#174,.T.);
#146=EDGE_CURVE('',#182,#182,#208,.F.);
#147=EDGE_CURVE('',#183,#184,#34,.T.);
#148=EDGE_CURVE('',#183,#185,#209,.F.);
#149=EDGE_CURVE('',#186,#185,#35,.T.);
#150=EDGE_CURVE('',#184,#186,#36,.T.);
#151=EDGE_CURVE('',#184,#187,#24,.T.);
#152=EDGE_CURVE('',#188,#186,#25,.T.);
#153=EDGE_CURVE('',#188,#189,#210,.T.);
#154=EDGE_CURVE('',#190,#189,#37,.T.);
#155=EDGE_CURVE('',#187,#190,#211,.T.);
#156=EDGE_CURVE('',#191,#192,#38,.T.);
#157=EDGE_CURVE('',#191,#193,#26,.T.);
#158=EDGE_CURVE('',#193,#194,#212,.T.);
#159=EDGE_CURVE('',#194,#195,#39,.T.);
#160=EDGE_CURVE('',#196,#195,#213,.T.);
#161=EDGE_CURVE('',#196,#192,#27,.T.);
#162=EDGE_CURVE('',#197,#197,#214,.F.);
#163=EDGE_CURVE('',#191,#198,#40,.T.);
#164=EDGE_CURVE('',#199,#192,#41,.T.);
#165=EDGE_CURVE('',#199,#198,#215,.F.);
#166=EDGE_CURVE('',#193,#187,#42,.T.);
#167=EDGE_CURVE('',#190,#200,#43,.T.);
#168=EDGE_CURVE('',#200,#201,#44,.T.);
#169=EDGE_CURVE('',#201,#194,#45,.T.);
#170=EDGE_CURVE('',#196,#188,#46,.T.);
#171=EDGE_CURVE('',#202,#195,#47,.T.);
#172=EDGE_CURVE('',#203,#202,#48,.T.);
#173=EDGE_CURVE('',#189,#203,#49,.T.);
#174=EDGE_CURVE('',#204,#204,#216,.F.);
#175=EDGE_CURVE('',#205,#205,#217,.F.);
#176=EDGE_CURVE('',#200,#203,#50,.T.);
#177=EDGE_CURVE('',#201,#202,#51,.T.);
#178=EDGE_CURVE('',#206,#206,#218,.F.);
#179=EDGE_CURVE('',#207,#207,#219,.F.);
#180=EDGE_CURVE('',#198,#183,#52,.T.);
#181=EDGE_CURVE('',#199,#185,#53,.T.);
#182=VERTEX_POINT('',#428);
#183=VERTEX_POINT('',#430);
#184=VERTEX_POINT('',#431);
#185=VERTEX_POINT('',#433);
#186=VERTEX_POINT('',#435);
#187=VERTEX_POINT('',#439);
#188=VERTEX_POINT('',#441);
#189=VERTEX_POINT('',#443);
#190=VERTEX_POINT('',#445);
#191=VERTEX_POINT('',#449);
#192=VERTEX_POINT('',#450);
#193=VERTEX_POINT('',#452);
#194=VERTEX_POINT('',#454);
#195=VERTEX_POINT('',#456);
#196=VERTEX_POINT('',#458);
#197=VERTEX_POINT('',#462);
#198=VERTEX_POINT('',#464);
#199=VERTEX_POINT('',#466);
#200=VERTEX_POINT('',#471);
#201=VERTEX_POINT('',#473);
#202=VERTEX_POINT('',#478);
#203=VERTEX_POINT('',#480);
#204=VERTEX_POINT('',#484);
#205=VERTEX_POINT('',#486);
#206=VERTEX_POINT('',#492);
#207=VERTEX_POINT('',#494);
#208=CIRCLE('',#308,11.05);
#209=CIRCLE('',#309,20.);
#210=CIRCLE('',#313,7.);
#211=CIRCLE('',#314,7.);
#212=CIRCLE('',#317,2.);
#213=CIRCLE('',#318,2.);
#214=CIRCLE('',#321,11.05);
#215=CIRCLE('',#322,20.);
#216=CIRCLE('',#326,3.3);
#217=CIRCLE('',#327,3.3);
#218=CIRCLE('',#330,3.3);
#219=CIRCLE('',#331,3.3);
#220=EDGE_LOOP('',(#74));
#221=EDGE_LOOP('',(#75,#76,#77,#78));
#222=EDGE_LOOP('',(#79,#80,#81,#82,#83,#84));
#223=EDGE_LOOP('',(#85,#86,#87,#88,#89,#90));
#224=EDGE_LOOP('',(#91));
#225=EDGE_LOOP('',(#92,#93,#94,#95));
#226=EDGE_LOOP('',(#96,#97,#98,#99,#100,#101));
#227=EDGE_LOOP('',(#102,#103,#104,#105,#106,#107));
#228=EDGE_LOOP('',(#108));
#229=EDGE_LOOP('',(#109));
#230=EDGE_LOOP('',(#110,#111,#112,#113));
#231=EDGE_LOOP('',(#114,#115,#116,#117));
#232=EDGE_LOOP('',(#118));
#233=EDGE_LOOP('',(#119));
#234=EDGE_LOOP('',(#120,#121,#122,#123));
#235=EDGE_LOOP('',(#124,#125,#126,#127));
#236=EDGE_LOOP('',(#128,#129,#130,#131,#132,#133));
#237=EDGE_LOOP('',(#134,#135,#136,#137,#138,#139));
#238=EDGE_LOOP('',(#140));
#239=EDGE_LOOP('',(#141));
#240=EDGE_LOOP('',(#142));
#241=EDGE_LOOP('',(#143));
#242=EDGE_LOOP('',(#144));
#243=EDGE_LOOP('',(#145));
#244=FACE_BOUND('',#220,.T.);
#245=FACE_BOUND('',#221,.T.);
#246=FACE_BOUND('',#222,.T.);
#247=FACE_BOUND('',#223,.T.);
#248=FACE_BOUND('',#224,.T.);
#249=FACE_BOUND('',#225,.T.);
#250=FACE_BOUND('',#226,.T.);
#251=FACE_BOUND('',#227,.T.);
#252=FACE_BOUND('',#228,.T.);
#253=FACE_BOUND('',#229,.T.);
#254=FACE_BOUND('',#230,.T.);
#255=FACE_BOUND('',#231,.T.);
#256=FACE_BOUND('',#232,.T.);
#257=FACE_BOUND('',#233,.T.);
#258=FACE_BOUND('',#234,.T.);
#259=FACE_BOUND('',#235,.T.);
#260=FACE_BOUND('',#236,.T.);
#261=FACE_BOUND('',#237,.T.);
#262=FACE_BOUND('',#238,.T.);
#263=FACE_BOUND('',#239,.T.);
#264=FACE_BOUND('',#240,.T.);
#265=FACE_BOUND('',#241,.T.);
#266=FACE_BOUND('',#242,.T.);
#267=FACE_BOUND('',#243,.T.);
#268=PLANE('',#307);
#269=PLANE('',#320);
#270=PLANE('',#323);
#271=PLANE('',#324);
#272=PLANE('',#325);
#273=PLANE('',#328);
#274=PLANE('',#329);
#275=PLANE('',#333);
#276=PLANE('',#334);
#277=ADVANCED_FACE('',(#244,#245),#268,.F.);
#278=ADVANCED_FACE('',(#246),#28,.T.);
#279=ADVANCED_FACE('',(#247),#29,.F.);
#280=ADVANCED_FACE('',(#248,#249),#269,.F.);
#281=ADVANCED_FACE('',(#250),#270,.T.);
#282=ADVANCED_FACE('',(#251),#271,.F.);
#283=ADVANCED_FACE('',(#252,#253,#254),#272,.F.);
#284=ADVANCED_FACE('',(#255),#273,.F.);
#285=ADVANCED_FACE('',(#256,#257,#258),#274,.F.);
#286=ADVANCED_FACE('',(#259),#30,.T.);
#287=ADVANCED_FACE('',(#260),#275,.T.);
#288=ADVANCED_FACE('',(#261),#276,.T.);
#289=ADVANCED_FACE('',(#262,#263),#31,.F.);
#290=ADVANCED_FACE('',(#264,#265),#32,.F.);
#291=ADVANCED_FACE('',(#266,#267),#33,.F.);
#292=CLOSED_SHELL('',(#277,#278,#279,#280,#281,#282,#283,#284,#285,#286,
#287,#288,#289,#290,#291));
#293=STYLED_ITEM('',(#294),#301);
#294=PRESENTATION_STYLE_ASSIGNMENT((#295));
#295=SURFACE_STYLE_USAGE(.BOTH.,#296);
#296=SURFACE_SIDE_STYLE('',(#297));
#297=SURFACE_STYLE_FILL_AREA(#298);
#298=FILL_AREA_STYLE('',(#299));
#299=FILL_AREA_STYLE_COLOUR('',#300);
#300=COLOUR_RGB('',0.689999997615814,0.689999997615814,0.689999997615814);
#301=MANIFOLD_SOLID_BREP('5127 HBN-20/25x1---(1)',#292);
#302=SHAPE_DEFINITION_REPRESENTATION(#512,#304);
#303=SHAPE_DEFINITION_REPRESENTATION(#513,#305);
#304=SHAPE_REPRESENTATION('5127 HBN-20/25x1---(0)',(#306,#338),#505);
#305=SHAPE_REPRESENTATION('5127 HBN-20/25x1---(1)',(#306),#506);
#306=AXIS2_PLACEMENT_3D('',#425,#339,#340);
#307=AXIS2_PLACEMENT_3D('',#426,#341,#342);
#308=AXIS2_PLACEMENT_3D('',#427,#343,#344);
#309=AXIS2_PLACEMENT_3D('',#432,#346,#347);
#310=AXIS2_PLACEMENT_3D('',#437,#350,#351);
#311=AXIS2_PLACEMENT_3D('',#438,#352,#353);
#312=AXIS2_PLACEMENT_3D('',#440,#354,#355);
#313=AXIS2_PLACEMENT_3D('',#442,#356,#357);
#314=AXIS2_PLACEMENT_3D('',#446,#359,#360);
#315=AXIS2_PLACEMENT_3D('',#447,#361,#362);
#316=AXIS2_PLACEMENT_3D('',#451,#364,#365);
#317=AXIS2_PLACEMENT_3D('',#453,#366,#367);
#318=AXIS2_PLACEMENT_3D('',#457,#369,#370);
#319=AXIS2_PLACEMENT_3D('',#459,#371,#372);
#320=AXIS2_PLACEMENT_3D('',#460,#373,#374);
#321=AXIS2_PLACEMENT_3D('',#461,#375,#376);
#322=AXIS2_PLACEMENT_3D('',#467,#379,#380);
#323=AXIS2_PLACEMENT_3D('',#468,#381,#382);
#324=AXIS2_PLACEMENT_3D('',#475,#387,#388);
#325=AXIS2_PLACEMENT_3D('',#482,#393,#394);
#326=AXIS2_PLACEMENT_3D('',#483,#395,#396);
#327=AXIS2_PLACEMENT_3D('',#485,#397,#398);
#328=AXIS2_PLACEMENT_3D('',#488,#400,#401);
#329=AXIS2_PLACEMENT_3D('',#490,#403,#404);
#330=AXIS2_PLACEMENT_3D('',#491,#405,#406);
#331=AXIS2_PLACEMENT_3D('',#493,#407,#408);
#332=AXIS2_PLACEMENT_3D('',#495,#409,#410);
#333=AXIS2_PLACEMENT_3D('',#498,#413,#414);
#334=AXIS2_PLACEMENT_3D('',#499,#415,#416);
#335=AXIS2_PLACEMENT_3D('',#500,#417,#418);
#336=AXIS2_PLACEMENT_3D('',#501,#419,#420);
#337=AXIS2_PLACEMENT_3D('',#502,#421,#422);
#338=AXIS2_PLACEMENT_3D('',#503,#423,#424);
#339=DIRECTION('',(0.,0.,1.));
#340=DIRECTION('',(1.,0.,0.));
#341=DIRECTION('',(1.,0.,0.));
#342=DIRECTION('',(0.,0.,-1.));
#343=DIRECTION('',(1.,0.,0.));
#344=DIRECTION('',(0.,0.,-1.));
#345=DIRECTION('',(0.,-0.955240566971033,0.29583011883995));
#346=DIRECTION('',(1.,0.,0.));
#347=DIRECTION('',(0.,0.,-1.));
#348=DIRECTION('',(0.,0.955240566971033,0.29583011883995));
#349=DIRECTION('',(0.,0.,-1.));
#350=DIRECTION('',(0.,0.,-1.));
#351=DIRECTION('',(-1.,0.,0.));
#352=DIRECTION('',(0.,0.29583011883995,0.955240566971033));
#353=DIRECTION('',(0.,0.955240566971033,-0.29583011883995));
#354=DIRECTION('',(0.,0.29583011883995,-0.955240566971033));
#355=DIRECTION('',(0.,-0.955240566971033,-0.29583011883995));
#356=DIRECTION('',(0.,0.,1.));
#357=DIRECTION('',(1.,0.,0.));
#358=DIRECTION('',(0.,0.,-1.));
#359=DIRECTION('',(0.,0.,1.));
#360=DIRECTION('',(1.,0.,0.));
#361=DIRECTION('',(0.,0.,-1.));
#362=DIRECTION('',(-1.,0.,0.));
#363=DIRECTION('',(0.,0.,-1.));
#364=DIRECTION('',(0.,0.29583011883995,0.955240566971033));
#365=DIRECTION('',(0.,0.955240566971033,-0.29583011883995));
#366=DIRECTION('',(0.,0.,1.));
#367=DIRECTION('',(1.,0.,0.));
#368=DIRECTION('',(0.,0.,-1.));
#369=DIRECTION('',(0.,0.,1.));
#370=DIRECTION('',(1.,0.,0.));
#371=DIRECTION('',(0.,0.29583011883995,-0.955240566971033));
#372=DIRECTION('',(0.,-0.955240566971033,-0.29583011883995));
#373=DIRECTION('',(-1.,0.,0.));
#374=DIRECTION('',(0.,0.,1.));
#375=DIRECTION('',(-1.,0.,0.));
#376=DIRECTION('',(0.,0.,1.));
#377=DIRECTION('',(0.,0.955240566971033,-0.29583011883995));
#378=DIRECTION('',(0.,-0.955240566971033,-0.29583011883995));
#379=DIRECTION('',(-1.,0.,0.));
#380=DIRECTION('',(0.,0.,1.));
#381=DIRECTION('',(0.,0.,1.));
#382=DIRECTION('',(1.,0.,0.));
#383=DIRECTION('',(-1.,0.,0.));
#384=DIRECTION('',(1.,0.,0.));
#385=DIRECTION('',(0.,1.,0.));
#386=DIRECTION('',(-1.,0.,0.));
#387=DIRECTION('',(0.,0.,1.));
#388=DIRECTION('',(1.,0.,0.));
#389=DIRECTION('',(-1.,0.,0.));
#390=DIRECTION('',(-1.,0.,0.));
#391=DIRECTION('',(0.,1.,0.));
#392=DIRECTION('',(1.,0.,0.));
#393=DIRECTION('',(0.,1.,0.));
#394=DIRECTION('',(0.,0.,1.));
#395=DIRECTION('',(0.,1.,0.));
#396=DIRECTION('',(0.,0.,1.));
#397=DIRECTION('',(0.,1.,0.));
#398=DIRECTION('',(0.,0.,1.));
#399=DIRECTION('',(0.,0.,-1.));
#400=DIRECTION('',(-1.,0.,0.));
#401=DIRECTION('',(0.,0.,1.));
#402=DIRECTION('',(0.,0.,-1.));
#403=DIRECTION('',(0.,-1.,0.));
#404=DIRECTION('',(0.,0.,-1.));
#405=DIRECTION('',(0.,-1.,0.));
#406=DIRECTION('',(0.,0.,-1.));
#407=DIRECTION('',(0.,-1.,0.));
#408=DIRECTION('',(0.,0.,-1.));
#409=DIRECTION('',(-1.,0.,0.));
#410=DIRECTION('',(0.,0.,1.));
#411=DIRECTION('',(-1.,0.,0.));
#412=DIRECTION('',(-1.,0.,0.));
#413=DIRECTION('',(0.,0.29583011883995,0.955240566971033));
#414=DIRECTION('',(0.,-0.955240566971033,0.29583011883995));
#415=DIRECTION('',(0.,0.29583011883995,-0.955240566971033));
#416=DIRECTION('',(0.,0.955240566971033,0.29583011883995));
#417=DIRECTION('',(-1.,0.,0.));
#418=DIRECTION('',(0.,0.,1.));
#419=DIRECTION('',(0.,-1.,0.));
#420=DIRECTION('',(0.,0.,-1.));
#421=DIRECTION('',(0.,-1.,0.));
#422=DIRECTION('',(0.,0.,-1.));
#423=DIRECTION('',(1.,0.,0.));
#424=DIRECTION('',(0.,0.,-1.));
#425=CARTESIAN_POINT('',(0.,0.,0.));
#426=CARTESIAN_POINT('',(0.,50.,27.));
#427=CARTESIAN_POINT('',(0.,25.,0.));
#428=CARTESIAN_POINT('',(0.,25.,-11.05));
#429=CARTESIAN_POINT('',(0.,46.0988147743874,14.4030054769733));
#430=CARTESIAN_POINT('',(0.,30.916602376799,19.1048113394207));
#431=CARTESIAN_POINT('',(0.,6.99999999999999,26.5115856829885));
#432=CARTESIAN_POINT('',(0.,25.,-3.46944695195361E-15));
#433=CARTESIAN_POINT('',(0.,30.916602376799,-19.1048113394207));
#434=CARTESIAN_POINT('',(0.,61.3586170185676,-9.67717067947893));
#435=CARTESIAN_POINT('',(0.,6.99999999999999,-26.5115856829885));
#436=CARTESIAN_POINT('',(0.,6.99999999999999,27.));
#437=CARTESIAN_POINT('',(7.,7.,27.));
#438=CARTESIAN_POINT('',(7.,7.,26.5115856829885));
#439=CARTESIAN_POINT('',(0.179973530708802,5.42290172843687,27.));
#440=CARTESIAN_POINT('',(7.,7.,-26.5115856829885));
#441=CARTESIAN_POINT('',(0.179973530708804,5.42290172843685,-27.));
#442=CARTESIAN_POINT('',(7.,7.,-27.));
#443=CARTESIAN_POINT('',(7.,8.67361737988404E-16,-27.));
#444=CARTESIAN_POINT('',(7.,8.67361737988404E-16,27.));
#445=CARTESIAN_POINT('',(7.,8.67361737988404E-16,27.));
#446=CARTESIAN_POINT('',(7.,7.,27.));
#447=CARTESIAN_POINT('',(7.,7.,27.));
#448=CARTESIAN_POINT('',(5.,6.99999999999999,27.));
#449=CARTESIAN_POINT('',(5.,6.99999999999999,26.5115856829885));
#450=CARTESIAN_POINT('',(5.,6.99999999999999,-26.5115856829885));
#451=CARTESIAN_POINT('',(7.,7.,26.5115856829885));
#452=CARTESIAN_POINT('',(5.77005648835706,5.42290172843687,27.));
#453=CARTESIAN_POINT('',(7.,7.,27.));
#454=CARTESIAN_POINT('',(7.,5.,27.));
#455=CARTESIAN_POINT('',(7.,5.,27.));
#456=CARTESIAN_POINT('',(7.,5.,-27.));
#457=CARTESIAN_POINT('',(7.,7.,-27.));
#458=CARTESIAN_POINT('',(5.77005648835707,5.42290172843685,-27.));
#459=CARTESIAN_POINT('',(7.,7.,-26.5115856829885));
#460=CARTESIAN_POINT('',(5.,6.99999999999999,27.));
#461=CARTESIAN_POINT('',(5.,25.,0.));
#462=CARTESIAN_POINT('',(5.,25.,11.05));
#463=CARTESIAN_POINT('',(5.,6.86197952054034,26.5543294862279));
#464=CARTESIAN_POINT('',(5.,30.916602376799,19.1048113394207));
#465=CARTESIAN_POINT('',(5.,22.1217817647206,-21.8284946887335));
#466=CARTESIAN_POINT('',(5.,30.916602376799,-19.1048113394207));
#467=CARTESIAN_POINT('',(5.,25.,-3.46944695195361E-15));
#468=CARTESIAN_POINT('',(7.,7.,27.));
#469=CARTESIAN_POINT('',(7.,5.42290172843687,27.));
#470=CARTESIAN_POINT('',(7.,0.,27.));
#471=CARTESIAN_POINT('',(25.,0.,27.));
#472=CARTESIAN_POINT('',(25.,0.,27.));
#473=CARTESIAN_POINT('',(25.,5.,27.));
#474=CARTESIAN_POINT('',(25.,5.,27.));
#475=CARTESIAN_POINT('',(7.,7.,-27.));
#476=CARTESIAN_POINT('',(7.,5.42290172843685,-27.));
#477=CARTESIAN_POINT('',(25.,5.,-27.));
#478=CARTESIAN_POINT('',(25.,5.,-27.));
#479=CARTESIAN_POINT('',(25.,0.,-27.));
#480=CARTESIAN_POINT('',(25.,0.,-27.));
#481=CARTESIAN_POINT('',(7.,0.,-27.));
#482=CARTESIAN_POINT('',(7.,0.,27.));
#483=CARTESIAN_POINT('',(17.,0.,20.));
#484=CARTESIAN_POINT('',(17.,0.,23.3));
#485=CARTESIAN_POINT('',(17.,0.,-20.));
#486=CARTESIAN_POINT('',(17.,0.,-16.7));
#487=CARTESIAN_POINT('',(25.,0.,27.));
#488=CARTESIAN_POINT('',(25.,0.,27.));
#489=CARTESIAN_POINT('',(25.,5.,27.));
#490=CARTESIAN_POINT('',(25.,5.,27.));
#491=CARTESIAN_POINT('',(17.,5.,20.));
#492=CARTESIAN_POINT('',(17.,5.,16.7));
#493=CARTESIAN_POINT('',(17.,5.,-20.));
#494=CARTESIAN_POINT('',(17.,5.,-23.3));
#495=CARTESIAN_POINT('',(17.,25.,-3.46944695195361E-15));
#496=CARTESIAN_POINT('',(17.,30.916602376799,19.1048113394207));
#497=CARTESIAN_POINT('',(17.,30.916602376799,-19.1048113394207));
#498=CARTESIAN_POINT('',(17.,-1.,28.9891196493526));
#499=CARTESIAN_POINT('',(17.,30.916602376799,-19.1048113394207));
#500=CARTESIAN_POINT('',(5.1,25.,0.));
#501=CARTESIAN_POINT('',(17.,5.1,-20.));
#502=CARTESIAN_POINT('',(17.,5.1,20.));
#503=CARTESIAN_POINT('',(0.,0.,0.));
#504=MECHANICAL_DESIGN_GEOMETRIC_PRESENTATION_REPRESENTATION('',(#293),
#505);
#505=(
GEOMETRIC_REPRESENTATION_CONTEXT(3)
GLOBAL_UNCERTAINTY_ASSIGNED_CONTEXT((#507))
GLOBAL_UNIT_ASSIGNED_CONTEXT((#511,#510,#509))
REPRESENTATION_CONTEXT('5127 HBN-20/25x1---(0)',
'TOP_LEVEL_ASSEMBLY_PART')
);
#506=(
GEOMETRIC_REPRESENTATION_CONTEXT(3)
GLOBAL_UNCERTAINTY_ASSIGNED_CONTEXT((#508))
GLOBAL_UNIT_ASSIGNED_CONTEXT((#511,#510,#509))
REPRESENTATION_CONTEXT('5127 HBN-20/25x1---(1)','COMPONENT_PART')
);
#507=UNCERTAINTY_MEASURE_WITH_UNIT(LENGTH_MEASURE(0.005),#511,
'DISTANCE_ACCURACY_VALUE','Maximum Tolerance applied to model');
#508=UNCERTAINTY_MEASURE_WITH_UNIT(LENGTH_MEASURE(0.005),#511,
'DISTANCE_ACCURACY_VALUE','Maximum Tolerance applied to model');
#509=(
NAMED_UNIT(*)
SI_UNIT($,.STERADIAN.)
SOLID_ANGLE_UNIT()
);
#510=(
NAMED_UNIT(*)
PLANE_ANGLE_UNIT()
SI_UNIT($,.RADIAN.)
);
#511=(
LENGTH_UNIT()
NAMED_UNIT(*)
SI_UNIT(.MILLI.,.METRE.)
);
#512=PRODUCT_DEFINITION_SHAPE('','',#515);
#513=PRODUCT_DEFINITION_SHAPE('','',#516);
#514=PRODUCT_DEFINITION_SHAPE(' ','NAUO PRDDFN',#19);
#515=PRODUCT_DEFINITION('','',#519,#517);
#516=PRODUCT_DEFINITION('','',#520,#518);
#517=PRODUCT_DEFINITION_CONTEXT('',#530,'design');
#518=PRODUCT_DEFINITION_CONTEXT('',#530,'design');
#519=PRODUCT_DEFINITION_FORMATION_WITH_SPECIFIED_SOURCE('','',#523,
 .NOT_KNOWN.);
#520=PRODUCT_DEFINITION_FORMATION_WITH_SPECIFIED_SOURCE('','',#524,
 .NOT_KNOWN.);
#521=PRODUCT_RELATED_PRODUCT_CATEGORY('','',(#523));
#522=PRODUCT_RELATED_PRODUCT_CATEGORY('','',(#524));
#523=PRODUCT('5127 HBN-20/25x1---(0)','5127 HBN-20/25x1---(0)',
'5127 HBN-20/25x1---(0)',(#527));
#524=PRODUCT('5127 HBN-20/25x1---(1)','5127 HBN-20/25x1---(1)',
'5127 HBN-20/25x1---(1)',(#528));
#525=PRODUCT_CATEGORY('','');
#526=PRODUCT_CATEGORY('','');
#527=PRODUCT_CONTEXT('',#530,'mechanical');
#528=PRODUCT_CONTEXT('',#530,'mechanical');
#529=APPLICATION_PROTOCOL_DEFINITION('international standard',
'automotive_design',2010,#530);
#530=APPLICATION_CONTEXT(
'core data for automotive mechanical design processes');
ENDSEC;
END-ISO-10303-21;
