ISO-10303-21;
HEADER;
/* Generated by software containing ST-Developer
 * from STEP Tools, Inc. (www.steptools.com) 
 */
/* OPTION: using custom renumber hook */

FILE_DESCRIPTION(
/* description */ ('STEP AP214'),
/* implementation_level */ '2;1');

FILE_NAME(
/* name */ '526091_NST-HMV-M4',
/* time_stamp */ '2024-09-13T09:36:07+02:00',
/* author */ ('License CC BY-ND 4.0'),
/* organization */ ('CADENAS'),
/* preprocessor_version */ 'ST-DEVELOPER v19.3',
/* originating_system */ 'PARTsolutions',
/* authorisation */ '  ');

FILE_SCHEMA (('FEATURE_BASED_PROCESS_PLANNING','AUTOMOTIVE_DESIGN {1 0 10303 214 3 1 1}'));
ENDSEC;

DATA;
#10=PROPERTY_DEFINITION_REPRESENTATION(#14,#12);
#11=PROPERTY_DEFINITION_REPRESENTATION(#15,#13);
#12=REPRESENTATION('',(#16),#535);
#13=REPRESENTATION('',(#17),#535);
#14=PROPERTY_DEFINITION('pmi validation property','',#540);
#15=PROPERTY_DEFINITION('pmi validation property','',#540);
#16=VALUE_REPRESENTATION_ITEM('number of annotations',COUNT_MEASURE(0.));
#17=VALUE_REPRESENTATION_ITEM('number of views',COUNT_MEASURE(0.));
#18=SHAPE_REPRESENTATION_RELATIONSHIP('','',#321,#19);
#19=ADVANCED_BREP_SHAPE_REPRESENTATION('',(#319),#535);
#20=CONICAL_SURFACE('',#351,2.,0.785398163397448);
#21=CONICAL_SURFACE('',#355,1.621,0.785398163397448);
#22=CIRCLE('',#325,1.);
#23=CIRCLE('',#326,1.);
#24=CIRCLE('',#328,2.);
#25=CIRCLE('',#330,1.);
#26=CIRCLE('',#331,1.);
#27=CIRCLE('',#334,0.299999999999999);
#28=CIRCLE('',#335,0.299999999999999);
#29=CIRCLE('',#337,0.5);
#30=CIRCLE('',#338,0.5);
#31=CIRCLE('',#341,2.);
#32=CIRCLE('',#344,0.5);
#33=CIRCLE('',#345,0.5);
#34=CIRCLE('',#347,0.299999999999999);
#35=CIRCLE('',#348,0.299999999999999);
#36=CIRCLE('',#352,1.621);
#37=CIRCLE('',#354,1.621);
#38=CYLINDRICAL_SURFACE('',#324,1.);
#39=CYLINDRICAL_SURFACE('',#329,1.);
#40=CYLINDRICAL_SURFACE('',#333,0.299999999999999);
#41=CYLINDRICAL_SURFACE('',#336,0.5);
#42=CYLINDRICAL_SURFACE('',#343,0.5);
#43=CYLINDRICAL_SURFACE('',#346,0.299999999999999);
#44=CYLINDRICAL_SURFACE('',#353,1.621);
#45=ORIENTED_EDGE('',*,*,#125,.T.);
#46=ORIENTED_EDGE('',*,*,#126,.F.);
#47=ORIENTED_EDGE('',*,*,#127,.F.);
#48=ORIENTED_EDGE('',*,*,#128,.T.);
#49=ORIENTED_EDGE('',*,*,#129,.T.);
#50=ORIENTED_EDGE('',*,*,#130,.F.);
#51=ORIENTED_EDGE('',*,*,#131,.F.);
#52=ORIENTED_EDGE('',*,*,#126,.T.);
#53=ORIENTED_EDGE('',*,*,#132,.F.);
#54=ORIENTED_EDGE('',*,*,#133,.T.);
#55=ORIENTED_EDGE('',*,*,#134,.F.);
#56=ORIENTED_EDGE('',*,*,#135,.F.);
#57=ORIENTED_EDGE('',*,*,#130,.T.);
#58=ORIENTED_EDGE('',*,*,#136,.T.);
#59=ORIENTED_EDGE('',*,*,#137,.F.);
#60=ORIENTED_EDGE('',*,*,#138,.F.);
#61=ORIENTED_EDGE('',*,*,#134,.T.);
#62=ORIENTED_EDGE('',*,*,#139,.T.);
#63=ORIENTED_EDGE('',*,*,#140,.F.);
#64=ORIENTED_EDGE('',*,*,#141,.F.);
#65=ORIENTED_EDGE('',*,*,#137,.T.);
#66=ORIENTED_EDGE('',*,*,#142,.T.);
#67=ORIENTED_EDGE('',*,*,#143,.F.);
#68=ORIENTED_EDGE('',*,*,#144,.F.);
#69=ORIENTED_EDGE('',*,*,#140,.T.);
#70=ORIENTED_EDGE('',*,*,#145,.F.);
#71=ORIENTED_EDGE('',*,*,#146,.F.);
#72=ORIENTED_EDGE('',*,*,#147,.T.);
#73=ORIENTED_EDGE('',*,*,#143,.T.);
#74=ORIENTED_EDGE('',*,*,#148,.T.);
#75=ORIENTED_EDGE('',*,*,#149,.F.);
#76=ORIENTED_EDGE('',*,*,#150,.F.);
#77=ORIENTED_EDGE('',*,*,#146,.T.);
#78=ORIENTED_EDGE('',*,*,#151,.T.);
#79=ORIENTED_EDGE('',*,*,#152,.T.);
#80=ORIENTED_EDGE('',*,*,#153,.F.);
#81=ORIENTED_EDGE('',*,*,#154,.F.);
#82=ORIENTED_EDGE('',*,*,#149,.T.);
#83=ORIENTED_EDGE('',*,*,#155,.T.);
#84=ORIENTED_EDGE('',*,*,#156,.F.);
#85=ORIENTED_EDGE('',*,*,#157,.F.);
#86=ORIENTED_EDGE('',*,*,#153,.T.);
#87=ORIENTED_EDGE('',*,*,#158,.F.);
#88=ORIENTED_EDGE('',*,*,#159,.F.);
#89=ORIENTED_EDGE('',*,*,#160,.T.);
#90=ORIENTED_EDGE('',*,*,#156,.T.);
#91=ORIENTED_EDGE('',*,*,#161,.T.);
#92=ORIENTED_EDGE('',*,*,#128,.F.);
#93=ORIENTED_EDGE('',*,*,#162,.F.);
#94=ORIENTED_EDGE('',*,*,#159,.T.);
#95=ORIENTED_EDGE('',*,*,#127,.T.);
#96=ORIENTED_EDGE('',*,*,#131,.T.);
#97=ORIENTED_EDGE('',*,*,#135,.T.);
#98=ORIENTED_EDGE('',*,*,#138,.T.);
#99=ORIENTED_EDGE('',*,*,#141,.T.);
#100=ORIENTED_EDGE('',*,*,#144,.T.);
#101=ORIENTED_EDGE('',*,*,#147,.F.);
#102=ORIENTED_EDGE('',*,*,#150,.T.);
#103=ORIENTED_EDGE('',*,*,#154,.T.);
#104=ORIENTED_EDGE('',*,*,#157,.T.);
#105=ORIENTED_EDGE('',*,*,#160,.F.);
#106=ORIENTED_EDGE('',*,*,#162,.T.);
#107=ORIENTED_EDGE('',*,*,#125,.F.);
#108=ORIENTED_EDGE('',*,*,#161,.F.);
#109=ORIENTED_EDGE('',*,*,#158,.T.);
#110=ORIENTED_EDGE('',*,*,#155,.F.);
#111=ORIENTED_EDGE('',*,*,#152,.F.);
#112=ORIENTED_EDGE('',*,*,#148,.F.);
#113=ORIENTED_EDGE('',*,*,#145,.T.);
#114=ORIENTED_EDGE('',*,*,#142,.F.);
#115=ORIENTED_EDGE('',*,*,#139,.F.);
#116=ORIENTED_EDGE('',*,*,#136,.F.);
#117=ORIENTED_EDGE('',*,*,#133,.F.);
#118=ORIENTED_EDGE('',*,*,#129,.F.);
#119=ORIENTED_EDGE('',*,*,#163,.T.);
#120=ORIENTED_EDGE('',*,*,#151,.F.);
#121=ORIENTED_EDGE('',*,*,#164,.T.);
#122=ORIENTED_EDGE('',*,*,#163,.F.);
#123=ORIENTED_EDGE('',*,*,#132,.T.);
#124=ORIENTED_EDGE('',*,*,#164,.F.);
#125=EDGE_CURVE('',#165,#166,#193,.T.);
#126=EDGE_CURVE('',#167,#166,#194,.T.);
#127=EDGE_CURVE('',#168,#167,#195,.T.);
#128=EDGE_CURVE('',#168,#165,#196,.T.);
#129=EDGE_CURVE('',#166,#169,#22,.T.);
#130=EDGE_CURVE('',#170,#169,#197,.T.);
#131=EDGE_CURVE('',#167,#170,#23,.T.);
#132=EDGE_CURVE('',#171,#171,#24,.T.);
#133=EDGE_CURVE('',#169,#172,#198,.T.);
#134=EDGE_CURVE('',#173,#172,#199,.T.);
#135=EDGE_CURVE('',#170,#173,#200,.T.);
#136=EDGE_CURVE('',#172,#174,#25,.T.);
#137=EDGE_CURVE('',#175,#174,#201,.T.);
#138=EDGE_CURVE('',#173,#175,#26,.T.);
#139=EDGE_CURVE('',#174,#176,#202,.T.);
#140=EDGE_CURVE('',#177,#176,#203,.T.);
#141=EDGE_CURVE('',#175,#177,#204,.T.);
#142=EDGE_CURVE('',#176,#178,#27,.T.);
#143=EDGE_CURVE('',#179,#178,#205,.T.);
#144=EDGE_CURVE('',#177,#179,#28,.T.);
#145=EDGE_CURVE('',#180,#178,#29,.T.);
#146=EDGE_CURVE('',#181,#180,#206,.T.);
#147=EDGE_CURVE('',#181,#179,#30,.T.);
#148=EDGE_CURVE('',#180,#182,#207,.T.);
#149=EDGE_CURVE('',#183,#182,#208,.T.);
#150=EDGE_CURVE('',#181,#183,#209,.T.);
#151=EDGE_CURVE('',#184,#184,#31,.T.);
#152=EDGE_CURVE('',#182,#185,#210,.T.);
#153=EDGE_CURVE('',#186,#185,#211,.T.);
#154=EDGE_CURVE('',#183,#186,#212,.T.);
#155=EDGE_CURVE('',#185,#187,#213,.T.);
#156=EDGE_CURVE('',#188,#187,#214,.T.);
#157=EDGE_CURVE('',#186,#188,#215,.T.);
#158=EDGE_CURVE('',#189,#187,#32,.T.);
#159=EDGE_CURVE('',#190,#189,#216,.T.);
#160=EDGE_CURVE('',#190,#188,#33,.T.);
#161=EDGE_CURVE('',#189,#165,#34,.T.);
#162=EDGE_CURVE('',#190,#168,#35,.T.);
#163=EDGE_CURVE('',#191,#191,#36,.T.);
#164=EDGE_CURVE('',#192,#192,#37,.T.);
#165=VERTEX_POINT('',#451);
#166=VERTEX_POINT('',#452);
#167=VERTEX_POINT('',#454);
#168=VERTEX_POINT('',#456);
#169=VERTEX_POINT('',#460);
#170=VERTEX_POINT('',#462);
#171=VERTEX_POINT('',#466);
#172=VERTEX_POINT('',#468);
#173=VERTEX_POINT('',#470);
#174=VERTEX_POINT('',#474);
#175=VERTEX_POINT('',#476);
#176=VERTEX_POINT('',#480);
#177=VERTEX_POINT('',#482);
#178=VERTEX_POINT('',#486);
#179=VERTEX_POINT('',#488);
#180=VERTEX_POINT('',#492);
#181=VERTEX_POINT('',#494);
#182=VERTEX_POINT('',#498);
#183=VERTEX_POINT('',#500);
#184=VERTEX_POINT('',#504);
#185=VERTEX_POINT('',#506);
#186=VERTEX_POINT('',#508);
#187=VERTEX_POINT('',#512);
#188=VERTEX_POINT('',#514);
#189=VERTEX_POINT('',#518);
#190=VERTEX_POINT('',#520);
#191=VERTEX_POINT('',#529);
#192=VERTEX_POINT('',#532);
#193=LINE('',#450,#217);
#194=LINE('',#453,#218);
#195=LINE('',#455,#219);
#196=LINE('',#457,#220);
#197=LINE('',#461,#221);
#198=LINE('',#467,#222);
#199=LINE('',#469,#223);
#200=LINE('',#471,#224);
#201=LINE('',#475,#225);
#202=LINE('',#479,#226);
#203=LINE('',#481,#227);
#204=LINE('',#483,#228);
#205=LINE('',#487,#229);
#206=LINE('',#493,#230);
#207=LINE('',#497,#231);
#208=LINE('',#499,#232);
#209=LINE('',#501,#233);
#210=LINE('',#505,#234);
#211=LINE('',#507,#235);
#212=LINE('',#509,#236);
#213=LINE('',#511,#237);
#214=LINE('',#513,#238);
#215=LINE('',#515,#239);
#216=LINE('',#519,#240);
#217=VECTOR('',#360,1000.);
#218=VECTOR('',#361,1000.);
#219=VECTOR('',#362,1000.);
#220=VECTOR('',#363,1000.);
#221=VECTOR('',#368,1000.);
#222=VECTOR('',#375,1000.);
#223=VECTOR('',#376,1000.);
#224=VECTOR('',#377,1000.);
#225=VECTOR('',#382,1000.);
#226=VECTOR('',#387,1000.);
#227=VECTOR('',#388,1000.);
#228=VECTOR('',#389,1000.);
#229=VECTOR('',#394,1000.);
#230=VECTOR('',#401,1000.);
#231=VECTOR('',#406,1000.);
#232=VECTOR('',#407,1000.);
#233=VECTOR('',#408,1000.);
#234=VECTOR('',#413,1000.);
#235=VECTOR('',#414,1000.);
#236=VECTOR('',#415,1000.);
#237=VECTOR('',#418,1000.);
#238=VECTOR('',#419,1000.);
#239=VECTOR('',#420,1000.);
#240=VECTOR('',#425,1000.);
#241=EDGE_LOOP('',(#45,#46,#47,#48));
#242=EDGE_LOOP('',(#49,#50,#51,#52));
#243=EDGE_LOOP('',(#53));
#244=EDGE_LOOP('',(#54,#55,#56,#57));
#245=EDGE_LOOP('',(#58,#59,#60,#61));
#246=EDGE_LOOP('',(#62,#63,#64,#65));
#247=EDGE_LOOP('',(#66,#67,#68,#69));
#248=EDGE_LOOP('',(#70,#71,#72,#73));
#249=EDGE_LOOP('',(#74,#75,#76,#77));
#250=EDGE_LOOP('',(#78));
#251=EDGE_LOOP('',(#79,#80,#81,#82));
#252=EDGE_LOOP('',(#83,#84,#85,#86));
#253=EDGE_LOOP('',(#87,#88,#89,#90));
#254=EDGE_LOOP('',(#91,#92,#93,#94));
#255=EDGE_LOOP('',(#95,#96,#97,#98,#99,#100,#101,#102,#103,#104,#105,#106));
#256=EDGE_LOOP('',(#107,#108,#109,#110,#111,#112,#113,#114,#115,#116,#117,
#118));
#257=EDGE_LOOP('',(#119));
#258=EDGE_LOOP('',(#120));
#259=EDGE_LOOP('',(#121));
#260=EDGE_LOOP('',(#122));
#261=EDGE_LOOP('',(#123));
#262=EDGE_LOOP('',(#124));
#263=FACE_BOUND('',#241,.T.);
#264=FACE_BOUND('',#242,.T.);
#265=FACE_BOUND('',#243,.T.);
#266=FACE_BOUND('',#244,.T.);
#267=FACE_BOUND('',#245,.T.);
#268=FACE_BOUND('',#246,.T.);
#269=FACE_BOUND('',#247,.T.);
#270=FACE_BOUND('',#248,.T.);
#271=FACE_BOUND('',#249,.T.);
#272=FACE_BOUND('',#250,.T.);
#273=FACE_BOUND('',#251,.T.);
#274=FACE_BOUND('',#252,.T.);
#275=FACE_BOUND('',#253,.T.);
#276=FACE_BOUND('',#254,.T.);
#277=FACE_BOUND('',#255,.T.);
#278=FACE_BOUND('',#256,.T.);
#279=FACE_BOUND('',#257,.T.);
#280=FACE_BOUND('',#258,.T.);
#281=FACE_BOUND('',#259,.T.);
#282=FACE_BOUND('',#260,.T.);
#283=FACE_BOUND('',#261,.T.);
#284=FACE_BOUND('',#262,.T.);
#285=PLANE('',#323);
#286=PLANE('',#327);
#287=PLANE('',#332);
#288=PLANE('',#339);
#289=PLANE('',#340);
#290=PLANE('',#342);
#291=PLANE('',#349);
#292=PLANE('',#350);
#293=ADVANCED_FACE('',(#263),#285,.F.);
#294=ADVANCED_FACE('',(#264),#38,.T.);
#295=ADVANCED_FACE('',(#265,#266),#286,.F.);
#296=ADVANCED_FACE('',(#267),#39,.T.);
#297=ADVANCED_FACE('',(#268),#287,.F.);
#298=ADVANCED_FACE('',(#269),#40,.T.);
#299=ADVANCED_FACE('',(#270),#41,.F.);
#300=ADVANCED_FACE('',(#271),#288,.F.);
#301=ADVANCED_FACE('',(#272,#273),#289,.F.);
#302=ADVANCED_FACE('',(#274),#290,.F.);
#303=ADVANCED_FACE('',(#275),#42,.F.);
#304=ADVANCED_FACE('',(#276),#43,.T.);
#305=ADVANCED_FACE('',(#277),#291,.T.);
#306=ADVANCED_FACE('',(#278),#292,.F.);
#307=ADVANCED_FACE('',(#279,#280),#20,.F.);
#308=ADVANCED_FACE('',(#281,#282),#44,.F.);
#309=ADVANCED_FACE('',(#283,#284),#21,.F.);
#310=CLOSED_SHELL('',(#293,#294,#295,#296,#297,#298,#299,#300,#301,#302,
#303,#304,#305,#306,#307,#308,#309));
#311=STYLED_ITEM('',(#312),#319);
#312=PRESENTATION_STYLE_ASSIGNMENT((#313));
#313=SURFACE_STYLE_USAGE(.BOTH.,#314);
#314=SURFACE_SIDE_STYLE('',(#315));
#315=SURFACE_STYLE_FILL_AREA(#316);
#316=FILL_AREA_STYLE('',(#317));
#317=FILL_AREA_STYLE_COLOUR('',#318);
#318=COLOUR_RGB('',0.689999997615814,0.689999997615814,0.689999997615814);
#319=MANIFOLD_SOLID_BREP('526091 NST-HMV-M4',#310);
#320=SHAPE_DEFINITION_REPRESENTATION(#540,#321);
#321=SHAPE_REPRESENTATION('526091 NST-HMV-M4',(#322),#535);
#322=AXIS2_PLACEMENT_3D('',#448,#356,#357);
#323=AXIS2_PLACEMENT_3D('',#449,#358,#359);
#324=AXIS2_PLACEMENT_3D('',#458,#364,#365);
#325=AXIS2_PLACEMENT_3D('',#459,#366,#367);
#326=AXIS2_PLACEMENT_3D('',#463,#369,#370);
#327=AXIS2_PLACEMENT_3D('',#464,#371,#372);
#328=AXIS2_PLACEMENT_3D('',#465,#373,#374);
#329=AXIS2_PLACEMENT_3D('',#472,#378,#379);
#330=AXIS2_PLACEMENT_3D('',#473,#380,#381);
#331=AXIS2_PLACEMENT_3D('',#477,#383,#384);
#332=AXIS2_PLACEMENT_3D('',#478,#385,#386);
#333=AXIS2_PLACEMENT_3D('',#484,#390,#391);
#334=AXIS2_PLACEMENT_3D('',#485,#392,#393);
#335=AXIS2_PLACEMENT_3D('',#489,#395,#396);
#336=AXIS2_PLACEMENT_3D('',#490,#397,#398);
#337=AXIS2_PLACEMENT_3D('',#491,#399,#400);
#338=AXIS2_PLACEMENT_3D('',#495,#402,#403);
#339=AXIS2_PLACEMENT_3D('',#496,#404,#405);
#340=AXIS2_PLACEMENT_3D('',#502,#409,#410);
#341=AXIS2_PLACEMENT_3D('',#503,#411,#412);
#342=AXIS2_PLACEMENT_3D('',#510,#416,#417);
#343=AXIS2_PLACEMENT_3D('',#516,#421,#422);
#344=AXIS2_PLACEMENT_3D('',#517,#423,#424);
#345=AXIS2_PLACEMENT_3D('',#521,#426,#427);
#346=AXIS2_PLACEMENT_3D('',#522,#428,#429);
#347=AXIS2_PLACEMENT_3D('',#523,#430,#431);
#348=AXIS2_PLACEMENT_3D('',#524,#432,#433);
#349=AXIS2_PLACEMENT_3D('',#525,#434,#435);
#350=AXIS2_PLACEMENT_3D('',#526,#436,#437);
#351=AXIS2_PLACEMENT_3D('',#527,#438,#439);
#352=AXIS2_PLACEMENT_3D('',#528,#440,#441);
#353=AXIS2_PLACEMENT_3D('',#530,#442,#443);
#354=AXIS2_PLACEMENT_3D('',#531,#444,#445);
#355=AXIS2_PLACEMENT_3D('',#533,#446,#447);
#356=DIRECTION('',(0.,0.,1.));
#357=DIRECTION('',(1.,0.,0.));
#358=DIRECTION('',(0.4226182617407,-0.90630778703665,0.));
#359=DIRECTION('',(0.90630778703665,0.4226182617407,0.));
#360=DIRECTION('',(-0.90630778703665,-0.4226182617407,0.));
#361=DIRECTION('',(0.,0.,-1.));
#362=DIRECTION('',(-0.90630778703665,-0.4226182617407,0.));
#363=DIRECTION('',(0.,0.,-1.));
#364=DIRECTION('',(0.,0.,-1.));
#365=DIRECTION('',(-1.,0.,0.));
#366=DIRECTION('',(0.,0.,1.));
#367=DIRECTION('',(1.,0.,0.));
#368=DIRECTION('',(0.,0.,-1.));
#369=DIRECTION('',(0.,0.,1.));
#370=DIRECTION('',(1.,0.,0.));
#371=DIRECTION('',(0.,1.,0.));
#372=DIRECTION('',(0.,0.,1.));
#373=DIRECTION('',(0.,-1.,0.));
#374=DIRECTION('',(0.,0.,-1.));
#375=DIRECTION('',(1.,0.,0.));
#376=DIRECTION('',(0.,0.,-1.));
#377=DIRECTION('',(1.,0.,0.));
#378=DIRECTION('',(0.,0.,-1.));
#379=DIRECTION('',(-1.,0.,0.));
#380=DIRECTION('',(0.,0.,1.));
#381=DIRECTION('',(1.,0.,0.));
#382=DIRECTION('',(0.,0.,-1.));
#383=DIRECTION('',(0.,0.,1.));
#384=DIRECTION('',(1.,0.,0.));
#385=DIRECTION('',(-0.422618261740699,-0.90630778703665,0.));
#386=DIRECTION('',(0.90630778703665,-0.422618261740699,0.));
#387=DIRECTION('',(-0.90630778703665,0.422618261740699,0.));
#388=DIRECTION('',(0.,0.,-1.));
#389=DIRECTION('',(-0.90630778703665,0.422618261740699,0.));
#390=DIRECTION('',(0.,0.,-1.));
#391=DIRECTION('',(-1.,0.,0.));
#392=DIRECTION('',(0.,0.,1.));
#393=DIRECTION('',(1.,0.,0.));
#394=DIRECTION('',(0.,0.,-1.));
#395=DIRECTION('',(0.,0.,1.));
#396=DIRECTION('',(1.,0.,0.));
#397=DIRECTION('',(0.,0.,-1.));
#398=DIRECTION('',(-1.,0.,0.));
#399=DIRECTION('',(0.,0.,1.));
#400=DIRECTION('',(1.,0.,0.));
#401=DIRECTION('',(0.,0.,-1.));
#402=DIRECTION('',(0.,0.,1.));
#403=DIRECTION('',(1.,0.,0.));
#404=DIRECTION('',(-1.,0.,0.));
#405=DIRECTION('',(0.,0.,1.));
#406=DIRECTION('',(0.,1.,0.));
#407=DIRECTION('',(0.,0.,-1.));
#408=DIRECTION('',(0.,1.,0.));
#409=DIRECTION('',(0.,-1.,0.));
#410=DIRECTION('',(0.,0.,-1.));
#411=DIRECTION('',(0.,-1.,0.));
#412=DIRECTION('',(0.,0.,-1.));
#413=DIRECTION('',(-1.,0.,0.));
#414=DIRECTION('',(0.,0.,-1.));
#415=DIRECTION('',(-1.,0.,0.));
#416=DIRECTION('',(1.,0.,0.));
#417=DIRECTION('',(0.,0.,-1.));
#418=DIRECTION('',(0.,-1.,0.));
#419=DIRECTION('',(0.,0.,-1.));
#420=DIRECTION('',(0.,-1.,0.));
#421=DIRECTION('',(0.,0.,-1.));
#422=DIRECTION('',(-1.,0.,0.));
#423=DIRECTION('',(0.,0.,1.));
#424=DIRECTION('',(1.,0.,0.));
#425=DIRECTION('',(0.,0.,-1.));
#426=DIRECTION('',(0.,0.,1.));
#427=DIRECTION('',(1.,0.,0.));
#428=DIRECTION('',(0.,0.,-1.));
#429=DIRECTION('',(-1.,0.,0.));
#430=DIRECTION('',(0.,0.,1.));
#431=DIRECTION('',(1.,0.,0.));
#432=DIRECTION('',(0.,0.,1.));
#433=DIRECTION('',(1.,0.,0.));
#434=DIRECTION('',(0.,0.,1.));
#435=DIRECTION('',(1.,0.,0.));
#436=DIRECTION('',(0.,0.,1.));
#437=DIRECTION('',(1.,0.,0.));
#438=DIRECTION('',(0.,1.,0.));
#439=DIRECTION('',(0.,0.,1.));
#440=DIRECTION('',(0.,-1.,0.));
#441=DIRECTION('',(0.,0.,-1.));
#442=DIRECTION('',(0.,-1.,0.));
#443=DIRECTION('',(0.,0.,-1.));
#444=DIRECTION('',(0.,-1.,0.));
#445=DIRECTION('',(0.,0.,-1.));
#446=DIRECTION('',(0.,-1.,0.));
#447=DIRECTION('',(0.,0.,-1.));
#448=CARTESIAN_POINT('',(0.,0.,0.));
#449=CARTESIAN_POINT('',(-3.81122377941021,2.65771337445607,4.));
#450=CARTESIAN_POINT('',(-3.81122377941021,2.65771337445607,-4.));
#451=CARTESIAN_POINT('',(-3.81122377941021,2.65771337445607,-4.));
#452=CARTESIAN_POINT('',(-5.4226182617407,1.90630778703665,-4.));
#453=CARTESIAN_POINT('',(-5.4226182617407,1.90630778703665,4.));
#454=CARTESIAN_POINT('',(-5.4226182617407,1.90630778703665,4.));
#455=CARTESIAN_POINT('',(-3.81122377941021,2.65771337445607,4.));
#456=CARTESIAN_POINT('',(-3.81122377941021,2.65771337445607,4.));
#457=CARTESIAN_POINT('',(-3.81122377941021,2.65771337445607,4.));
#458=CARTESIAN_POINT('',(-5.,1.,4.));
#459=CARTESIAN_POINT('',(-5.,1.,-4.));
#460=CARTESIAN_POINT('',(-5.,4.33680868994202E-16,-4.));
#461=CARTESIAN_POINT('',(-5.,4.33680868994202E-16,4.));
#462=CARTESIAN_POINT('',(-5.,4.33680868994202E-16,4.));
#463=CARTESIAN_POINT('',(-5.,1.,4.));
#464=CARTESIAN_POINT('',(-5.,0.,4.));
#465=CARTESIAN_POINT('',(0.,0.,0.));
#466=CARTESIAN_POINT('',(0.,0.,-2.));
#467=CARTESIAN_POINT('',(-5.,0.,-4.));
#468=CARTESIAN_POINT('',(5.,0.,-4.));
#469=CARTESIAN_POINT('',(5.,0.,4.));
#470=CARTESIAN_POINT('',(5.,0.,4.));
#471=CARTESIAN_POINT('',(-5.,0.,4.));
#472=CARTESIAN_POINT('',(5.,1.,4.));
#473=CARTESIAN_POINT('',(5.,1.,-4.));
#474=CARTESIAN_POINT('',(5.4226182617407,1.90630778703665,-4.));
#475=CARTESIAN_POINT('',(5.4226182617407,1.90630778703665,4.));
#476=CARTESIAN_POINT('',(5.4226182617407,1.90630778703665,4.));
#477=CARTESIAN_POINT('',(5.,1.,4.));
#478=CARTESIAN_POINT('',(5.4226182617407,1.90630778703665,4.));
#479=CARTESIAN_POINT('',(5.4226182617407,1.90630778703665,-4.));
#480=CARTESIAN_POINT('',(3.81122377941021,2.65771337445607,-4.));
#481=CARTESIAN_POINT('',(3.81122377941021,2.65771337445607,4.));
#482=CARTESIAN_POINT('',(3.81122377941021,2.65771337445607,4.));
#483=CARTESIAN_POINT('',(5.4226182617407,1.90630778703665,4.));
#484=CARTESIAN_POINT('',(3.684438300888,2.38582103834507,4.));
#485=CARTESIAN_POINT('',(3.684438300888,2.38582103834507,-4.));
#486=CARTESIAN_POINT('',(3.427773938055,2.54113814896567,-4.));
#487=CARTESIAN_POINT('',(3.427773938055,2.54113814896567,4.));
#488=CARTESIAN_POINT('',(3.427773938055,2.54113814896567,4.));
#489=CARTESIAN_POINT('',(3.684438300888,2.38582103834507,4.));
#490=CARTESIAN_POINT('',(3.,2.8,4.));
#491=CARTESIAN_POINT('',(3.,2.8,-4.));
#492=CARTESIAN_POINT('',(2.5,2.8,-4.));
#493=CARTESIAN_POINT('',(2.5,2.8,4.));
#494=CARTESIAN_POINT('',(2.5,2.8,4.));
#495=CARTESIAN_POINT('',(3.,2.8,4.));
#496=CARTESIAN_POINT('',(2.5,2.8,4.));
#497=CARTESIAN_POINT('',(2.5,2.8,-4.));
#498=CARTESIAN_POINT('',(2.5,4.,-4.));
#499=CARTESIAN_POINT('',(2.5,4.,4.));
#500=CARTESIAN_POINT('',(2.5,4.,4.));
#501=CARTESIAN_POINT('',(2.5,2.8,4.));
#502=CARTESIAN_POINT('',(2.5,4.,4.));
#503=CARTESIAN_POINT('',(0.,4.,0.));
#504=CARTESIAN_POINT('',(0.,4.,-2.));
#505=CARTESIAN_POINT('',(2.5,4.,-4.));
#506=CARTESIAN_POINT('',(-2.5,4.,-4.));
#507=CARTESIAN_POINT('',(-2.5,4.,4.));
#508=CARTESIAN_POINT('',(-2.5,4.,4.));
#509=CARTESIAN_POINT('',(2.5,4.,4.));
#510=CARTESIAN_POINT('',(-2.5,4.,4.));
#511=CARTESIAN_POINT('',(-2.5,4.,-4.));
#512=CARTESIAN_POINT('',(-2.5,2.8,-4.));
#513=CARTESIAN_POINT('',(-2.5,2.8,4.));
#514=CARTESIAN_POINT('',(-2.5,2.8,4.));
#515=CARTESIAN_POINT('',(-2.5,4.,4.));
#516=CARTESIAN_POINT('',(-3.,2.8,4.));
#517=CARTESIAN_POINT('',(-3.,2.8,-4.));
#518=CARTESIAN_POINT('',(-3.427773938055,2.54113814896567,-4.));
#519=CARTESIAN_POINT('',(-3.427773938055,2.54113814896567,4.));
#520=CARTESIAN_POINT('',(-3.427773938055,2.54113814896567,4.));
#521=CARTESIAN_POINT('',(-3.,2.8,4.));
#522=CARTESIAN_POINT('',(-3.684438300888,2.38582103834507,4.));
#523=CARTESIAN_POINT('',(-3.684438300888,2.38582103834507,-4.));
#524=CARTESIAN_POINT('',(-3.684438300888,2.38582103834507,4.));
#525=CARTESIAN_POINT('',(-5.,1.,4.));
#526=CARTESIAN_POINT('',(-5.,1.,-4.));
#527=CARTESIAN_POINT('',(0.,4.,0.));
#528=CARTESIAN_POINT('',(0.,3.621,0.));
#529=CARTESIAN_POINT('',(0.,3.621,-1.621));
#530=CARTESIAN_POINT('',(0.,0.,0.));
#531=CARTESIAN_POINT('',(0.,0.379,0.));
#532=CARTESIAN_POINT('',(0.,0.379,-1.621));
#533=CARTESIAN_POINT('',(0.,0.379,0.));
#534=MECHANICAL_DESIGN_GEOMETRIC_PRESENTATION_REPRESENTATION('',(#311),
#535);
#535=(
GEOMETRIC_REPRESENTATION_CONTEXT(3)
GLOBAL_UNCERTAINTY_ASSIGNED_CONTEXT((#536))
GLOBAL_UNIT_ASSIGNED_CONTEXT((#539,#538,#537))
REPRESENTATION_CONTEXT('526091 NST-HMV-M4','TOP_LEVEL_ASSEMBLY_PART')
);
#536=UNCERTAINTY_MEASURE_WITH_UNIT(LENGTH_MEASURE(0.005),#539,
'DISTANCE_ACCURACY_VALUE','Maximum Tolerance applied to model');
#537=(
NAMED_UNIT(*)
SI_UNIT($,.STERADIAN.)
SOLID_ANGLE_UNIT()
);
#538=(
NAMED_UNIT(*)
PLANE_ANGLE_UNIT()
SI_UNIT($,.RADIAN.)
);
#539=(
LENGTH_UNIT()
NAMED_UNIT(*)
SI_UNIT(.MILLI.,.METRE.)
);
#540=PRODUCT_DEFINITION_SHAPE('','',#541);
#541=PRODUCT_DEFINITION('','',#543,#542);
#542=PRODUCT_DEFINITION_CONTEXT('',#549,'design');
#543=PRODUCT_DEFINITION_FORMATION_WITH_SPECIFIED_SOURCE('','',#545,
 .NOT_KNOWN.);
#544=PRODUCT_RELATED_PRODUCT_CATEGORY('','',(#545));
#545=PRODUCT('526091 NST-HMV-M4','526091 NST-HMV-M4',
'526091 NST-HMV-M4',(#547));
#546=PRODUCT_CATEGORY('','');
#547=PRODUCT_CONTEXT('',#549,'mechanical');
#548=APPLICATION_PROTOCOL_DEFINITION('international standard',
'automotive_design',2010,#549);
#549=APPLICATION_CONTEXT(
'core data for automotive mechanical design processes');
ENDSEC;
END-ISO-10303-21;
