ISO-10303-21;
HEADER;
/* Generated by software containing ST-Developer
 * from STEP Tools, Inc. (www.steptools.com) 
 */
/* OPTION: using custom renumber hook */

FILE_DESCRIPTION(
/* description */ ('STEP AP214'),
/* implementation_level */ '2;1');

FILE_NAME(
/* name */ '526475_UC-QS-10H',
/* time_stamp */ '2024-09-10T09:57:03+02:00',
/* author */ ('License CC BY-ND 4.0'),
/* organization */ ('CADENAS'),
/* preprocessor_version */ 'ST-DEVELOPER v19.3',
/* originating_system */ 'PARTsolutions',
/* authorisation */ '  ');

FILE_SCHEMA (('AUTOMOTIVE_DESIGN {1 0 10303 214 3 1 1}'));
ENDSEC;

DATA;
#10=PROPERTY_DEFINITION_REPRESENTATION(#14,#12);
#11=PROPERTY_DEFINITION_REPRESENTATION(#15,#13);
#12=REPRESENTATION('',(#16),#341);
#13=REPRESENTATION('',(#17),#341);
#14=PROPERTY_DEFINITION('pmi validation property','',#346);
#15=PROPERTY_DEFINITION('pmi validation property','',#346);
#16=VALUE_REPRESENTATION_ITEM('number of annotations',COUNT_MEASURE(0.));
#17=VALUE_REPRESENTATION_ITEM('number of views',COUNT_MEASURE(0.));
#18=SHAPE_REPRESENTATION_RELATIONSHIP('','',#232,#19);
#19=ADVANCED_BREP_SHAPE_REPRESENTATION('',(#230),#341);
#20=CONICAL_SURFACE('',#250,5.,0.785398163397441);
#21=TOROIDAL_SURFACE('',#242,8.55,0.300000000000002);
#22=TOROIDAL_SURFACE('',#246,5.30000000000001,0.3);
#23=PLANE('',#238);
#24=PLANE('',#244);
#25=PLANE('',#252);
#26=PLANE('',#256);
#27=CYLINDRICAL_SURFACE('',#236,8.9);
#28=CYLINDRICAL_SURFACE('',#240,8.85);
#29=CYLINDRICAL_SURFACE('',#248,5.);
#30=CYLINDRICAL_SURFACE('',#254,2.5);
#31=ORIENTED_EDGE('',*,*,#53,.F.);
#32=ORIENTED_EDGE('',*,*,#54,.F.);
#33=ORIENTED_EDGE('',*,*,#53,.T.);
#34=ORIENTED_EDGE('',*,*,#55,.F.);
#35=ORIENTED_EDGE('',*,*,#54,.T.);
#36=ORIENTED_EDGE('',*,*,#56,.F.);
#37=ORIENTED_EDGE('',*,*,#55,.T.);
#38=ORIENTED_EDGE('',*,*,#56,.T.);
#39=ORIENTED_EDGE('',*,*,#57,.F.);
#40=ORIENTED_EDGE('',*,*,#58,.F.);
#41=ORIENTED_EDGE('',*,*,#57,.T.);
#42=ORIENTED_EDGE('',*,*,#59,.F.);
#43=ORIENTED_EDGE('',*,*,#58,.T.);
#44=ORIENTED_EDGE('',*,*,#60,.F.);
#45=ORIENTED_EDGE('',*,*,#59,.T.);
#46=ORIENTED_EDGE('',*,*,#61,.F.);
#47=ORIENTED_EDGE('',*,*,#60,.T.);
#48=ORIENTED_EDGE('',*,*,#62,.F.);
#49=ORIENTED_EDGE('',*,*,#61,.T.);
#50=ORIENTED_EDGE('',*,*,#63,.F.);
#51=ORIENTED_EDGE('',*,*,#62,.T.);
#52=ORIENTED_EDGE('',*,*,#63,.T.);
#53=EDGE_CURVE('',#64,#64,#75,.T.);
#54=EDGE_CURVE('',#65,#65,#76,.T.);
#55=EDGE_CURVE('',#66,#66,#77,.T.);
#56=EDGE_CURVE('',#67,#67,#78,.T.);
#57=EDGE_CURVE('',#68,#68,#79,.T.);
#58=EDGE_CURVE('',#69,#69,#80,.T.);
#59=EDGE_CURVE('',#70,#70,#81,.T.);
#60=EDGE_CURVE('',#71,#71,#82,.T.);
#61=EDGE_CURVE('',#72,#72,#83,.T.);
#62=EDGE_CURVE('',#73,#73,#84,.T.);
#63=EDGE_CURVE('',#74,#74,#85,.T.);
#64=VERTEX_POINT('',#308);
#65=VERTEX_POINT('',#311);
#66=VERTEX_POINT('',#314);
#67=VERTEX_POINT('',#317);
#68=VERTEX_POINT('',#320);
#69=VERTEX_POINT('',#323);
#70=VERTEX_POINT('',#326);
#71=VERTEX_POINT('',#329);
#72=VERTEX_POINT('',#332);
#73=VERTEX_POINT('',#335);
#74=VERTEX_POINT('',#338);
#75=CIRCLE('',#235,8.9);
#76=CIRCLE('',#237,8.9);
#77=CIRCLE('',#239,8.85);
#78=CIRCLE('',#241,8.85);
#79=CIRCLE('',#243,8.55);
#80=CIRCLE('',#245,5.30000000000001);
#81=CIRCLE('',#247,5.00000000000001);
#82=CIRCLE('',#249,5.);
#83=CIRCLE('',#251,4.5);
#84=CIRCLE('',#253,2.5);
#85=CIRCLE('',#255,2.5);
#86=EDGE_LOOP('',(#31));
#87=EDGE_LOOP('',(#32));
#88=EDGE_LOOP('',(#33));
#89=EDGE_LOOP('',(#34));
#90=EDGE_LOOP('',(#35));
#91=EDGE_LOOP('',(#36));
#92=EDGE_LOOP('',(#37));
#93=EDGE_LOOP('',(#38));
#94=EDGE_LOOP('',(#39));
#95=EDGE_LOOP('',(#40));
#96=EDGE_LOOP('',(#41));
#97=EDGE_LOOP('',(#42));
#98=EDGE_LOOP('',(#43));
#99=EDGE_LOOP('',(#44));
#100=EDGE_LOOP('',(#45));
#101=EDGE_LOOP('',(#46));
#102=EDGE_LOOP('',(#47));
#103=EDGE_LOOP('',(#48));
#104=EDGE_LOOP('',(#49));
#105=EDGE_LOOP('',(#50));
#106=EDGE_LOOP('',(#51));
#107=EDGE_LOOP('',(#52));
#108=FACE_BOUND('',#86,.T.);
#109=FACE_BOUND('',#87,.T.);
#110=FACE_BOUND('',#88,.T.);
#111=FACE_BOUND('',#89,.T.);
#112=FACE_BOUND('',#90,.T.);
#113=FACE_BOUND('',#91,.T.);
#114=FACE_BOUND('',#92,.T.);
#115=FACE_BOUND('',#93,.T.);
#116=FACE_BOUND('',#94,.T.);
#117=FACE_BOUND('',#95,.T.);
#118=FACE_BOUND('',#96,.T.);
#119=FACE_BOUND('',#97,.T.);
#120=FACE_BOUND('',#98,.T.);
#121=FACE_BOUND('',#99,.T.);
#122=FACE_BOUND('',#100,.T.);
#123=FACE_BOUND('',#101,.T.);
#124=FACE_BOUND('',#102,.T.);
#125=FACE_BOUND('',#103,.T.);
#126=FACE_BOUND('',#104,.T.);
#127=FACE_BOUND('',#105,.T.);
#128=FACE_BOUND('',#106,.T.);
#129=FACE_BOUND('',#107,.T.);
#130=SPHERICAL_SURFACE('',#234,28.6500000000007);
#131=STYLED_ITEM('',(#143),#217);
#132=STYLED_ITEM('',(#144),#218);
#133=STYLED_ITEM('',(#145),#219);
#134=STYLED_ITEM('',(#146),#220);
#135=STYLED_ITEM('',(#147),#221);
#136=STYLED_ITEM('',(#148),#222);
#137=STYLED_ITEM('',(#149),#223);
#138=STYLED_ITEM('',(#150),#224);
#139=STYLED_ITEM('',(#151),#225);
#140=STYLED_ITEM('',(#152),#226);
#141=STYLED_ITEM('',(#153),#227);
#142=STYLED_ITEM('',(#154),#228);
#143=PRESENTATION_STYLE_ASSIGNMENT((#155));
#144=PRESENTATION_STYLE_ASSIGNMENT((#156));
#145=PRESENTATION_STYLE_ASSIGNMENT((#157));
#146=PRESENTATION_STYLE_ASSIGNMENT((#158));
#147=PRESENTATION_STYLE_ASSIGNMENT((#159));
#148=PRESENTATION_STYLE_ASSIGNMENT((#160));
#149=PRESENTATION_STYLE_ASSIGNMENT((#161));
#150=PRESENTATION_STYLE_ASSIGNMENT((#162));
#151=PRESENTATION_STYLE_ASSIGNMENT((#163));
#152=PRESENTATION_STYLE_ASSIGNMENT((#164));
#153=PRESENTATION_STYLE_ASSIGNMENT((#165));
#154=PRESENTATION_STYLE_ASSIGNMENT((#166));
#155=SURFACE_STYLE_USAGE(.BOTH.,#167);
#156=SURFACE_STYLE_USAGE(.BOTH.,#168);
#157=SURFACE_STYLE_USAGE(.BOTH.,#169);
#158=SURFACE_STYLE_USAGE(.BOTH.,#170);
#159=SURFACE_STYLE_USAGE(.BOTH.,#171);
#160=SURFACE_STYLE_USAGE(.BOTH.,#172);
#161=SURFACE_STYLE_USAGE(.BOTH.,#173);
#162=SURFACE_STYLE_USAGE(.BOTH.,#174);
#163=SURFACE_STYLE_USAGE(.BOTH.,#175);
#164=SURFACE_STYLE_USAGE(.BOTH.,#176);
#165=SURFACE_STYLE_USAGE(.BOTH.,#177);
#166=SURFACE_STYLE_USAGE(.BOTH.,#178);
#167=SURFACE_SIDE_STYLE('',(#179));
#168=SURFACE_SIDE_STYLE('',(#180));
#169=SURFACE_SIDE_STYLE('',(#181));
#170=SURFACE_SIDE_STYLE('',(#182));
#171=SURFACE_SIDE_STYLE('',(#183));
#172=SURFACE_SIDE_STYLE('',(#184));
#173=SURFACE_SIDE_STYLE('',(#185));
#174=SURFACE_SIDE_STYLE('',(#186));
#175=SURFACE_SIDE_STYLE('',(#187));
#176=SURFACE_SIDE_STYLE('',(#188));
#177=SURFACE_SIDE_STYLE('',(#189));
#178=SURFACE_SIDE_STYLE('',(#190));
#179=SURFACE_STYLE_FILL_AREA(#191);
#180=SURFACE_STYLE_FILL_AREA(#192);
#181=SURFACE_STYLE_FILL_AREA(#193);
#182=SURFACE_STYLE_FILL_AREA(#194);
#183=SURFACE_STYLE_FILL_AREA(#195);
#184=SURFACE_STYLE_FILL_AREA(#196);
#185=SURFACE_STYLE_FILL_AREA(#197);
#186=SURFACE_STYLE_FILL_AREA(#198);
#187=SURFACE_STYLE_FILL_AREA(#199);
#188=SURFACE_STYLE_FILL_AREA(#200);
#189=SURFACE_STYLE_FILL_AREA(#201);
#190=SURFACE_STYLE_FILL_AREA(#202);
#191=FILL_AREA_STYLE('',(#203));
#192=FILL_AREA_STYLE('',(#204));
#193=FILL_AREA_STYLE('',(#205));
#194=FILL_AREA_STYLE('',(#206));
#195=FILL_AREA_STYLE('',(#207));
#196=FILL_AREA_STYLE('',(#208));
#197=FILL_AREA_STYLE('',(#209));
#198=FILL_AREA_STYLE('',(#210));
#199=FILL_AREA_STYLE('',(#211));
#200=FILL_AREA_STYLE('',(#212));
#201=FILL_AREA_STYLE('',(#213));
#202=FILL_AREA_STYLE('',(#214));
#203=FILL_AREA_STYLE_COLOUR('',#215);
#204=FILL_AREA_STYLE_COLOUR('',#215);
#205=FILL_AREA_STYLE_COLOUR('',#215);
#206=FILL_AREA_STYLE_COLOUR('',#216);
#207=FILL_AREA_STYLE_COLOUR('',#216);
#208=FILL_AREA_STYLE_COLOUR('',#216);
#209=FILL_AREA_STYLE_COLOUR('',#216);
#210=FILL_AREA_STYLE_COLOUR('',#216);
#211=FILL_AREA_STYLE_COLOUR('',#216);
#212=FILL_AREA_STYLE_COLOUR('',#216);
#213=FILL_AREA_STYLE_COLOUR('',#216);
#214=FILL_AREA_STYLE_COLOUR('',#215);
#215=COLOUR_RGB('',0.689999997615814,0.689999997615814,0.689999997615814);
#216=COLOUR_RGB('',0.,0.60000002384186,1.);
#217=ADVANCED_FACE('',(#108),#130,.T.);
#218=ADVANCED_FACE('',(#109,#110),#27,.T.);
#219=ADVANCED_FACE('',(#111,#112),#23,.F.);
#220=ADVANCED_FACE('',(#113,#114),#28,.T.);
#221=ADVANCED_FACE('',(#115,#116),#21,.T.);
#222=ADVANCED_FACE('',(#117,#118),#24,.F.);
#223=ADVANCED_FACE('',(#119,#120),#22,.F.);
#224=ADVANCED_FACE('',(#121,#122),#29,.T.);
#225=ADVANCED_FACE('',(#123,#124),#20,.T.);
#226=ADVANCED_FACE('',(#125,#126),#25,.F.);
#227=ADVANCED_FACE('',(#127,#128),#30,.F.);
#228=ADVANCED_FACE('',(#129),#26,.F.);
#229=CLOSED_SHELL('',(#217,#218,#219,#220,#221,#222,#223,#224,#225,#226,
#227,#228));
#230=MANIFOLD_SOLID_BREP('526475 UC-QS-10H',#229);
#231=SHAPE_DEFINITION_REPRESENTATION(#346,#232);
#232=SHAPE_REPRESENTATION('526475 UC-QS-10H',(#233),#341);
#233=AXIS2_PLACEMENT_3D('',#305,#257,#258);
#234=AXIS2_PLACEMENT_3D('',#306,#259,#260);
#235=AXIS2_PLACEMENT_3D('',#307,#261,#262);
#236=AXIS2_PLACEMENT_3D('',#309,#263,#264);
#237=AXIS2_PLACEMENT_3D('',#310,#265,#266);
#238=AXIS2_PLACEMENT_3D('',#312,#267,#268);
#239=AXIS2_PLACEMENT_3D('',#313,#269,#270);
#240=AXIS2_PLACEMENT_3D('',#315,#271,#272);
#241=AXIS2_PLACEMENT_3D('',#316,#273,#274);
#242=AXIS2_PLACEMENT_3D('',#318,#275,#276);
#243=AXIS2_PLACEMENT_3D('',#319,#277,#278);
#244=AXIS2_PLACEMENT_3D('',#321,#279,#280);
#245=AXIS2_PLACEMENT_3D('',#322,#281,#282);
#246=AXIS2_PLACEMENT_3D('',#324,#283,#284);
#247=AXIS2_PLACEMENT_3D('',#325,#285,#286);
#248=AXIS2_PLACEMENT_3D('',#327,#287,#288);
#249=AXIS2_PLACEMENT_3D('',#328,#289,#290);
#250=AXIS2_PLACEMENT_3D('',#330,#291,#292);
#251=AXIS2_PLACEMENT_3D('',#331,#293,#294);
#252=AXIS2_PLACEMENT_3D('',#333,#295,#296);
#253=AXIS2_PLACEMENT_3D('',#334,#297,#298);
#254=AXIS2_PLACEMENT_3D('',#336,#299,#300);
#255=AXIS2_PLACEMENT_3D('',#337,#301,#302);
#256=AXIS2_PLACEMENT_3D('',#339,#303,#304);
#257=DIRECTION('',(0.,0.,1.));
#258=DIRECTION('',(1.,0.,0.));
#259=DIRECTION('',(0.,-1.,0.));
#260=DIRECTION('',(1.,0.,0.));
#261=DIRECTION('',(0.,-1.,0.));
#262=DIRECTION('',(0.,0.,-1.));
#263=DIRECTION('',(0.,-1.,0.));
#264=DIRECTION('',(0.,0.,-1.));
#265=DIRECTION('',(0.,-1.,0.));
#266=DIRECTION('',(0.,0.,-1.));
#267=DIRECTION('',(0.,1.,0.));
#268=DIRECTION('',(0.,0.,1.));
#269=DIRECTION('',(0.,-1.,0.));
#270=DIRECTION('',(0.,0.,-1.));
#271=DIRECTION('',(0.,-1.,0.));
#272=DIRECTION('',(0.,0.,-1.));
#273=DIRECTION('',(0.,-1.,0.));
#274=DIRECTION('',(0.,0.,-1.));
#275=DIRECTION('',(0.,-1.,0.));
#276=DIRECTION('',(0.,0.,-1.));
#277=DIRECTION('',(0.,-1.,0.));
#278=DIRECTION('',(0.,0.,-1.));
#279=DIRECTION('',(0.,1.,0.));
#280=DIRECTION('',(0.,0.,1.));
#281=DIRECTION('',(0.,-1.,0.));
#282=DIRECTION('',(0.,0.,-1.));
#283=DIRECTION('',(0.,-1.,0.));
#284=DIRECTION('',(0.,0.,-1.));
#285=DIRECTION('',(0.,-1.,0.));
#286=DIRECTION('',(0.,0.,-1.));
#287=DIRECTION('',(0.,-1.,0.));
#288=DIRECTION('',(0.,0.,-1.));
#289=DIRECTION('',(0.,-1.,0.));
#290=DIRECTION('',(0.,0.,-1.));
#291=DIRECTION('',(0.,1.,0.));
#292=DIRECTION('',(0.,0.,1.));
#293=DIRECTION('',(0.,-1.,0.));
#294=DIRECTION('',(0.,0.,-1.));
#295=DIRECTION('',(0.,1.,0.));
#296=DIRECTION('',(0.,0.,1.));
#297=DIRECTION('',(0.,-1.,0.));
#298=DIRECTION('',(0.,0.,-1.));
#299=DIRECTION('',(0.,-1.,0.));
#300=DIRECTION('',(0.,0.,-1.));
#301=DIRECTION('',(0.,-1.,0.));
#302=DIRECTION('',(0.,0.,-1.));
#303=DIRECTION('',(0.,1.,0.));
#304=DIRECTION('',(0.,0.,1.));
#305=CARTESIAN_POINT('',(0.,0.,0.));
#306=CARTESIAN_POINT('',(-1.17093834628434E-13,13.3499999999993,0.));
#307=CARTESIAN_POINT('',(0.,40.5825632286056,0.));
#308=CARTESIAN_POINT('',(0.,40.5825632286056,-8.9));
#309=CARTESIAN_POINT('',(0.,13.35,0.));
#310=CARTESIAN_POINT('',(0.,6.675,0.));
#311=CARTESIAN_POINT('',(0.,6.675,-8.9));
#312=CARTESIAN_POINT('',(8.9,6.675,0.));
#313=CARTESIAN_POINT('',(0.,6.675,0.));
#314=CARTESIAN_POINT('',(0.,6.675,-8.85));
#315=CARTESIAN_POINT('',(0.,13.35,0.));
#316=CARTESIAN_POINT('',(0.,0.3,0.));
#317=CARTESIAN_POINT('',(0.,0.3,-8.85));
#318=CARTESIAN_POINT('',(0.,0.300000000000002,0.));
#319=CARTESIAN_POINT('',(0.,0.,0.));
#320=CARTESIAN_POINT('',(0.,0.,-8.55));
#321=CARTESIAN_POINT('',(8.55,5.42101086242752E-17,0.));
#322=CARTESIAN_POINT('',(0.,0.,0.));
#323=CARTESIAN_POINT('',(0.,0.,-5.30000000000001));
#324=CARTESIAN_POINT('',(0.,-0.3,0.));
#325=CARTESIAN_POINT('',(0.,-0.3,0.));
#326=CARTESIAN_POINT('',(0.,-0.3,-5.00000000000001));
#327=CARTESIAN_POINT('',(0.,13.35,0.));
#328=CARTESIAN_POINT('',(0.,-26.2,0.));
#329=CARTESIAN_POINT('',(0.,-26.2,-5.));
#330=CARTESIAN_POINT('',(0.,-26.2,0.));
#331=CARTESIAN_POINT('',(0.,-26.7,0.));
#332=CARTESIAN_POINT('',(0.,-26.7,-4.5));
#333=CARTESIAN_POINT('',(4.5,-26.7,0.));
#334=CARTESIAN_POINT('',(0.,-26.7,0.));
#335=CARTESIAN_POINT('',(0.,-26.7,-2.5));
#336=CARTESIAN_POINT('',(0.,13.35,0.));
#337=CARTESIAN_POINT('',(0.,13.35,0.));
#338=CARTESIAN_POINT('',(0.,13.35,-2.5));
#339=CARTESIAN_POINT('',(2.5,13.35,0.));
#340=MECHANICAL_DESIGN_GEOMETRIC_PRESENTATION_REPRESENTATION('',(#131,#132,
#133,#134,#135,#136,#137,#138,#139,#140,#141,#142),#341);
#341=(
GEOMETRIC_REPRESENTATION_CONTEXT(3)
GLOBAL_UNCERTAINTY_ASSIGNED_CONTEXT((#342))
GLOBAL_UNIT_ASSIGNED_CONTEXT((#345,#344,#343))
REPRESENTATION_CONTEXT('526475 UC-QS-10H','TOP_LEVEL_ASSEMBLY_PART')
);
#342=UNCERTAINTY_MEASURE_WITH_UNIT(LENGTH_MEASURE(0.005),#345,
'DISTANCE_ACCURACY_VALUE','Maximum Tolerance applied to model');
#343=(
NAMED_UNIT(*)
SI_UNIT($,.STERADIAN.)
SOLID_ANGLE_UNIT()
);
#344=(
NAMED_UNIT(*)
PLANE_ANGLE_UNIT()
SI_UNIT($,.RADIAN.)
);
#345=(
LENGTH_UNIT()
NAMED_UNIT(*)
SI_UNIT(.MILLI.,.METRE.)
);
#346=PRODUCT_DEFINITION_SHAPE('','',#347);
#347=PRODUCT_DEFINITION('','',#349,#348);
#348=PRODUCT_DEFINITION_CONTEXT('',#355,'design');
#349=PRODUCT_DEFINITION_FORMATION_WITH_SPECIFIED_SOURCE('','',#351,
 .NOT_KNOWN.);
#350=PRODUCT_RELATED_PRODUCT_CATEGORY('','',(#351));
#351=PRODUCT('526475 UC-QS-10H','526475 UC-QS-10H','526475 UC-QS-10H',(#353));
#352=PRODUCT_CATEGORY('','');
#353=PRODUCT_CONTEXT('',#355,'mechanical');
#354=APPLICATION_PROTOCOL_DEFINITION('international standard',
'automotive_design',2010,#355);
#355=APPLICATION_CONTEXT(
'core data for automotive mechanical design processes');
ENDSEC;
END-ISO-10303-21;
