ISO-10303-21;
HEADER;
/* Generated by software containing ST-Developer
 * from STEP Tools, Inc. (www.steptools.com) 
 */
/* OPTION: using custom renumber hook */

FILE_DESCRIPTION(
/* description */ ('STEP AP214'),
/* implementation_level */ '2;1');

FILE_NAME(
/* name */ '526786_MA-40-145-R1_8-PSI-E-RG',
/* time_stamp */ '2024-09-05T03:15:29+02:00',
/* author */ ('License CC BY-ND 4.0'),
/* organization */ ('CADENAS'),
/* preprocessor_version */ 'ST-DEVELOPER v19.3',
/* originating_system */ 'PARTsolutions',
/* authorisation */ '  ');

FILE_SCHEMA (('AUTOMOTIVE_DESIGN {1 0 10303 214 3 1 1}'));
ENDSEC;

DATA;
#10=PROPERTY_DEFINITION_REPRESENTATION(#14,#12);
#11=PROPERTY_DEFINITION_REPRESENTATION(#15,#13);
#12=REPRESENTATION('',(#16),#325);
#13=REPRESENTATION('',(#17),#325);
#14=PROPERTY_DEFINITION('pmi validation property','',#330);
#15=PROPERTY_DEFINITION('pmi validation property','',#330);
#16=VALUE_REPRESENTATION_ITEM('number of annotations',COUNT_MEASURE(0.));
#17=VALUE_REPRESENTATION_ITEM('number of views',COUNT_MEASURE(0.));
#18=SHAPE_REPRESENTATION_RELATIONSHIP('','',#200,#19);
#19=ADVANCED_BREP_SHAPE_REPRESENTATION('',(#198),#325);
#20=CONICAL_SURFACE('',#219,4.15812183247441,0.785398163397448);
#21=CONICAL_SURFACE('',#221,4.75784491228169,0.0312094049979787);
#22=CYLINDRICAL_SURFACE('',#206,19.5);
#23=TOROIDAL_SURFACE('',#204,18.,1.5);
#24=TOROIDAL_SURFACE('',#208,19.,0.500000000000007);
#25=LINE('',#280,#37);
#26=LINE('',#283,#38);
#27=LINE('',#285,#39);
#28=LINE('',#287,#40);
#29=LINE('',#299,#41);
#30=LINE('',#302,#42);
#31=LINE('',#303,#43);
#32=LINE('',#305,#44);
#33=LINE('',#307,#45);
#34=LINE('',#309,#46);
#35=LINE('',#311,#47);
#36=LINE('',#313,#48);
#37=VECTOR('',#228,1000.);
#38=VECTOR('',#229,1000.);
#39=VECTOR('',#230,1000.);
#40=VECTOR('',#231,1000.);
#41=VECTOR('',#248,1000.);
#42=VECTOR('',#249,1000.);
#43=VECTOR('',#250,1000.);
#44=VECTOR('',#253,1000.);
#45=VECTOR('',#254,1000.);
#46=VECTOR('',#257,1000.);
#47=VECTOR('',#258,1000.);
#48=VECTOR('',#261,1000.);
#49=ORIENTED_EDGE('',*,*,#87,.F.);
#50=ORIENTED_EDGE('',*,*,#88,.T.);
#51=ORIENTED_EDGE('',*,*,#89,.T.);
#52=ORIENTED_EDGE('',*,*,#90,.T.);
#53=ORIENTED_EDGE('',*,*,#91,.F.);
#54=ORIENTED_EDGE('',*,*,#87,.T.);
#55=ORIENTED_EDGE('',*,*,#92,.F.);
#56=ORIENTED_EDGE('',*,*,#93,.F.);
#57=ORIENTED_EDGE('',*,*,#92,.T.);
#58=ORIENTED_EDGE('',*,*,#93,.T.);
#59=ORIENTED_EDGE('',*,*,#94,.F.);
#60=ORIENTED_EDGE('',*,*,#94,.T.);
#61=ORIENTED_EDGE('',*,*,#95,.T.);
#62=ORIENTED_EDGE('',*,*,#96,.F.);
#63=ORIENTED_EDGE('',*,*,#88,.F.);
#64=ORIENTED_EDGE('',*,*,#97,.T.);
#65=ORIENTED_EDGE('',*,*,#98,.T.);
#66=ORIENTED_EDGE('',*,*,#99,.F.);
#67=ORIENTED_EDGE('',*,*,#89,.F.);
#68=ORIENTED_EDGE('',*,*,#96,.T.);
#69=ORIENTED_EDGE('',*,*,#100,.T.);
#70=ORIENTED_EDGE('',*,*,#101,.F.);
#71=ORIENTED_EDGE('',*,*,#90,.F.);
#72=ORIENTED_EDGE('',*,*,#99,.T.);
#73=ORIENTED_EDGE('',*,*,#102,.T.);
#74=ORIENTED_EDGE('',*,*,#97,.F.);
#75=ORIENTED_EDGE('',*,*,#91,.T.);
#76=ORIENTED_EDGE('',*,*,#101,.T.);
#77=ORIENTED_EDGE('',*,*,#103,.F.);
#78=ORIENTED_EDGE('',*,*,#95,.F.);
#79=ORIENTED_EDGE('',*,*,#102,.F.);
#80=ORIENTED_EDGE('',*,*,#100,.F.);
#81=ORIENTED_EDGE('',*,*,#98,.F.);
#82=ORIENTED_EDGE('',*,*,#104,.F.);
#83=ORIENTED_EDGE('',*,*,#105,.F.);
#84=ORIENTED_EDGE('',*,*,#104,.T.);
#85=ORIENTED_EDGE('',*,*,#103,.T.);
#86=ORIENTED_EDGE('',*,*,#105,.T.);
#87=EDGE_CURVE('',#106,#106,#121,.T.);
#88=EDGE_CURVE('',#107,#108,#25,.T.);
#89=EDGE_CURVE('',#108,#109,#26,.T.);
#90=EDGE_CURVE('',#109,#110,#27,.T.);
#91=EDGE_CURVE('',#107,#110,#28,.T.);
#92=EDGE_CURVE('',#111,#111,#122,.T.);
#93=EDGE_CURVE('',#112,#112,#123,.T.);
#94=EDGE_CURVE('',#113,#113,#124,.T.);
#95=EDGE_CURVE('',#114,#115,#29,.T.);
#96=EDGE_CURVE('',#108,#115,#30,.T.);
#97=EDGE_CURVE('',#107,#114,#31,.T.);
#98=EDGE_CURVE('',#115,#116,#32,.T.);
#99=EDGE_CURVE('',#109,#116,#33,.T.);
#100=EDGE_CURVE('',#116,#117,#34,.T.);
#101=EDGE_CURVE('',#110,#117,#35,.T.);
#102=EDGE_CURVE('',#117,#114,#36,.T.);
#103=EDGE_CURVE('',#118,#118,#125,.F.);
#104=EDGE_CURVE('',#119,#119,#126,.T.);
#105=EDGE_CURVE('',#120,#120,#127,.T.);
#106=VERTEX_POINT('',#279);
#107=VERTEX_POINT('',#281);
#108=VERTEX_POINT('',#282);
#109=VERTEX_POINT('',#284);
#110=VERTEX_POINT('',#286);
#111=VERTEX_POINT('',#290);
#112=VERTEX_POINT('',#293);
#113=VERTEX_POINT('',#296);
#114=VERTEX_POINT('',#300);
#115=VERTEX_POINT('',#301);
#116=VERTEX_POINT('',#306);
#117=VERTEX_POINT('',#310);
#118=VERTEX_POINT('',#316);
#119=VERTEX_POINT('',#319);
#120=VERTEX_POINT('',#322);
#121=CIRCLE('',#203,18.);
#122=CIRCLE('',#205,19.5);
#123=CIRCLE('',#207,19.5);
#124=CIRCLE('',#209,19.);
#125=CIRCLE('',#216,5.05131725128838);
#126=CIRCLE('',#218,4.15812183247441);
#127=CIRCLE('',#220,4.75784491228169);
#128=EDGE_LOOP('',(#49));
#129=EDGE_LOOP('',(#50,#51,#52,#53));
#130=EDGE_LOOP('',(#54));
#131=EDGE_LOOP('',(#55));
#132=EDGE_LOOP('',(#56));
#133=EDGE_LOOP('',(#57));
#134=EDGE_LOOP('',(#58));
#135=EDGE_LOOP('',(#59));
#136=EDGE_LOOP('',(#60));
#137=EDGE_LOOP('',(#61,#62,#63,#64));
#138=EDGE_LOOP('',(#65,#66,#67,#68));
#139=EDGE_LOOP('',(#69,#70,#71,#72));
#140=EDGE_LOOP('',(#73,#74,#75,#76));
#141=EDGE_LOOP('',(#77));
#142=EDGE_LOOP('',(#78,#79,#80,#81));
#143=EDGE_LOOP('',(#82));
#144=EDGE_LOOP('',(#83));
#145=EDGE_LOOP('',(#84));
#146=EDGE_LOOP('',(#85));
#147=EDGE_LOOP('',(#86));
#148=FACE_BOUND('',#128,.T.);
#149=FACE_BOUND('',#129,.T.);
#150=FACE_BOUND('',#130,.T.);
#151=FACE_BOUND('',#131,.T.);
#152=FACE_BOUND('',#132,.T.);
#153=FACE_BOUND('',#133,.T.);
#154=FACE_BOUND('',#134,.T.);
#155=FACE_BOUND('',#135,.T.);
#156=FACE_BOUND('',#136,.T.);
#157=FACE_BOUND('',#137,.T.);
#158=FACE_BOUND('',#138,.T.);
#159=FACE_BOUND('',#139,.T.);
#160=FACE_BOUND('',#140,.T.);
#161=FACE_BOUND('',#141,.T.);
#162=FACE_BOUND('',#142,.T.);
#163=FACE_BOUND('',#143,.T.);
#164=FACE_BOUND('',#144,.T.);
#165=FACE_BOUND('',#145,.T.);
#166=FACE_BOUND('',#146,.T.);
#167=FACE_BOUND('',#147,.T.);
#168=PLANE('',#202);
#169=PLANE('',#210);
#170=PLANE('',#211);
#171=PLANE('',#212);
#172=PLANE('',#213);
#173=PLANE('',#214);
#174=PLANE('',#215);
#175=PLANE('',#217);
#176=ADVANCED_FACE('',(#148,#149),#168,.F.);
#177=ADVANCED_FACE('',(#150,#151),#23,.T.);
#178=ADVANCED_FACE('',(#152,#153),#22,.T.);
#179=ADVANCED_FACE('',(#154,#155),#24,.T.);
#180=ADVANCED_FACE('',(#156),#169,.F.);
#181=ADVANCED_FACE('',(#157),#170,.F.);
#182=ADVANCED_FACE('',(#158),#171,.F.);
#183=ADVANCED_FACE('',(#159),#172,.F.);
#184=ADVANCED_FACE('',(#160),#173,.F.);
#185=ADVANCED_FACE('',(#161,#162),#174,.F.);
#186=ADVANCED_FACE('',(#163),#175,.F.);
#187=ADVANCED_FACE('',(#164,#165),#20,.T.);
#188=ADVANCED_FACE('',(#166,#167),#21,.T.);
#189=CLOSED_SHELL('',(#176,#177,#178,#179,#180,#181,#182,#183,#184,#185,
#186,#187,#188));
#190=STYLED_ITEM('',(#191),#198);
#191=PRESENTATION_STYLE_ASSIGNMENT((#192));
#192=SURFACE_STYLE_USAGE(.BOTH.,#193);
#193=SURFACE_SIDE_STYLE('',(#194));
#194=SURFACE_STYLE_FILL_AREA(#195);
#195=FILL_AREA_STYLE('',(#196));
#196=FILL_AREA_STYLE_COLOUR('',#197);
#197=COLOUR_RGB('',0.689999997615814,0.689999997615814,0.689999997615814);
#198=MANIFOLD_SOLID_BREP('526786 MA-40-145-R1/8-PSI-E-RG',#189);
#199=SHAPE_DEFINITION_REPRESENTATION(#330,#200);
#200=SHAPE_REPRESENTATION('526786 MA-40-145-R1/8-PSI-E-RG',(#201),#325);
#201=AXIS2_PLACEMENT_3D('',#276,#222,#223);
#202=AXIS2_PLACEMENT_3D('',#277,#224,#225);
#203=AXIS2_PLACEMENT_3D('',#278,#226,#227);
#204=AXIS2_PLACEMENT_3D('',#288,#232,#233);
#205=AXIS2_PLACEMENT_3D('',#289,#234,#235);
#206=AXIS2_PLACEMENT_3D('',#291,#236,#237);
#207=AXIS2_PLACEMENT_3D('',#292,#238,#239);
#208=AXIS2_PLACEMENT_3D('',#294,#240,#241);
#209=AXIS2_PLACEMENT_3D('',#295,#242,#243);
#210=AXIS2_PLACEMENT_3D('',#297,#244,#245);
#211=AXIS2_PLACEMENT_3D('',#298,#246,#247);
#212=AXIS2_PLACEMENT_3D('',#304,#251,#252);
#213=AXIS2_PLACEMENT_3D('',#308,#255,#256);
#214=AXIS2_PLACEMENT_3D('',#312,#259,#260);
#215=AXIS2_PLACEMENT_3D('',#314,#262,#263);
#216=AXIS2_PLACEMENT_3D('',#315,#264,#265);
#217=AXIS2_PLACEMENT_3D('',#317,#266,#267);
#218=AXIS2_PLACEMENT_3D('',#318,#268,#269);
#219=AXIS2_PLACEMENT_3D('',#320,#270,#271);
#220=AXIS2_PLACEMENT_3D('',#321,#272,#273);
#221=AXIS2_PLACEMENT_3D('',#323,#274,#275);
#222=DIRECTION('',(0.,0.,1.));
#223=DIRECTION('',(1.,0.,0.));
#224=DIRECTION('',(1.,0.,0.));
#225=DIRECTION('',(0.,0.,-1.));
#226=DIRECTION('',(1.,0.,0.));
#227=DIRECTION('',(0.,0.,-1.));
#228=DIRECTION('',(0.,-1.,0.));
#229=DIRECTION('',(0.,0.,-1.));
#230=DIRECTION('',(0.,1.,0.));
#231=DIRECTION('',(0.,0.,-1.));
#232=DIRECTION('',(1.,0.,0.));
#233=DIRECTION('',(0.,0.,-1.));
#234=DIRECTION('',(1.,0.,0.));
#235=DIRECTION('',(0.,0.,-1.));
#236=DIRECTION('',(1.,0.,0.));
#237=DIRECTION('',(0.,0.,-1.));
#238=DIRECTION('',(1.,0.,0.));
#239=DIRECTION('',(0.,0.,-1.));
#240=DIRECTION('',(1.,0.,0.));
#241=DIRECTION('',(0.,0.,-1.));
#242=DIRECTION('',(1.,0.,0.));
#243=DIRECTION('',(0.,0.,-1.));
#244=DIRECTION('',(-1.,0.,0.));
#245=DIRECTION('',(0.,0.,1.));
#246=DIRECTION('',(0.,0.,-1.));
#247=DIRECTION('',(-1.,0.,0.));
#248=DIRECTION('',(0.,-1.,0.));
#249=DIRECTION('',(-1.,0.,0.));
#250=DIRECTION('',(-1.,0.,0.));
#251=DIRECTION('',(0.,1.,0.));
#252=DIRECTION('',(0.,0.,1.));
#253=DIRECTION('',(0.,0.,-1.));
#254=DIRECTION('',(-1.,0.,0.));
#255=DIRECTION('',(0.,0.,1.));
#256=DIRECTION('',(1.,0.,0.));
#257=DIRECTION('',(0.,1.,0.));
#258=DIRECTION('',(-1.,0.,0.));
#259=DIRECTION('',(0.,-1.,0.));
#260=DIRECTION('',(0.,0.,-1.));
#261=DIRECTION('',(0.,0.,1.));
#262=DIRECTION('',(1.,0.,0.));
#263=DIRECTION('',(0.,0.,-1.));
#264=DIRECTION('',(1.,0.,0.));
#265=DIRECTION('',(0.,0.,-1.));
#266=DIRECTION('',(1.,0.,0.));
#267=DIRECTION('',(0.,0.,-1.));
#268=DIRECTION('',(1.,0.,0.));
#269=DIRECTION('',(0.,0.,-1.));
#270=DIRECTION('',(1.,0.,0.));
#271=DIRECTION('',(0.,0.,-1.));
#272=DIRECTION('',(1.,0.,0.));
#273=DIRECTION('',(0.,0.,-1.));
#274=DIRECTION('',(1.,0.,0.));
#275=DIRECTION('',(0.,0.,-1.));
#276=CARTESIAN_POINT('',(0.,0.,0.));
#277=CARTESIAN_POINT('',(8.,0.,0.));
#278=CARTESIAN_POINT('',(8.,0.,0.));
#279=CARTESIAN_POINT('',(8.,0.,-18.));
#280=CARTESIAN_POINT('',(8.,7.,7.));
#281=CARTESIAN_POINT('',(8.,7.,7.));
#282=CARTESIAN_POINT('',(8.,-7.,7.));
#283=CARTESIAN_POINT('',(8.,-7.,7.));
#284=CARTESIAN_POINT('',(8.,-7.,-7.));
#285=CARTESIAN_POINT('',(8.,-7.,-7.));
#286=CARTESIAN_POINT('',(8.,7.,-7.));
#287=CARTESIAN_POINT('',(8.,7.,0.));
#288=CARTESIAN_POINT('',(9.5,0.,0.));
#289=CARTESIAN_POINT('',(9.5,0.,0.));
#290=CARTESIAN_POINT('',(9.5,0.,-19.5));
#291=CARTESIAN_POINT('',(36.,0.,0.));
#292=CARTESIAN_POINT('',(35.5,0.,0.));
#293=CARTESIAN_POINT('',(35.5,0.,-19.5));
#294=CARTESIAN_POINT('',(35.5,0.,0.));
#295=CARTESIAN_POINT('',(36.,0.,0.));
#296=CARTESIAN_POINT('',(36.,0.,-19.));
#297=CARTESIAN_POINT('',(36.,19.,0.));
#298=CARTESIAN_POINT('',(8.,7.,7.));
#299=CARTESIAN_POINT('',(0.,7.,7.));
#300=CARTESIAN_POINT('',(0.,7.,7.));
#301=CARTESIAN_POINT('',(0.,-7.,7.));
#302=CARTESIAN_POINT('',(8.,-7.,7.));
#303=CARTESIAN_POINT('',(8.,7.,7.));
#304=CARTESIAN_POINT('',(8.,-7.,7.));
#305=CARTESIAN_POINT('',(0.,-7.,7.));
#306=CARTESIAN_POINT('',(0.,-7.,-7.));
#307=CARTESIAN_POINT('',(8.,-7.,-7.));
#308=CARTESIAN_POINT('',(8.,-7.,-7.));
#309=CARTESIAN_POINT('',(0.,-7.,-7.));
#310=CARTESIAN_POINT('',(0.,7.,-7.));
#311=CARTESIAN_POINT('',(8.,7.,-7.));
#312=CARTESIAN_POINT('',(8.,7.,-7.));
#313=CARTESIAN_POINT('',(0.,7.,-7.));
#314=CARTESIAN_POINT('',(0.,0.,0.));
#315=CARTESIAN_POINT('',(0.,0.,0.));
#316=CARTESIAN_POINT('',(0.,0.,-5.05131725128838));
#317=CARTESIAN_POINT('',(-10.,0.,0.));
#318=CARTESIAN_POINT('',(-10.,0.,0.));
#319=CARTESIAN_POINT('',(-10.,0.,-4.15812183247441));
#320=CARTESIAN_POINT('',(-10.,0.,0.));
#321=CARTESIAN_POINT('',(-9.40027692019272,0.,0.));
#322=CARTESIAN_POINT('',(-9.40027692019272,0.,-4.75784491228169));
#323=CARTESIAN_POINT('',(-9.40027692019272,0.,0.));
#324=MECHANICAL_DESIGN_GEOMETRIC_PRESENTATION_REPRESENTATION('',(#190),
#325);
#325=(
GEOMETRIC_REPRESENTATION_CONTEXT(3)
GLOBAL_UNCERTAINTY_ASSIGNED_CONTEXT((#326))
GLOBAL_UNIT_ASSIGNED_CONTEXT((#329,#328,#327))
REPRESENTATION_CONTEXT('526786 MA-40-145-R1/8-PSI-E-RG',
'TOP_LEVEL_ASSEMBLY_PART')
);
#326=UNCERTAINTY_MEASURE_WITH_UNIT(LENGTH_MEASURE(0.005),#329,
'DISTANCE_ACCURACY_VALUE','Maximum Tolerance applied to model');
#327=(
NAMED_UNIT(*)
SI_UNIT($,.STERADIAN.)
SOLID_ANGLE_UNIT()
);
#328=(
NAMED_UNIT(*)
PLANE_ANGLE_UNIT()
SI_UNIT($,.RADIAN.)
);
#329=(
LENGTH_UNIT()
NAMED_UNIT(*)
SI_UNIT(.MILLI.,.METRE.)
);
#330=PRODUCT_DEFINITION_SHAPE('','',#331);
#331=PRODUCT_DEFINITION('','',#333,#332);
#332=PRODUCT_DEFINITION_CONTEXT('',#339,'design');
#333=PRODUCT_DEFINITION_FORMATION_WITH_SPECIFIED_SOURCE('','',#335,
 .NOT_KNOWN.);
#334=PRODUCT_RELATED_PRODUCT_CATEGORY('','',(#335));
#335=PRODUCT('526786 MA-40-145-R1/8-PSI-E-RG',
'526786 MA-40-145-R1/8-PSI-E-RG','526786 MA-40-145-R1/8-PSI-E-RG',(#337));
#336=PRODUCT_CATEGORY('','');
#337=PRODUCT_CONTEXT('',#339,'mechanical');
#338=APPLICATION_PROTOCOL_DEFINITION('international standard',
'automotive_design',2010,#339);
#339=APPLICATION_CONTEXT(
'core data for automotive mechanical design processes');
ENDSEC;
END-ISO-10303-21;
