ISO-10303-21;
HEADER;
/* Generated by software containing ST-Developer
 * from STEP Tools, Inc. (www.steptools.com) 
 */
/* OPTION: using custom renumber hook */

FILE_DESCRIPTION(
/* description */ ('STEP AP214'),
/* implementation_level */ '2;1');

FILE_NAME(
/* name */ '529046_MA-40-16-1_8-EN-DPA',
/* time_stamp */ '2024-09-05T03:16:09+02:00',
/* author */ ('License CC BY-ND 4.0'),
/* organization */ ('CADENAS'),
/* preprocessor_version */ 'ST-DEVELOPER v19.3',
/* originating_system */ 'PARTsolutions',
/* authorisation */ '  ');

FILE_SCHEMA (('AUTOMOTIVE_DESIGN {1 0 10303 214 3 1 1}'));
ENDSEC;

DATA;
#10=PROPERTY_DEFINITION_REPRESENTATION(#14,#12);
#11=PROPERTY_DEFINITION_REPRESENTATION(#15,#13);
#12=REPRESENTATION('',(#16),#345);
#13=REPRESENTATION('',(#17),#345);
#14=PROPERTY_DEFINITION('pmi validation property','',#350);
#15=PROPERTY_DEFINITION('pmi validation property','',#350);
#16=VALUE_REPRESENTATION_ITEM('number of annotations',COUNT_MEASURE(0.));
#17=VALUE_REPRESENTATION_ITEM('number of views',COUNT_MEASURE(0.));
#18=SHAPE_REPRESENTATION_RELATIONSHIP('','',#211,#19);
#19=ADVANCED_BREP_SHAPE_REPRESENTATION('',(#209),#345);
#20=CONICAL_SURFACE('',#228,3.73912183247441,0.801002865896438);
#21=CONICAL_SURFACE('',#230,4.77032617125215,0.0312094049979787);
#22=CYLINDRICAL_SURFACE('',#217,19.5);
#23=CYLINDRICAL_SURFACE('',#234,5.1);
#24=TOROIDAL_SURFACE('',#215,18.,1.5);
#25=LINE('',#297,#37);
#26=LINE('',#300,#38);
#27=LINE('',#302,#39);
#28=LINE('',#304,#40);
#29=LINE('',#313,#41);
#30=LINE('',#316,#42);
#31=LINE('',#317,#43);
#32=LINE('',#319,#44);
#33=LINE('',#321,#45);
#34=LINE('',#323,#46);
#35=LINE('',#325,#47);
#36=LINE('',#327,#48);
#37=VECTOR('',#241,1000.);
#38=VECTOR('',#242,1000.);
#39=VECTOR('',#243,1000.);
#40=VECTOR('',#244,1000.);
#41=VECTOR('',#257,1000.);
#42=VECTOR('',#258,1000.);
#43=VECTOR('',#259,1000.);
#44=VECTOR('',#262,1000.);
#45=VECTOR('',#263,1000.);
#46=VECTOR('',#266,1000.);
#47=VECTOR('',#267,1000.);
#48=VECTOR('',#270,1000.);
#49=ORIENTED_EDGE('',*,*,#89,.F.);
#50=ORIENTED_EDGE('',*,*,#90,.T.);
#51=ORIENTED_EDGE('',*,*,#91,.T.);
#52=ORIENTED_EDGE('',*,*,#92,.T.);
#53=ORIENTED_EDGE('',*,*,#93,.F.);
#54=ORIENTED_EDGE('',*,*,#89,.T.);
#55=ORIENTED_EDGE('',*,*,#94,.F.);
#56=ORIENTED_EDGE('',*,*,#95,.F.);
#57=ORIENTED_EDGE('',*,*,#94,.T.);
#58=ORIENTED_EDGE('',*,*,#95,.T.);
#59=ORIENTED_EDGE('',*,*,#96,.T.);
#60=ORIENTED_EDGE('',*,*,#97,.F.);
#61=ORIENTED_EDGE('',*,*,#90,.F.);
#62=ORIENTED_EDGE('',*,*,#98,.T.);
#63=ORIENTED_EDGE('',*,*,#99,.T.);
#64=ORIENTED_EDGE('',*,*,#100,.F.);
#65=ORIENTED_EDGE('',*,*,#91,.F.);
#66=ORIENTED_EDGE('',*,*,#97,.T.);
#67=ORIENTED_EDGE('',*,*,#101,.T.);
#68=ORIENTED_EDGE('',*,*,#102,.F.);
#69=ORIENTED_EDGE('',*,*,#92,.F.);
#70=ORIENTED_EDGE('',*,*,#100,.T.);
#71=ORIENTED_EDGE('',*,*,#103,.T.);
#72=ORIENTED_EDGE('',*,*,#98,.F.);
#73=ORIENTED_EDGE('',*,*,#93,.T.);
#74=ORIENTED_EDGE('',*,*,#102,.T.);
#75=ORIENTED_EDGE('',*,*,#104,.F.);
#76=ORIENTED_EDGE('',*,*,#96,.F.);
#77=ORIENTED_EDGE('',*,*,#103,.F.);
#78=ORIENTED_EDGE('',*,*,#101,.F.);
#79=ORIENTED_EDGE('',*,*,#99,.F.);
#80=ORIENTED_EDGE('',*,*,#105,.F.);
#81=ORIENTED_EDGE('',*,*,#106,.F.);
#82=ORIENTED_EDGE('',*,*,#105,.T.);
#83=ORIENTED_EDGE('',*,*,#107,.F.);
#84=ORIENTED_EDGE('',*,*,#106,.T.);
#85=ORIENTED_EDGE('',*,*,#108,.F.);
#86=ORIENTED_EDGE('',*,*,#107,.T.);
#87=ORIENTED_EDGE('',*,*,#104,.T.);
#88=ORIENTED_EDGE('',*,*,#108,.T.);
#89=EDGE_CURVE('',#109,#109,#125,.T.);
#90=EDGE_CURVE('',#110,#111,#25,.T.);
#91=EDGE_CURVE('',#111,#112,#26,.T.);
#92=EDGE_CURVE('',#112,#113,#27,.T.);
#93=EDGE_CURVE('',#110,#113,#28,.T.);
#94=EDGE_CURVE('',#114,#114,#126,.T.);
#95=EDGE_CURVE('',#115,#115,#127,.T.);
#96=EDGE_CURVE('',#116,#117,#29,.T.);
#97=EDGE_CURVE('',#111,#117,#30,.T.);
#98=EDGE_CURVE('',#110,#116,#31,.T.);
#99=EDGE_CURVE('',#117,#118,#32,.T.);
#100=EDGE_CURVE('',#112,#118,#33,.T.);
#101=EDGE_CURVE('',#118,#119,#34,.T.);
#102=EDGE_CURVE('',#113,#119,#35,.T.);
#103=EDGE_CURVE('',#119,#116,#36,.T.);
#104=EDGE_CURVE('',#120,#120,#128,.F.);
#105=EDGE_CURVE('',#121,#121,#129,.T.);
#106=EDGE_CURVE('',#122,#122,#130,.T.);
#107=EDGE_CURVE('',#123,#123,#131,.T.);
#108=EDGE_CURVE('',#124,#124,#132,.T.);
#109=VERTEX_POINT('',#296);
#110=VERTEX_POINT('',#298);
#111=VERTEX_POINT('',#299);
#112=VERTEX_POINT('',#301);
#113=VERTEX_POINT('',#303);
#114=VERTEX_POINT('',#307);
#115=VERTEX_POINT('',#310);
#116=VERTEX_POINT('',#314);
#117=VERTEX_POINT('',#315);
#118=VERTEX_POINT('',#320);
#119=VERTEX_POINT('',#324);
#120=VERTEX_POINT('',#330);
#121=VERTEX_POINT('',#333);
#122=VERTEX_POINT('',#336);
#123=VERTEX_POINT('',#339);
#124=VERTEX_POINT('',#342);
#125=CIRCLE('',#214,18.);
#126=CIRCLE('',#216,19.5);
#127=CIRCLE('',#218,19.5);
#128=CIRCLE('',#225,5.1);
#129=CIRCLE('',#227,3.73912183247441);
#130=CIRCLE('',#229,4.77032617125215);
#131=CIRCLE('',#231,5.05131725128838);
#132=CIRCLE('',#233,5.1);
#133=EDGE_LOOP('',(#49));
#134=EDGE_LOOP('',(#50,#51,#52,#53));
#135=EDGE_LOOP('',(#54));
#136=EDGE_LOOP('',(#55));
#137=EDGE_LOOP('',(#56));
#138=EDGE_LOOP('',(#57));
#139=EDGE_LOOP('',(#58));
#140=EDGE_LOOP('',(#59,#60,#61,#62));
#141=EDGE_LOOP('',(#63,#64,#65,#66));
#142=EDGE_LOOP('',(#67,#68,#69,#70));
#143=EDGE_LOOP('',(#71,#72,#73,#74));
#144=EDGE_LOOP('',(#75));
#145=EDGE_LOOP('',(#76,#77,#78,#79));
#146=EDGE_LOOP('',(#80));
#147=EDGE_LOOP('',(#81));
#148=EDGE_LOOP('',(#82));
#149=EDGE_LOOP('',(#83));
#150=EDGE_LOOP('',(#84));
#151=EDGE_LOOP('',(#85));
#152=EDGE_LOOP('',(#86));
#153=EDGE_LOOP('',(#87));
#154=EDGE_LOOP('',(#88));
#155=FACE_BOUND('',#133,.T.);
#156=FACE_BOUND('',#134,.T.);
#157=FACE_BOUND('',#135,.T.);
#158=FACE_BOUND('',#136,.T.);
#159=FACE_BOUND('',#137,.T.);
#160=FACE_BOUND('',#138,.T.);
#161=FACE_BOUND('',#139,.T.);
#162=FACE_BOUND('',#140,.T.);
#163=FACE_BOUND('',#141,.T.);
#164=FACE_BOUND('',#142,.T.);
#165=FACE_BOUND('',#143,.T.);
#166=FACE_BOUND('',#144,.T.);
#167=FACE_BOUND('',#145,.T.);
#168=FACE_BOUND('',#146,.T.);
#169=FACE_BOUND('',#147,.T.);
#170=FACE_BOUND('',#148,.T.);
#171=FACE_BOUND('',#149,.T.);
#172=FACE_BOUND('',#150,.T.);
#173=FACE_BOUND('',#151,.T.);
#174=FACE_BOUND('',#152,.T.);
#175=FACE_BOUND('',#153,.T.);
#176=FACE_BOUND('',#154,.T.);
#177=PLANE('',#213);
#178=PLANE('',#219);
#179=PLANE('',#220);
#180=PLANE('',#221);
#181=PLANE('',#222);
#182=PLANE('',#223);
#183=PLANE('',#224);
#184=PLANE('',#226);
#185=PLANE('',#232);
#186=ADVANCED_FACE('',(#155,#156),#177,.F.);
#187=ADVANCED_FACE('',(#157,#158),#24,.T.);
#188=ADVANCED_FACE('',(#159,#160),#22,.T.);
#189=ADVANCED_FACE('',(#161),#178,.F.);
#190=ADVANCED_FACE('',(#162),#179,.F.);
#191=ADVANCED_FACE('',(#163),#180,.F.);
#192=ADVANCED_FACE('',(#164),#181,.F.);
#193=ADVANCED_FACE('',(#165),#182,.F.);
#194=ADVANCED_FACE('',(#166,#167),#183,.F.);
#195=ADVANCED_FACE('',(#168),#184,.F.);
#196=ADVANCED_FACE('',(#169,#170),#20,.T.);
#197=ADVANCED_FACE('',(#171,#172),#21,.T.);
#198=ADVANCED_FACE('',(#173,#174),#185,.F.);
#199=ADVANCED_FACE('',(#175,#176),#23,.T.);
#200=CLOSED_SHELL('',(#186,#187,#188,#189,#190,#191,#192,#193,#194,#195,
#196,#197,#198,#199));
#201=STYLED_ITEM('',(#202),#209);
#202=PRESENTATION_STYLE_ASSIGNMENT((#203));
#203=SURFACE_STYLE_USAGE(.BOTH.,#204);
#204=SURFACE_SIDE_STYLE('',(#205));
#205=SURFACE_STYLE_FILL_AREA(#206);
#206=FILL_AREA_STYLE('',(#207));
#207=FILL_AREA_STYLE_COLOUR('',#208);
#208=COLOUR_RGB('',0.689999997615814,0.689999997615814,0.689999997615814);
#209=MANIFOLD_SOLID_BREP('529046 MA-40-16-1/8-EN-DPA',#200);
#210=SHAPE_DEFINITION_REPRESENTATION(#350,#211);
#211=SHAPE_REPRESENTATION('529046 MA-40-16-1/8-EN-DPA',(#212),#345);
#212=AXIS2_PLACEMENT_3D('',#293,#235,#236);
#213=AXIS2_PLACEMENT_3D('',#294,#237,#238);
#214=AXIS2_PLACEMENT_3D('',#295,#239,#240);
#215=AXIS2_PLACEMENT_3D('',#305,#245,#246);
#216=AXIS2_PLACEMENT_3D('',#306,#247,#248);
#217=AXIS2_PLACEMENT_3D('',#308,#249,#250);
#218=AXIS2_PLACEMENT_3D('',#309,#251,#252);
#219=AXIS2_PLACEMENT_3D('',#311,#253,#254);
#220=AXIS2_PLACEMENT_3D('',#312,#255,#256);
#221=AXIS2_PLACEMENT_3D('',#318,#260,#261);
#222=AXIS2_PLACEMENT_3D('',#322,#264,#265);
#223=AXIS2_PLACEMENT_3D('',#326,#268,#269);
#224=AXIS2_PLACEMENT_3D('',#328,#271,#272);
#225=AXIS2_PLACEMENT_3D('',#329,#273,#274);
#226=AXIS2_PLACEMENT_3D('',#331,#275,#276);
#227=AXIS2_PLACEMENT_3D('',#332,#277,#278);
#228=AXIS2_PLACEMENT_3D('',#334,#279,#280);
#229=AXIS2_PLACEMENT_3D('',#335,#281,#282);
#230=AXIS2_PLACEMENT_3D('',#337,#283,#284);
#231=AXIS2_PLACEMENT_3D('',#338,#285,#286);
#232=AXIS2_PLACEMENT_3D('',#340,#287,#288);
#233=AXIS2_PLACEMENT_3D('',#341,#289,#290);
#234=AXIS2_PLACEMENT_3D('',#343,#291,#292);
#235=DIRECTION('',(0.,0.,1.));
#236=DIRECTION('',(1.,0.,0.));
#237=DIRECTION('',(1.,0.,0.));
#238=DIRECTION('',(0.,0.,-1.));
#239=DIRECTION('',(1.,0.,0.));
#240=DIRECTION('',(0.,0.,-1.));
#241=DIRECTION('',(0.,-1.,0.));
#242=DIRECTION('',(0.,0.,-1.));
#243=DIRECTION('',(0.,1.,0.));
#244=DIRECTION('',(0.,0.,-1.));
#245=DIRECTION('',(1.,0.,0.));
#246=DIRECTION('',(0.,0.,-1.));
#247=DIRECTION('',(1.,0.,0.));
#248=DIRECTION('',(0.,0.,-1.));
#249=DIRECTION('',(1.,0.,0.));
#250=DIRECTION('',(0.,0.,-1.));
#251=DIRECTION('',(1.,0.,0.));
#252=DIRECTION('',(0.,0.,-1.));
#253=DIRECTION('',(-1.,0.,0.));
#254=DIRECTION('',(0.,0.,1.));
#255=DIRECTION('',(0.,0.,-1.));
#256=DIRECTION('',(-1.,0.,0.));
#257=DIRECTION('',(0.,-1.,0.));
#258=DIRECTION('',(-1.,0.,0.));
#259=DIRECTION('',(-1.,0.,0.));
#260=DIRECTION('',(0.,1.,0.));
#261=DIRECTION('',(0.,0.,1.));
#262=DIRECTION('',(0.,0.,-1.));
#263=DIRECTION('',(-1.,0.,0.));
#264=DIRECTION('',(0.,0.,1.));
#265=DIRECTION('',(1.,0.,0.));
#266=DIRECTION('',(0.,1.,0.));
#267=DIRECTION('',(-1.,0.,0.));
#268=DIRECTION('',(0.,-1.,0.));
#269=DIRECTION('',(0.,0.,-1.));
#270=DIRECTION('',(0.,0.,1.));
#271=DIRECTION('',(1.,0.,0.));
#272=DIRECTION('',(0.,0.,-1.));
#273=DIRECTION('',(1.,0.,0.));
#274=DIRECTION('',(0.,0.,-1.));
#275=DIRECTION('',(1.,0.,0.));
#276=DIRECTION('',(0.,0.,-1.));
#277=DIRECTION('',(1.,0.,0.));
#278=DIRECTION('',(0.,0.,-1.));
#279=DIRECTION('',(1.,0.,0.));
#280=DIRECTION('',(0.,0.,-1.));
#281=DIRECTION('',(1.,0.,0.));
#282=DIRECTION('',(0.,0.,-1.));
#283=DIRECTION('',(1.,0.,0.));
#284=DIRECTION('',(0.,0.,-1.));
#285=DIRECTION('',(1.,0.,0.));
#286=DIRECTION('',(0.,0.,-1.));
#287=DIRECTION('',(1.,0.,0.));
#288=DIRECTION('',(0.,0.,-1.));
#289=DIRECTION('',(1.,0.,0.));
#290=DIRECTION('',(0.,0.,-1.));
#291=DIRECTION('',(1.,0.,0.));
#292=DIRECTION('',(0.,0.,-1.));
#293=CARTESIAN_POINT('',(0.,0.,0.));
#294=CARTESIAN_POINT('',(8.,0.,0.));
#295=CARTESIAN_POINT('',(8.,0.,0.));
#296=CARTESIAN_POINT('',(8.,0.,-18.));
#297=CARTESIAN_POINT('',(8.,7.,7.));
#298=CARTESIAN_POINT('',(8.,7.,7.));
#299=CARTESIAN_POINT('',(8.,-7.,7.));
#300=CARTESIAN_POINT('',(8.,-7.,7.));
#301=CARTESIAN_POINT('',(8.,-7.,-7.));
#302=CARTESIAN_POINT('',(8.,-7.,-7.));
#303=CARTESIAN_POINT('',(8.,7.,-7.));
#304=CARTESIAN_POINT('',(8.,7.,0.));
#305=CARTESIAN_POINT('',(9.5,0.,0.));
#306=CARTESIAN_POINT('',(9.5,0.,0.));
#307=CARTESIAN_POINT('',(9.5,0.,-19.5));
#308=CARTESIAN_POINT('',(34.,0.,0.));
#309=CARTESIAN_POINT('',(34.,0.,0.));
#310=CARTESIAN_POINT('',(34.,0.,-19.5));
#311=CARTESIAN_POINT('',(34.,19.5,0.));
#312=CARTESIAN_POINT('',(8.,7.,7.));
#313=CARTESIAN_POINT('',(0.,7.,7.));
#314=CARTESIAN_POINT('',(0.,7.,7.));
#315=CARTESIAN_POINT('',(0.,-7.,7.));
#316=CARTESIAN_POINT('',(8.,-7.,7.));
#317=CARTESIAN_POINT('',(8.,7.,7.));
#318=CARTESIAN_POINT('',(8.,-7.,7.));
#319=CARTESIAN_POINT('',(0.,-7.,7.));
#320=CARTESIAN_POINT('',(0.,-7.,-7.));
#321=CARTESIAN_POINT('',(8.,-7.,-7.));
#322=CARTESIAN_POINT('',(8.,-7.,-7.));
#323=CARTESIAN_POINT('',(0.,-7.,-7.));
#324=CARTESIAN_POINT('',(0.,7.,-7.));
#325=CARTESIAN_POINT('',(8.,7.,-7.));
#326=CARTESIAN_POINT('',(8.,7.,-7.));
#327=CARTESIAN_POINT('',(0.,7.,-7.));
#328=CARTESIAN_POINT('',(0.,0.,0.));
#329=CARTESIAN_POINT('',(0.,0.,0.));
#330=CARTESIAN_POINT('',(0.,0.,-5.1));
#331=CARTESIAN_POINT('',(-12.,0.,0.));
#332=CARTESIAN_POINT('',(-12.,0.,0.));
#333=CARTESIAN_POINT('',(-12.,0.,-3.73912183247441));
#334=CARTESIAN_POINT('',(-12.,0.,0.));
#335=CARTESIAN_POINT('',(-11.0004869739511,0.,0.));
#336=CARTESIAN_POINT('',(-11.0004869739511,0.,-4.77032617125215));
#337=CARTESIAN_POINT('',(-11.0004869739511,0.,0.));
#338=CARTESIAN_POINT('',(-2.,0.,0.));
#339=CARTESIAN_POINT('',(-2.,0.,-5.05131725128838));
#340=CARTESIAN_POINT('',(-2.,5.05131725128838,0.));
#341=CARTESIAN_POINT('',(-2.,0.,0.));
#342=CARTESIAN_POINT('',(-2.,0.,-5.1));
#343=CARTESIAN_POINT('',(0.,0.,0.));
#344=MECHANICAL_DESIGN_GEOMETRIC_PRESENTATION_REPRESENTATION('',(#201),
#345);
#345=(
GEOMETRIC_REPRESENTATION_CONTEXT(3)
GLOBAL_UNCERTAINTY_ASSIGNED_CONTEXT((#346))
GLOBAL_UNIT_ASSIGNED_CONTEXT((#349,#348,#347))
REPRESENTATION_CONTEXT('529046 MA-40-16-1/8-EN-DPA',
'TOP_LEVEL_ASSEMBLY_PART')
);
#346=UNCERTAINTY_MEASURE_WITH_UNIT(LENGTH_MEASURE(0.005),#349,
'DISTANCE_ACCURACY_VALUE','Maximum Tolerance applied to model');
#347=(
NAMED_UNIT(*)
SI_UNIT($,.STERADIAN.)
SOLID_ANGLE_UNIT()
);
#348=(
NAMED_UNIT(*)
PLANE_ANGLE_UNIT()
SI_UNIT($,.RADIAN.)
);
#349=(
LENGTH_UNIT()
NAMED_UNIT(*)
SI_UNIT(.MILLI.,.METRE.)
);
#350=PRODUCT_DEFINITION_SHAPE('','',#351);
#351=PRODUCT_DEFINITION('','',#353,#352);
#352=PRODUCT_DEFINITION_CONTEXT('',#359,'design');
#353=PRODUCT_DEFINITION_FORMATION_WITH_SPECIFIED_SOURCE('','',#355,
 .NOT_KNOWN.);
#354=PRODUCT_RELATED_PRODUCT_CATEGORY('','',(#355));
#355=PRODUCT('529046 MA-40-16-1/8-EN-DPA','529046 MA-40-16-1/8-EN-DPA',
'529046 MA-40-16-1/8-EN-DPA',(#357));
#356=PRODUCT_CATEGORY('','');
#357=PRODUCT_CONTEXT('',#359,'mechanical');
#358=APPLICATION_PROTOCOL_DEFINITION('international standard',
'automotive_design',2010,#359);
#359=APPLICATION_CONTEXT(
'core data for automotive mechanical design processes');
ENDSEC;
END-ISO-10303-21;
