ISO-10303-21;
HEADER;
/* Generated by software containing ST-Developer
 * from STEP Tools, Inc. (www.steptools.com) 
 */
/* OPTION: using custom renumber hook */

FILE_DESCRIPTION(
/* description */ ('STEP AP214'),
/* implementation_level */ '2;1');

FILE_NAME(
/* name */ '530025_HMR-D-MINI_MAXI',
/* time_stamp */ '2024-08-21T13:01:26+02:00',
/* author */ ('License CC BY-ND 4.0'),
/* organization */ ('CADENAS'),
/* preprocessor_version */ 'ST-DEVELOPER v19.3',
/* originating_system */ 'PARTsolutions',
/* authorisation */ '  ');

FILE_SCHEMA (('AUTOMOTIVE_DESIGN {1 0 10303 214 3 1 1}'));
ENDSEC;

DATA;
#10=PROPERTY_DEFINITION_REPRESENTATION(#14,#12);
#11=PROPERTY_DEFINITION_REPRESENTATION(#15,#13);
#12=REPRESENTATION('',(#16),#599);
#13=REPRESENTATION('',(#17),#599);
#14=PROPERTY_DEFINITION('pmi validation property','',#604);
#15=PROPERTY_DEFINITION('pmi validation property','',#604);
#16=VALUE_REPRESENTATION_ITEM('number of annotations',COUNT_MEASURE(0.));
#17=VALUE_REPRESENTATION_ITEM('number of views',COUNT_MEASURE(0.));
#18=SHAPE_REPRESENTATION_RELATIONSHIP('','',#331,#19);
#19=ADVANCED_BREP_SHAPE_REPRESENTATION('',(#329),#599);
#20=B_SPLINE_CURVE_WITH_KNOTS('',3,(#510,#511,#512,#513,#514),
 .UNSPECIFIED.,.F.,.F.,(4,1,4),(0.0265087824937013,0.034994759532417,0.0434807365711326),
 .UNSPECIFIED.);
#21=B_SPLINE_CURVE_WITH_KNOTS('',3,(#518,#519,#520,#521,#522),
 .UNSPECIFIED.,.F.,.F.,(4,1,4),(1.89910400413928E-6,0.00854955960264352,
0.0170972201012829),.UNSPECIFIED.);
#22=B_SPLINE_CURVE_WITH_KNOTS('',3,(#523,#524,#525,#526,#527),
 .UNSPECIFIED.,.F.,.F.,(4,1,4),(1.89910400414364E-6,0.00854955960264353,
0.0170972201012829),.UNSPECIFIED.);
#23=B_SPLINE_CURVE_WITH_KNOTS('',3,(#528,#529,#530,#531,#532),
 .UNSPECIFIED.,.F.,.F.,(4,1,4),(0.0265087824937013,0.034994759532417,0.0434807365711326),
 .UNSPECIFIED.);
#24=B_SPLINE_CURVE_WITH_KNOTS('',3,(#533,#534,#535,#536,#537),
 .UNSPECIFIED.,.F.,.F.,(4,1,4),(1.89910400413928E-6,0.00854955960264352,
0.0170972201012829),.UNSPECIFIED.);
#25=B_SPLINE_CURVE_WITH_KNOTS('',3,(#538,#539,#540,#541,#542),
 .UNSPECIFIED.,.F.,.F.,(4,1,4),(1.89910400414364E-6,0.00854955960264353,
0.0170972201012829),.UNSPECIFIED.);
#26=B_SPLINE_CURVE_WITH_KNOTS('',3,(#552,#553,#554,#555,#556),
 .UNSPECIFIED.,.F.,.F.,(4,1,4),(0.0265087824937013,0.034994759532417,0.0434807365711326),
 .UNSPECIFIED.);
#27=B_SPLINE_CURVE_WITH_KNOTS('',3,(#557,#558,#559,#560,#561),
 .UNSPECIFIED.,.F.,.F.,(4,1,4),(1.89910400414015E-6,0.00854955960264352,
0.0170972201012829),.UNSPECIFIED.);
#28=B_SPLINE_CURVE_WITH_KNOTS('',3,(#562,#563,#564,#565,#566),
 .UNSPECIFIED.,.F.,.F.,(4,1,4),(1.89910400415439E-6,0.00854955960264354,
0.0170972201012829),.UNSPECIFIED.);
#29=B_SPLINE_CURVE_WITH_KNOTS('',3,(#567,#568,#569,#570,#571),
 .UNSPECIFIED.,.F.,.F.,(4,1,4),(0.0265087824937013,0.034994759532417,0.0434807365711326),
 .UNSPECIFIED.);
#30=B_SPLINE_CURVE_WITH_KNOTS('',3,(#572,#573,#574,#575,#576),
 .UNSPECIFIED.,.F.,.F.,(4,1,4),(1.89910400414015E-6,0.00854955960264352,
0.0170972201012829),.UNSPECIFIED.);
#31=B_SPLINE_CURVE_WITH_KNOTS('',3,(#577,#578,#579,#580,#581),
 .UNSPECIFIED.,.F.,.F.,(4,1,4),(1.89910400415439E-6,0.00854955960264354,
0.0170972201012829),.UNSPECIFIED.);
#32=CONICAL_SURFACE('',#351,19.5,1.30899693899575);
#33=CONICAL_SURFACE('',#355,21.75,1.30899693899575);
#34=CONICAL_SURFACE('',#365,17.988,0.785398163397449);
#35=CONICAL_SURFACE('',#369,17.188,0.785398163397449);
#36=PLANE('',#348);
#37=PLANE('',#357);
#38=PLANE('',#359);
#39=PLANE('',#360);
#40=PLANE('',#361);
#41=PLANE('',#362);
#42=PLANE('',#363);
#43=PLANE('',#364);
#44=LINE('',#463,#56);
#45=LINE('',#467,#57);
#46=LINE('',#472,#58);
#47=LINE('',#476,#59);
#48=LINE('',#481,#60);
#49=LINE('',#485,#61);
#50=LINE('',#490,#62);
#51=LINE('',#494,#63);
#52=LINE('',#499,#64);
#53=LINE('',#503,#65);
#54=LINE('',#547,#66);
#55=LINE('',#548,#67);
#56=VECTOR('',#376,1000.);
#57=VECTOR('',#379,1000.);
#58=VECTOR('',#384,1000.);
#59=VECTOR('',#387,1000.);
#60=VECTOR('',#392,1000.);
#61=VECTOR('',#395,1000.);
#62=VECTOR('',#400,1000.);
#63=VECTOR('',#403,1000.);
#64=VECTOR('',#408,1000.);
#65=VECTOR('',#411,1000.);
#66=VECTOR('',#426,1000.);
#67=VECTOR('',#427,1000.);
#68=ORIENTED_EDGE('',*,*,#152,.T.);
#69=ORIENTED_EDGE('',*,*,#153,.T.);
#70=ORIENTED_EDGE('',*,*,#154,.F.);
#71=ORIENTED_EDGE('',*,*,#155,.T.);
#72=ORIENTED_EDGE('',*,*,#156,.F.);
#73=ORIENTED_EDGE('',*,*,#157,.T.);
#74=ORIENTED_EDGE('',*,*,#158,.T.);
#75=ORIENTED_EDGE('',*,*,#159,.T.);
#76=ORIENTED_EDGE('',*,*,#160,.F.);
#77=ORIENTED_EDGE('',*,*,#161,.T.);
#78=ORIENTED_EDGE('',*,*,#162,.T.);
#79=ORIENTED_EDGE('',*,*,#163,.T.);
#80=ORIENTED_EDGE('',*,*,#164,.F.);
#81=ORIENTED_EDGE('',*,*,#165,.T.);
#82=ORIENTED_EDGE('',*,*,#166,.T.);
#83=ORIENTED_EDGE('',*,*,#167,.T.);
#84=ORIENTED_EDGE('',*,*,#168,.F.);
#85=ORIENTED_EDGE('',*,*,#169,.T.);
#86=ORIENTED_EDGE('',*,*,#170,.T.);
#87=ORIENTED_EDGE('',*,*,#171,.T.);
#88=ORIENTED_EDGE('',*,*,#172,.F.);
#89=ORIENTED_EDGE('',*,*,#173,.T.);
#90=ORIENTED_EDGE('',*,*,#174,.T.);
#91=ORIENTED_EDGE('',*,*,#175,.F.);
#92=ORIENTED_EDGE('',*,*,#176,.T.);
#93=ORIENTED_EDGE('',*,*,#162,.F.);
#94=ORIENTED_EDGE('',*,*,#177,.T.);
#95=ORIENTED_EDGE('',*,*,#158,.F.);
#96=ORIENTED_EDGE('',*,*,#178,.T.);
#97=ORIENTED_EDGE('',*,*,#152,.F.);
#98=ORIENTED_EDGE('',*,*,#179,.T.);
#99=ORIENTED_EDGE('',*,*,#170,.F.);
#100=ORIENTED_EDGE('',*,*,#180,.T.);
#101=ORIENTED_EDGE('',*,*,#166,.F.);
#102=ORIENTED_EDGE('',*,*,#172,.T.);
#103=ORIENTED_EDGE('',*,*,#181,.F.);
#104=ORIENTED_EDGE('',*,*,#182,.T.);
#105=ORIENTED_EDGE('',*,*,#175,.T.);
#106=ORIENTED_EDGE('',*,*,#183,.T.);
#107=ORIENTED_EDGE('',*,*,#184,.F.);
#108=ORIENTED_EDGE('',*,*,#154,.T.);
#109=ORIENTED_EDGE('',*,*,#185,.T.);
#110=ORIENTED_EDGE('',*,*,#156,.T.);
#111=ORIENTED_EDGE('',*,*,#186,.T.);
#112=ORIENTED_EDGE('',*,*,#160,.T.);
#113=ORIENTED_EDGE('',*,*,#187,.T.);
#114=ORIENTED_EDGE('',*,*,#181,.T.);
#115=ORIENTED_EDGE('',*,*,#188,.T.);
#116=ORIENTED_EDGE('',*,*,#164,.T.);
#117=ORIENTED_EDGE('',*,*,#189,.T.);
#118=ORIENTED_EDGE('',*,*,#168,.T.);
#119=ORIENTED_EDGE('',*,*,#190,.T.);
#120=ORIENTED_EDGE('',*,*,#191,.F.);
#121=ORIENTED_EDGE('',*,*,#184,.T.);
#122=ORIENTED_EDGE('',*,*,#155,.F.);
#123=ORIENTED_EDGE('',*,*,#190,.F.);
#124=ORIENTED_EDGE('',*,*,#171,.F.);
#125=ORIENTED_EDGE('',*,*,#179,.F.);
#126=ORIENTED_EDGE('',*,*,#169,.F.);
#127=ORIENTED_EDGE('',*,*,#189,.F.);
#128=ORIENTED_EDGE('',*,*,#167,.F.);
#129=ORIENTED_EDGE('',*,*,#180,.F.);
#130=ORIENTED_EDGE('',*,*,#165,.F.);
#131=ORIENTED_EDGE('',*,*,#188,.F.);
#132=ORIENTED_EDGE('',*,*,#183,.F.);
#133=ORIENTED_EDGE('',*,*,#174,.F.);
#134=ORIENTED_EDGE('',*,*,#182,.F.);
#135=ORIENTED_EDGE('',*,*,#187,.F.);
#136=ORIENTED_EDGE('',*,*,#163,.F.);
#137=ORIENTED_EDGE('',*,*,#176,.F.);
#138=ORIENTED_EDGE('',*,*,#161,.F.);
#139=ORIENTED_EDGE('',*,*,#186,.F.);
#140=ORIENTED_EDGE('',*,*,#159,.F.);
#141=ORIENTED_EDGE('',*,*,#177,.F.);
#142=ORIENTED_EDGE('',*,*,#157,.F.);
#143=ORIENTED_EDGE('',*,*,#185,.F.);
#144=ORIENTED_EDGE('',*,*,#153,.F.);
#145=ORIENTED_EDGE('',*,*,#178,.F.);
#146=ORIENTED_EDGE('',*,*,#192,.T.);
#147=ORIENTED_EDGE('',*,*,#173,.F.);
#148=ORIENTED_EDGE('',*,*,#193,.T.);
#149=ORIENTED_EDGE('',*,*,#192,.F.);
#150=ORIENTED_EDGE('',*,*,#191,.T.);
#151=ORIENTED_EDGE('',*,*,#193,.F.);
#152=EDGE_CURVE('',#194,#195,#224,.T.);
#153=EDGE_CURVE('',#195,#196,#44,.T.);
#154=EDGE_CURVE('',#197,#196,#225,.T.);
#155=EDGE_CURVE('',#197,#194,#45,.F.);
#156=EDGE_CURVE('',#198,#199,#226,.T.);
#157=EDGE_CURVE('',#198,#200,#46,.F.);
#158=EDGE_CURVE('',#200,#201,#227,.T.);
#159=EDGE_CURVE('',#201,#199,#47,.T.);
#160=EDGE_CURVE('',#202,#203,#228,.T.);
#161=EDGE_CURVE('',#202,#204,#48,.F.);
#162=EDGE_CURVE('',#204,#205,#229,.T.);
#163=EDGE_CURVE('',#205,#203,#49,.T.);
#164=EDGE_CURVE('',#206,#207,#230,.T.);
#165=EDGE_CURVE('',#206,#208,#50,.F.);
#166=EDGE_CURVE('',#208,#209,#231,.T.);
#167=EDGE_CURVE('',#209,#207,#51,.T.);
#168=EDGE_CURVE('',#210,#211,#232,.T.);
#169=EDGE_CURVE('',#210,#212,#52,.F.);
#170=EDGE_CURVE('',#212,#213,#233,.T.);
#171=EDGE_CURVE('',#213,#211,#53,.T.);
#172=EDGE_CURVE('',#214,#214,#234,.T.);
#173=EDGE_CURVE('',#215,#215,#235,.T.);
#174=EDGE_CURVE('',#208,#216,#20,.T.);
#175=EDGE_CURVE('',#217,#216,#236,.T.);
#176=EDGE_CURVE('',#217,#205,#21,.T.);
#177=EDGE_CURVE('',#204,#201,#22,.T.);
#178=EDGE_CURVE('',#200,#195,#23,.T.);
#179=EDGE_CURVE('',#194,#213,#24,.T.);
#180=EDGE_CURVE('',#212,#209,#25,.T.);
#181=EDGE_CURVE('',#218,#219,#237,.T.);
#182=EDGE_CURVE('',#218,#217,#54,.F.);
#183=EDGE_CURVE('',#216,#219,#55,.T.);
#184=EDGE_CURVE('',#220,#220,#238,.T.);
#185=EDGE_CURVE('',#196,#198,#26,.T.);
#186=EDGE_CURVE('',#199,#202,#27,.T.);
#187=EDGE_CURVE('',#203,#218,#28,.T.);
#188=EDGE_CURVE('',#219,#206,#29,.T.);
#189=EDGE_CURVE('',#207,#210,#30,.T.);
#190=EDGE_CURVE('',#211,#197,#31,.T.);
#191=EDGE_CURVE('',#221,#221,#239,.T.);
#192=EDGE_CURVE('',#222,#222,#240,.T.);
#193=EDGE_CURVE('',#223,#223,#241,.T.);
#194=VERTEX_POINT('',#461);
#195=VERTEX_POINT('',#462);
#196=VERTEX_POINT('',#464);
#197=VERTEX_POINT('',#466);
#198=VERTEX_POINT('',#470);
#199=VERTEX_POINT('',#471);
#200=VERTEX_POINT('',#473);
#201=VERTEX_POINT('',#475);
#202=VERTEX_POINT('',#479);
#203=VERTEX_POINT('',#480);
#204=VERTEX_POINT('',#482);
#205=VERTEX_POINT('',#484);
#206=VERTEX_POINT('',#488);
#207=VERTEX_POINT('',#489);
#208=VERTEX_POINT('',#491);
#209=VERTEX_POINT('',#493);
#210=VERTEX_POINT('',#497);
#211=VERTEX_POINT('',#498);
#212=VERTEX_POINT('',#500);
#213=VERTEX_POINT('',#502);
#214=VERTEX_POINT('',#506);
#215=VERTEX_POINT('',#508);
#216=VERTEX_POINT('',#515);
#217=VERTEX_POINT('',#517);
#218=VERTEX_POINT('',#545);
#219=VERTEX_POINT('',#546);
#220=VERTEX_POINT('',#551);
#221=VERTEX_POINT('',#584);
#222=VERTEX_POINT('',#593);
#223=VERTEX_POINT('',#596);
#224=CIRCLE('',#334,21.75);
#225=CIRCLE('',#335,21.75);
#226=CIRCLE('',#337,21.75);
#227=CIRCLE('',#338,21.75);
#228=CIRCLE('',#340,21.75);
#229=CIRCLE('',#341,21.75);
#230=CIRCLE('',#343,21.75);
#231=CIRCLE('',#344,21.75);
#232=CIRCLE('',#346,21.75);
#233=CIRCLE('',#347,21.75);
#234=CIRCLE('',#349,19.5);
#235=CIRCLE('',#350,17.988);
#236=CIRCLE('',#352,21.75);
#237=CIRCLE('',#354,21.75);
#238=CIRCLE('',#356,19.5);
#239=CIRCLE('',#358,17.988);
#240=CIRCLE('',#366,17.188);
#241=CIRCLE('',#368,17.188);
#242=EDGE_LOOP('',(#68,#69,#70,#71));
#243=EDGE_LOOP('',(#72,#73,#74,#75));
#244=EDGE_LOOP('',(#76,#77,#78,#79));
#245=EDGE_LOOP('',(#80,#81,#82,#83));
#246=EDGE_LOOP('',(#84,#85,#86,#87));
#247=EDGE_LOOP('',(#88));
#248=EDGE_LOOP('',(#89));
#249=EDGE_LOOP('',(#90,#91,#92,#93,#94,#95,#96,#97,#98,#99,#100,#101));
#250=EDGE_LOOP('',(#102));
#251=EDGE_LOOP('',(#103,#104,#105,#106));
#252=EDGE_LOOP('',(#107));
#253=EDGE_LOOP('',(#108,#109,#110,#111,#112,#113,#114,#115,#116,#117,#118,
#119));
#254=EDGE_LOOP('',(#120));
#255=EDGE_LOOP('',(#121));
#256=EDGE_LOOP('',(#122,#123,#124,#125));
#257=EDGE_LOOP('',(#126,#127,#128,#129));
#258=EDGE_LOOP('',(#130,#131,#132,#133));
#259=EDGE_LOOP('',(#134,#135,#136,#137));
#260=EDGE_LOOP('',(#138,#139,#140,#141));
#261=EDGE_LOOP('',(#142,#143,#144,#145));
#262=EDGE_LOOP('',(#146));
#263=EDGE_LOOP('',(#147));
#264=EDGE_LOOP('',(#148));
#265=EDGE_LOOP('',(#149));
#266=EDGE_LOOP('',(#150));
#267=EDGE_LOOP('',(#151));
#268=FACE_BOUND('',#242,.T.);
#269=FACE_BOUND('',#243,.T.);
#270=FACE_BOUND('',#244,.T.);
#271=FACE_BOUND('',#245,.T.);
#272=FACE_BOUND('',#246,.T.);
#273=FACE_BOUND('',#247,.T.);
#274=FACE_BOUND('',#248,.T.);
#275=FACE_BOUND('',#249,.T.);
#276=FACE_BOUND('',#250,.T.);
#277=FACE_BOUND('',#251,.T.);
#278=FACE_BOUND('',#252,.T.);
#279=FACE_BOUND('',#253,.T.);
#280=FACE_BOUND('',#254,.T.);
#281=FACE_BOUND('',#255,.T.);
#282=FACE_BOUND('',#256,.T.);
#283=FACE_BOUND('',#257,.T.);
#284=FACE_BOUND('',#258,.T.);
#285=FACE_BOUND('',#259,.T.);
#286=FACE_BOUND('',#260,.T.);
#287=FACE_BOUND('',#261,.T.);
#288=FACE_BOUND('',#262,.T.);
#289=FACE_BOUND('',#263,.T.);
#290=FACE_BOUND('',#264,.T.);
#291=FACE_BOUND('',#265,.T.);
#292=FACE_BOUND('',#266,.T.);
#293=FACE_BOUND('',#267,.T.);
#294=CYLINDRICAL_SURFACE('',#333,21.75);
#295=CYLINDRICAL_SURFACE('',#336,21.75);
#296=CYLINDRICAL_SURFACE('',#339,21.75);
#297=CYLINDRICAL_SURFACE('',#342,21.75);
#298=CYLINDRICAL_SURFACE('',#345,21.75);
#299=CYLINDRICAL_SURFACE('',#353,21.75);
#300=CYLINDRICAL_SURFACE('',#367,17.188);
#301=ADVANCED_FACE('',(#268),#294,.T.);
#302=ADVANCED_FACE('',(#269),#295,.T.);
#303=ADVANCED_FACE('',(#270),#296,.T.);
#304=ADVANCED_FACE('',(#271),#297,.T.);
#305=ADVANCED_FACE('',(#272),#298,.T.);
#306=ADVANCED_FACE('',(#273,#274),#36,.F.);
#307=ADVANCED_FACE('',(#275,#276),#32,.T.);
#308=ADVANCED_FACE('',(#277),#299,.T.);
#309=ADVANCED_FACE('',(#278,#279),#33,.T.);
#310=ADVANCED_FACE('',(#280,#281),#37,.F.);
#311=ADVANCED_FACE('',(#282),#38,.F.);
#312=ADVANCED_FACE('',(#283),#39,.F.);
#313=ADVANCED_FACE('',(#284),#40,.F.);
#314=ADVANCED_FACE('',(#285),#41,.F.);
#315=ADVANCED_FACE('',(#286),#42,.F.);
#316=ADVANCED_FACE('',(#287),#43,.F.);
#317=ADVANCED_FACE('',(#288,#289),#34,.F.);
#318=ADVANCED_FACE('',(#290,#291),#300,.F.);
#319=ADVANCED_FACE('',(#292,#293),#35,.F.);
#320=CLOSED_SHELL('',(#301,#302,#303,#304,#305,#306,#307,#308,#309,#310,
#311,#312,#313,#314,#315,#316,#317,#318,#319));
#321=STYLED_ITEM('',(#322),#329);
#322=PRESENTATION_STYLE_ASSIGNMENT((#323));
#323=SURFACE_STYLE_USAGE(.BOTH.,#324);
#324=SURFACE_SIDE_STYLE('',(#325));
#325=SURFACE_STYLE_FILL_AREA(#326);
#326=FILL_AREA_STYLE('',(#327));
#327=FILL_AREA_STYLE_COLOUR('',#328);
#328=COLOUR_RGB('',0.119999997317791,0.119999997317791,0.119999997317791);
#329=MANIFOLD_SOLID_BREP('530025 HMR-D-MINI/MAXI',#320);
#330=SHAPE_DEFINITION_REPRESENTATION(#604,#331);
#331=SHAPE_REPRESENTATION('530025 HMR-D-MINI/MAXI',(#332),#599);
#332=AXIS2_PLACEMENT_3D('',#458,#370,#371);
#333=AXIS2_PLACEMENT_3D('',#459,#372,#373);
#334=AXIS2_PLACEMENT_3D('',#460,#374,#375);
#335=AXIS2_PLACEMENT_3D('',#465,#377,#378);
#336=AXIS2_PLACEMENT_3D('',#468,#380,#381);
#337=AXIS2_PLACEMENT_3D('',#469,#382,#383);
#338=AXIS2_PLACEMENT_3D('',#474,#385,#386);
#339=AXIS2_PLACEMENT_3D('',#477,#388,#389);
#340=AXIS2_PLACEMENT_3D('',#478,#390,#391);
#341=AXIS2_PLACEMENT_3D('',#483,#393,#394);
#342=AXIS2_PLACEMENT_3D('',#486,#396,#397);
#343=AXIS2_PLACEMENT_3D('',#487,#398,#399);
#344=AXIS2_PLACEMENT_3D('',#492,#401,#402);
#345=AXIS2_PLACEMENT_3D('',#495,#404,#405);
#346=AXIS2_PLACEMENT_3D('',#496,#406,#407);
#347=AXIS2_PLACEMENT_3D('',#501,#409,#410);
#348=AXIS2_PLACEMENT_3D('',#504,#412,#413);
#349=AXIS2_PLACEMENT_3D('',#505,#414,#415);
#350=AXIS2_PLACEMENT_3D('',#507,#416,#417);
#351=AXIS2_PLACEMENT_3D('',#509,#418,#419);
#352=AXIS2_PLACEMENT_3D('',#516,#420,#421);
#353=AXIS2_PLACEMENT_3D('',#543,#422,#423);
#354=AXIS2_PLACEMENT_3D('',#544,#424,#425);
#355=AXIS2_PLACEMENT_3D('',#549,#428,#429);
#356=AXIS2_PLACEMENT_3D('',#550,#430,#431);
#357=AXIS2_PLACEMENT_3D('',#582,#432,#433);
#358=AXIS2_PLACEMENT_3D('',#583,#434,#435);
#359=AXIS2_PLACEMENT_3D('',#585,#436,#437);
#360=AXIS2_PLACEMENT_3D('',#586,#438,#439);
#361=AXIS2_PLACEMENT_3D('',#587,#440,#441);
#362=AXIS2_PLACEMENT_3D('',#588,#442,#443);
#363=AXIS2_PLACEMENT_3D('',#589,#444,#445);
#364=AXIS2_PLACEMENT_3D('',#590,#446,#447);
#365=AXIS2_PLACEMENT_3D('',#591,#448,#449);
#366=AXIS2_PLACEMENT_3D('',#592,#450,#451);
#367=AXIS2_PLACEMENT_3D('',#594,#452,#453);
#368=AXIS2_PLACEMENT_3D('',#595,#454,#455);
#369=AXIS2_PLACEMENT_3D('',#597,#456,#457);
#370=DIRECTION('',(0.,0.,1.));
#371=DIRECTION('',(1.,0.,0.));
#372=DIRECTION('',(0.,-1.,0.));
#373=DIRECTION('',(0.,0.,-1.));
#374=DIRECTION('',(0.,-1.,0.));
#375=DIRECTION('',(0.,0.,-1.));
#376=DIRECTION('',(0.,-1.,0.));
#377=DIRECTION('',(0.,-1.,0.));
#378=DIRECTION('',(0.,0.,-1.));
#379=DIRECTION('',(0.,-1.,0.));
#380=DIRECTION('',(0.,-1.,0.));
#381=DIRECTION('',(0.,0.,-1.));
#382=DIRECTION('',(0.,-1.,0.));
#383=DIRECTION('',(0.,0.,-1.));
#384=DIRECTION('',(0.,-1.,0.));
#385=DIRECTION('',(0.,-1.,0.));
#386=DIRECTION('',(0.,0.,-1.));
#387=DIRECTION('',(0.,-1.,0.));
#388=DIRECTION('',(0.,-1.,0.));
#389=DIRECTION('',(0.,0.,-1.));
#390=DIRECTION('',(0.,-1.,0.));
#391=DIRECTION('',(0.,0.,-1.));
#392=DIRECTION('',(0.,-1.,0.));
#393=DIRECTION('',(0.,-1.,0.));
#394=DIRECTION('',(0.,0.,-1.));
#395=DIRECTION('',(0.,-1.,0.));
#396=DIRECTION('',(0.,-1.,0.));
#397=DIRECTION('',(0.,0.,-1.));
#398=DIRECTION('',(0.,-1.,0.));
#399=DIRECTION('',(0.,0.,-1.));
#400=DIRECTION('',(0.,-1.,0.));
#401=DIRECTION('',(0.,-1.,0.));
#402=DIRECTION('',(0.,0.,-1.));
#403=DIRECTION('',(0.,-1.,0.));
#404=DIRECTION('',(0.,-1.,0.));
#405=DIRECTION('',(0.,0.,-1.));
#406=DIRECTION('',(0.,-1.,0.));
#407=DIRECTION('',(0.,0.,-1.));
#408=DIRECTION('',(0.,-1.,0.));
#409=DIRECTION('',(0.,-1.,0.));
#410=DIRECTION('',(0.,0.,-1.));
#411=DIRECTION('',(0.,-1.,0.));
#412=DIRECTION('',(0.,-1.,0.));
#413=DIRECTION('',(0.,0.,-1.));
#414=DIRECTION('',(0.,-1.,0.));
#415=DIRECTION('',(0.,0.,-1.));
#416=DIRECTION('',(0.,-1.,0.));
#417=DIRECTION('',(0.,0.,-1.));
#418=DIRECTION('',(0.,-1.,0.));
#419=DIRECTION('',(0.,0.,-1.));
#420=DIRECTION('',(0.,-1.,0.));
#421=DIRECTION('',(0.,0.,-1.));
#422=DIRECTION('',(0.,-1.,0.));
#423=DIRECTION('',(0.,0.,-1.));
#424=DIRECTION('',(0.,-1.,0.));
#425=DIRECTION('',(0.,0.,-1.));
#426=DIRECTION('',(0.,-1.,0.));
#427=DIRECTION('',(0.,-1.,0.));
#428=DIRECTION('',(0.,1.,0.));
#429=DIRECTION('',(0.,0.,1.));
#430=DIRECTION('',(0.,-1.,0.));
#431=DIRECTION('',(0.,0.,-1.));
#432=DIRECTION('',(0.,1.,0.));
#433=DIRECTION('',(0.,0.,1.));
#434=DIRECTION('',(0.,-1.,0.));
#435=DIRECTION('',(0.,0.,-1.));
#436=DIRECTION('',(0.5,0.,-0.866025403784439));
#437=DIRECTION('',(-0.866025403784439,0.,-0.5));
#438=DIRECTION('',(-0.5,0.,-0.866025403784439));
#439=DIRECTION('',(-0.866025403784439,0.,0.5));
#440=DIRECTION('',(-1.,0.,0.));
#441=DIRECTION('',(0.,0.,1.));
#442=DIRECTION('',(-0.5,0.,0.866025403784439));
#443=DIRECTION('',(0.866025403784439,0.,0.5));
#444=DIRECTION('',(0.5,0.,0.866025403784439));
#445=DIRECTION('',(0.866025403784439,0.,-0.5));
#446=DIRECTION('',(1.,0.,0.));
#447=DIRECTION('',(0.,0.,-1.));
#448=DIRECTION('',(0.,1.,0.));
#449=DIRECTION('',(0.,0.,1.));
#450=DIRECTION('',(0.,-1.,0.));
#451=DIRECTION('',(0.,0.,-1.));
#452=DIRECTION('',(0.,-1.,0.));
#453=DIRECTION('',(0.,0.,-1.));
#454=DIRECTION('',(0.,-1.,0.));
#455=DIRECTION('',(0.,0.,-1.));
#456=DIRECTION('',(0.,-1.,0.));
#457=DIRECTION('',(0.,0.,-1.));
#458=CARTESIAN_POINT('',(0.,0.,0.));
#459=CARTESIAN_POINT('',(0.,0.,0.));
#460=CARTESIAN_POINT('',(0.,6.39711431702997,0.));
#461=CARTESIAN_POINT('',(-17.4024911347465,6.39711431702997,13.0466778263691));
#462=CARTESIAN_POINT('',(-20.,6.39711431702997,8.54766049863938));
#463=CARTESIAN_POINT('',(-20.,0.,8.54766049863938));
#464=CARTESIAN_POINT('',(-20.,0.602885682970026,8.54766049863938));
#465=CARTESIAN_POINT('',(0.,0.602885682970026,0.));
#466=CARTESIAN_POINT('',(-17.4024911347465,0.602885682970026,13.0466778263691));
#467=CARTESIAN_POINT('',(-17.4024911347465,0.,13.0466778263691));
#468=CARTESIAN_POINT('',(0.,0.,0.));
#469=CARTESIAN_POINT('',(0.,0.602885682970026,0.));
#470=CARTESIAN_POINT('',(-20.,0.602885682970026,-8.54766049863938));
#471=CARTESIAN_POINT('',(-17.4024911347465,0.602885682970026,-13.0466778263691));
#472=CARTESIAN_POINT('',(-20.,0.,-8.54766049863938));
#473=CARTESIAN_POINT('',(-20.,6.39711431702997,-8.54766049863938));
#474=CARTESIAN_POINT('',(0.,6.39711431702997,0.));
#475=CARTESIAN_POINT('',(-17.4024911347465,6.39711431702997,-13.0466778263691));
#476=CARTESIAN_POINT('',(-17.4024911347465,0.,-13.0466778263691));
#477=CARTESIAN_POINT('',(0.,0.,0.));
#478=CARTESIAN_POINT('',(0.,0.602885682970026,0.));
#479=CARTESIAN_POINT('',(-2.59750886525353,0.602885682970026,-21.5943383250085));
#480=CARTESIAN_POINT('',(2.59750886525353,0.602885682970026,-21.5943383250085));
#481=CARTESIAN_POINT('',(-2.59750886525353,0.,-21.5943383250085));
#482=CARTESIAN_POINT('',(-2.59750886525353,6.39711431702997,-21.5943383250085));
#483=CARTESIAN_POINT('',(0.,6.39711431702997,0.));
#484=CARTESIAN_POINT('',(2.59750886525353,6.39711431702997,-21.5943383250085));
#485=CARTESIAN_POINT('',(2.59750886525353,0.,-21.5943383250085));
#486=CARTESIAN_POINT('',(0.,0.,0.));
#487=CARTESIAN_POINT('',(0.,0.602885682970026,0.));
#488=CARTESIAN_POINT('',(20.,0.602885682970026,8.54766049863938));
#489=CARTESIAN_POINT('',(17.4024911347465,0.602885682970026,13.0466778263691));
#490=CARTESIAN_POINT('',(20.,0.,8.54766049863938));
#491=CARTESIAN_POINT('',(20.,6.39711431702997,8.54766049863938));
#492=CARTESIAN_POINT('',(0.,6.39711431702997,0.));
#493=CARTESIAN_POINT('',(17.4024911347465,6.39711431702997,13.0466778263691));
#494=CARTESIAN_POINT('',(17.4024911347465,0.,13.0466778263691));
#495=CARTESIAN_POINT('',(0.,0.,0.));
#496=CARTESIAN_POINT('',(0.,0.602885682970026,0.));
#497=CARTESIAN_POINT('',(2.59750886525353,0.602885682970026,21.5943383250085));
#498=CARTESIAN_POINT('',(-2.59750886525353,0.602885682970026,21.5943383250085));
#499=CARTESIAN_POINT('',(2.59750886525353,0.,21.5943383250085));
#500=CARTESIAN_POINT('',(2.59750886525353,6.39711431702997,21.5943383250085));
#501=CARTESIAN_POINT('',(0.,6.39711431702997,0.));
#502=CARTESIAN_POINT('',(-2.59750886525353,6.39711431702997,21.5943383250085));
#503=CARTESIAN_POINT('',(-2.59750886525353,0.,21.5943383250085));
#504=CARTESIAN_POINT('',(0.,7.,0.));
#505=CARTESIAN_POINT('',(0.,7.,0.));
#506=CARTESIAN_POINT('',(0.,7.,-19.5));
#507=CARTESIAN_POINT('',(0.,7.,0.));
#508=CARTESIAN_POINT('',(0.,7.,-17.988));
#509=CARTESIAN_POINT('',(0.,7.,0.));
#510=CARTESIAN_POINT('',(20.,6.39711431702997,8.54766049863938));
#511=CARTESIAN_POINT('',(20.,6.69340650744475,5.73394780918431));
#512=CARTESIAN_POINT('',(20.,7.03594348174032,0.0816188670733236));
#513=CARTESIAN_POINT('',(20.,6.6987315889351,-5.68337864183363));
#514=CARTESIAN_POINT('',(20.,6.39711431702997,-8.5476604986394));
#515=CARTESIAN_POINT('',(20.,6.39711431702997,-8.54766049863938));
#516=CARTESIAN_POINT('',(0.,6.39711431702997,0.));
#517=CARTESIAN_POINT('',(17.4024911347465,6.39711431702997,-13.0466778263691));
#518=CARTESIAN_POINT('',(17.4024911347465,6.39711431702997,-13.0466778263691));
#519=CARTESIAN_POINT('',(14.934994089831,6.69714554878475,-14.4712879094756));
#520=CARTESIAN_POINT('',(10.,7.03490525878413,-17.3205080756888));
#521=CARTESIAN_POINT('',(5.06500591016902,6.69714554878475,-20.1697282419019));
#522=CARTESIAN_POINT('',(2.59750886525353,6.39711431702998,-21.5943383250085));
#523=CARTESIAN_POINT('',(-2.59750886525353,6.39711431702997,-21.5943383250085));
#524=CARTESIAN_POINT('',(-5.06500591016902,6.69714554878475,-20.1697282419019));
#525=CARTESIAN_POINT('',(-9.99999999999999,7.03490525878413,-17.3205080756888));
#526=CARTESIAN_POINT('',(-14.934994089831,6.69714554878475,-14.4712879094757));
#527=CARTESIAN_POINT('',(-17.4024911347465,6.39711431702997,-13.0466778263691));
#528=CARTESIAN_POINT('',(-20.,6.39711431702997,-8.54766049863938));
#529=CARTESIAN_POINT('',(-20.,6.69340650744475,-5.73394780918431));
#530=CARTESIAN_POINT('',(-20.,7.03594348174032,-0.0816188670733236));
#531=CARTESIAN_POINT('',(-20.,6.6987315889351,5.68337864183363));
#532=CARTESIAN_POINT('',(-20.,6.39711431702997,8.5476604986394));
#533=CARTESIAN_POINT('',(-17.4024911347465,6.39711431702997,13.0466778263691));
#534=CARTESIAN_POINT('',(-14.934994089831,6.69714554878475,14.4712879094756));
#535=CARTESIAN_POINT('',(-10.,7.03490525878413,17.3205080756888));
#536=CARTESIAN_POINT('',(-5.06500591016902,6.69714554878475,20.1697282419019));
#537=CARTESIAN_POINT('',(-2.59750886525353,6.39711431702998,21.5943383250085));
#538=CARTESIAN_POINT('',(2.59750886525353,6.39711431702997,21.5943383250085));
#539=CARTESIAN_POINT('',(5.06500591016902,6.69714554878475,20.1697282419019));
#540=CARTESIAN_POINT('',(9.99999999999999,7.03490525878413,17.3205080756888));
#541=CARTESIAN_POINT('',(14.934994089831,6.69714554878475,14.4712879094757));
#542=CARTESIAN_POINT('',(17.4024911347465,6.39711431702997,13.0466778263691));
#543=CARTESIAN_POINT('',(0.,0.,0.));
#544=CARTESIAN_POINT('',(0.,0.602885682970026,0.));
#545=CARTESIAN_POINT('',(17.4024911347465,0.602885682970026,-13.0466778263691));
#546=CARTESIAN_POINT('',(20.,0.602885682970026,-8.54766049863938));
#547=CARTESIAN_POINT('',(17.4024911347465,0.,-13.0466778263691));
#548=CARTESIAN_POINT('',(20.,0.,-8.54766049863938));
#549=CARTESIAN_POINT('',(0.,0.602885682970026,0.));
#550=CARTESIAN_POINT('',(0.,0.,0.));
#551=CARTESIAN_POINT('',(0.,0.,-19.5));
#552=CARTESIAN_POINT('',(-20.,0.602885682970027,8.54766049863938));
#553=CARTESIAN_POINT('',(-20.,0.306593492555251,5.73394780918431));
#554=CARTESIAN_POINT('',(-20.,-0.0359434817403168,0.0816188670733236));
#555=CARTESIAN_POINT('',(-20.,0.301268411064898,-5.68337864183363));
#556=CARTESIAN_POINT('',(-20.,0.602885682970027,-8.5476604986394));
#557=CARTESIAN_POINT('',(-17.4024911347465,0.602885682970026,-13.0466778263691));
#558=CARTESIAN_POINT('',(-14.934994089831,0.302854451215254,-14.4712879094756));
#559=CARTESIAN_POINT('',(-10.,-0.0349052587841305,-17.3205080756888));
#560=CARTESIAN_POINT('',(-5.06500591016902,0.302854451215253,-20.1697282419019));
#561=CARTESIAN_POINT('',(-2.59750886525353,0.602885682970025,-21.5943383250085));
#562=CARTESIAN_POINT('',(2.59750886525353,0.602885682970026,-21.5943383250085));
#563=CARTESIAN_POINT('',(5.06500591016902,0.302854451215253,-20.1697282419019));
#564=CARTESIAN_POINT('',(9.99999999999999,-0.0349052587841299,-17.3205080756888));
#565=CARTESIAN_POINT('',(14.934994089831,0.302854451215253,-14.4712879094756));
#566=CARTESIAN_POINT('',(17.4024911347465,0.602885682970025,-13.0466778263691));
#567=CARTESIAN_POINT('',(20.,0.602885682970027,-8.54766049863938));
#568=CARTESIAN_POINT('',(20.,0.306593492555251,-5.73394780918431));
#569=CARTESIAN_POINT('',(20.,-0.0359434817403168,-0.0816188670733236));
#570=CARTESIAN_POINT('',(20.,0.301268411064898,5.68337864183363));
#571=CARTESIAN_POINT('',(20.,0.602885682970027,8.5476604986394));
#572=CARTESIAN_POINT('',(17.4024911347465,0.602885682970026,13.0466778263691));
#573=CARTESIAN_POINT('',(14.934994089831,0.302854451215254,14.4712879094756));
#574=CARTESIAN_POINT('',(10.,-0.0349052587841305,17.3205080756888));
#575=CARTESIAN_POINT('',(5.06500591016902,0.302854451215253,20.1697282419019));
#576=CARTESIAN_POINT('',(2.59750886525353,0.602885682970025,21.5943383250085));
#577=CARTESIAN_POINT('',(-2.59750886525353,0.602885682970026,21.5943383250085));
#578=CARTESIAN_POINT('',(-5.06500591016902,0.302854451215253,20.1697282419019));
#579=CARTESIAN_POINT('',(-9.99999999999999,-0.0349052587841299,17.3205080756888));
#580=CARTESIAN_POINT('',(-14.934994089831,0.302854451215253,14.4712879094756));
#581=CARTESIAN_POINT('',(-17.4024911347465,0.602885682970025,13.0466778263691));
#582=CARTESIAN_POINT('',(19.5,0.,0.));
#583=CARTESIAN_POINT('',(0.,0.,0.));
#584=CARTESIAN_POINT('',(0.,0.,-17.988));
#585=CARTESIAN_POINT('',(-20.,10.,11.5470053837925));
#586=CARTESIAN_POINT('',(0.,10.,23.094010767585));
#587=CARTESIAN_POINT('',(20.,10.,11.5470053837925));
#588=CARTESIAN_POINT('',(20.,10.,-11.5470053837925));
#589=CARTESIAN_POINT('',(0.,10.,-23.094010767585));
#590=CARTESIAN_POINT('',(-20.,10.,-11.5470053837925));
#591=CARTESIAN_POINT('',(0.,7.,0.));
#592=CARTESIAN_POINT('',(0.,6.2,0.));
#593=CARTESIAN_POINT('',(0.,6.2,-17.188));
#594=CARTESIAN_POINT('',(0.,0.,0.));
#595=CARTESIAN_POINT('',(0.,0.8,0.));
#596=CARTESIAN_POINT('',(0.,0.8,-17.188));
#597=CARTESIAN_POINT('',(0.,0.8,0.));
#598=MECHANICAL_DESIGN_GEOMETRIC_PRESENTATION_REPRESENTATION('',(#321),
#599);
#599=(
GEOMETRIC_REPRESENTATION_CONTEXT(3)
GLOBAL_UNCERTAINTY_ASSIGNED_CONTEXT((#600))
GLOBAL_UNIT_ASSIGNED_CONTEXT((#603,#602,#601))
REPRESENTATION_CONTEXT('530025 HMR-D-MINI/MAXI',
'TOP_LEVEL_ASSEMBLY_PART')
);
#600=UNCERTAINTY_MEASURE_WITH_UNIT(LENGTH_MEASURE(0.005),#603,
'DISTANCE_ACCURACY_VALUE','Maximum Tolerance applied to model');
#601=(
NAMED_UNIT(*)
SI_UNIT($,.STERADIAN.)
SOLID_ANGLE_UNIT()
);
#602=(
NAMED_UNIT(*)
PLANE_ANGLE_UNIT()
SI_UNIT($,.RADIAN.)
);
#603=(
LENGTH_UNIT()
NAMED_UNIT(*)
SI_UNIT(.MILLI.,.METRE.)
);
#604=PRODUCT_DEFINITION_SHAPE('','',#605);
#605=PRODUCT_DEFINITION('','',#607,#606);
#606=PRODUCT_DEFINITION_CONTEXT('',#613,'design');
#607=PRODUCT_DEFINITION_FORMATION_WITH_SPECIFIED_SOURCE('','',#609,
 .NOT_KNOWN.);
#608=PRODUCT_RELATED_PRODUCT_CATEGORY('','',(#609));
#609=PRODUCT('530025 HMR-D-MINI/MAXI','530025 HMR-D-MINI/MAXI',
'530025 HMR-D-MINI/MAXI',(#611));
#610=PRODUCT_CATEGORY('','');
#611=PRODUCT_CONTEXT('',#613,'mechanical');
#612=APPLICATION_PROTOCOL_DEFINITION('international standard',
'automotive_design',2010,#613);
#613=APPLICATION_CONTEXT(
'core data for automotive mechanical design processes');
ENDSEC;
END-ISO-10303-21;
