ISO-10303-21;
HEADER;
/* Generated by software containing ST-Developer
 * from STEP Tools, Inc. (www.steptools.com) 
 */
/* OPTION: using custom renumber hook */

FILE_DESCRIPTION(
/* description */ ('STEP AP214'),
/* implementation_level */ '2;1');

FILE_NAME(
/* name */ '532911_MS6-LFX',
/* time_stamp */ '2024-09-10T18:49:24+02:00',
/* author */ ('License CC BY-ND 4.0'),
/* organization */ ('CADENAS'),
/* preprocessor_version */ 'ST-DEVELOPER v19.3',
/* originating_system */ 'PARTsolutions',
/* authorisation */ '  ');

FILE_SCHEMA (('AUTOMOTIVE_DESIGN {1 0 10303 214 3 1 1}'));
ENDSEC;

DATA;
#10=PROPERTY_DEFINITION_REPRESENTATION(#14,#12);
#11=PROPERTY_DEFINITION_REPRESENTATION(#15,#13);
#12=REPRESENTATION('',(#16),#747);
#13=REPRESENTATION('',(#17),#747);
#14=PROPERTY_DEFINITION('pmi validation property','',#752);
#15=PROPERTY_DEFINITION('pmi validation property','',#752);
#16=VALUE_REPRESENTATION_ITEM('number of annotations',COUNT_MEASURE(0.));
#17=VALUE_REPRESENTATION_ITEM('number of views',COUNT_MEASURE(0.));
#18=SHAPE_REPRESENTATION_RELATIONSHIP('','',#503,#19);
#19=ADVANCED_BREP_SHAPE_REPRESENTATION('',(#501),#747);
#20=TOROIDAL_SURFACE('',#529,12.08,0.999999999999997);
#21=TOROIDAL_SURFACE('',#543,15.,0.500000000000007);
#22=TOROIDAL_SURFACE('',#555,15.,0.500000000000006);
#23=CONICAL_SURFACE('',#513,7.,0.261799387799149);
#24=CONICAL_SURFACE('',#517,10.58,0.785398163397447);
#25=CONICAL_SURFACE('',#521,11.08,1.04719755119658);
#26=CONICAL_SURFACE('',#525,12.,1.0471975511966);
#27=CONICAL_SURFACE('',#535,12.8,0.78539816339746);
#28=CONICAL_SURFACE('',#539,14.7,0.785398163397457);
#29=CYLINDRICAL_SURFACE('',#507,9.25);
#30=CYLINDRICAL_SURFACE('',#511,7.);
#31=CYLINDRICAL_SURFACE('',#519,11.08);
#32=CYLINDRICAL_SURFACE('',#523,12.);
#33=CYLINDRICAL_SURFACE('',#527,11.08);
#34=CYLINDRICAL_SURFACE('',#533,12.8);
#35=CYLINDRICAL_SURFACE('',#541,15.);
#36=CYLINDRICAL_SURFACE('',#545,15.5);
#37=CYLINDRICAL_SURFACE('',#549,12.75);
#38=CYLINDRICAL_SURFACE('',#553,15.5);
#39=ORIENTED_EDGE('',*,*,#91,.F.);
#40=ORIENTED_EDGE('',*,*,#92,.F.);
#41=ORIENTED_EDGE('',*,*,#91,.T.);
#42=ORIENTED_EDGE('',*,*,#93,.F.);
#43=ORIENTED_EDGE('',*,*,#92,.T.);
#44=ORIENTED_EDGE('',*,*,#94,.F.);
#45=ORIENTED_EDGE('',*,*,#93,.T.);
#46=ORIENTED_EDGE('',*,*,#95,.F.);
#47=ORIENTED_EDGE('',*,*,#94,.T.);
#48=ORIENTED_EDGE('',*,*,#96,.F.);
#49=ORIENTED_EDGE('',*,*,#95,.T.);
#50=ORIENTED_EDGE('',*,*,#97,.F.);
#51=ORIENTED_EDGE('',*,*,#96,.T.);
#52=ORIENTED_EDGE('',*,*,#98,.F.);
#53=ORIENTED_EDGE('',*,*,#97,.T.);
#54=ORIENTED_EDGE('',*,*,#99,.F.);
#55=ORIENTED_EDGE('',*,*,#98,.T.);
#56=ORIENTED_EDGE('',*,*,#100,.F.);
#57=ORIENTED_EDGE('',*,*,#99,.T.);
#58=ORIENTED_EDGE('',*,*,#101,.F.);
#59=ORIENTED_EDGE('',*,*,#100,.T.);
#60=ORIENTED_EDGE('',*,*,#102,.F.);
#61=ORIENTED_EDGE('',*,*,#101,.T.);
#62=ORIENTED_EDGE('',*,*,#103,.F.);
#63=ORIENTED_EDGE('',*,*,#102,.T.);
#64=ORIENTED_EDGE('',*,*,#104,.F.);
#65=ORIENTED_EDGE('',*,*,#103,.T.);
#66=ORIENTED_EDGE('',*,*,#105,.F.);
#67=ORIENTED_EDGE('',*,*,#104,.T.);
#68=ORIENTED_EDGE('',*,*,#106,.F.);
#69=ORIENTED_EDGE('',*,*,#105,.T.);
#70=ORIENTED_EDGE('',*,*,#107,.F.);
#71=ORIENTED_EDGE('',*,*,#106,.T.);
#72=ORIENTED_EDGE('',*,*,#108,.F.);
#73=ORIENTED_EDGE('',*,*,#107,.T.);
#74=ORIENTED_EDGE('',*,*,#109,.F.);
#75=ORIENTED_EDGE('',*,*,#108,.T.);
#76=ORIENTED_EDGE('',*,*,#109,.T.);
#77=ORIENTED_EDGE('',*,*,#110,.F.);
#78=ORIENTED_EDGE('',*,*,#111,.F.);
#79=ORIENTED_EDGE('',*,*,#110,.T.);
#80=ORIENTED_EDGE('',*,*,#112,.F.);
#81=ORIENTED_EDGE('',*,*,#111,.T.);
#82=ORIENTED_EDGE('',*,*,#113,.F.);
#83=ORIENTED_EDGE('',*,*,#112,.T.);
#84=ORIENTED_EDGE('',*,*,#114,.F.);
#85=ORIENTED_EDGE('',*,*,#113,.T.);
#86=ORIENTED_EDGE('',*,*,#115,.F.);
#87=ORIENTED_EDGE('',*,*,#114,.T.);
#88=ORIENTED_EDGE('',*,*,#115,.T.);
#89=ORIENTED_EDGE('',*,*,#116,.F.);
#90=ORIENTED_EDGE('',*,*,#116,.T.);
#91=EDGE_CURVE('',#117,#117,#143,.T.);
#92=EDGE_CURVE('',#118,#118,#144,.T.);
#93=EDGE_CURVE('',#119,#119,#145,.T.);
#94=EDGE_CURVE('',#120,#120,#146,.T.);
#95=EDGE_CURVE('',#121,#121,#147,.T.);
#96=EDGE_CURVE('',#122,#122,#148,.T.);
#97=EDGE_CURVE('',#123,#123,#149,.T.);
#98=EDGE_CURVE('',#124,#124,#150,.T.);
#99=EDGE_CURVE('',#125,#125,#151,.T.);
#100=EDGE_CURVE('',#126,#126,#152,.T.);
#101=EDGE_CURVE('',#127,#127,#153,.T.);
#102=EDGE_CURVE('',#128,#128,#154,.T.);
#103=EDGE_CURVE('',#129,#129,#155,.T.);
#104=EDGE_CURVE('',#130,#130,#156,.T.);
#105=EDGE_CURVE('',#131,#131,#157,.T.);
#106=EDGE_CURVE('',#132,#132,#158,.T.);
#107=EDGE_CURVE('',#133,#133,#159,.T.);
#108=EDGE_CURVE('',#134,#134,#160,.T.);
#109=EDGE_CURVE('',#135,#135,#161,.T.);
#110=EDGE_CURVE('',#136,#136,#162,.T.);
#111=EDGE_CURVE('',#137,#137,#163,.T.);
#112=EDGE_CURVE('',#138,#138,#164,.T.);
#113=EDGE_CURVE('',#139,#139,#165,.T.);
#114=EDGE_CURVE('',#140,#140,#166,.T.);
#115=EDGE_CURVE('',#141,#141,#167,.T.);
#116=EDGE_CURVE('',#142,#142,#168,.T.);
#117=VERTEX_POINT('',#669);
#118=VERTEX_POINT('',#672);
#119=VERTEX_POINT('',#675);
#120=VERTEX_POINT('',#678);
#121=VERTEX_POINT('',#681);
#122=VERTEX_POINT('',#684);
#123=VERTEX_POINT('',#687);
#124=VERTEX_POINT('',#690);
#125=VERTEX_POINT('',#693);
#126=VERTEX_POINT('',#696);
#127=VERTEX_POINT('',#699);
#128=VERTEX_POINT('',#702);
#129=VERTEX_POINT('',#705);
#130=VERTEX_POINT('',#708);
#131=VERTEX_POINT('',#711);
#132=VERTEX_POINT('',#714);
#133=VERTEX_POINT('',#717);
#134=VERTEX_POINT('',#720);
#135=VERTEX_POINT('',#723);
#136=VERTEX_POINT('',#726);
#137=VERTEX_POINT('',#729);
#138=VERTEX_POINT('',#732);
#139=VERTEX_POINT('',#735);
#140=VERTEX_POINT('',#738);
#141=VERTEX_POINT('',#741);
#142=VERTEX_POINT('',#744);
#143=CIRCLE('',#506,9.25);
#144=CIRCLE('',#508,9.25);
#145=CIRCLE('',#510,7.);
#146=CIRCLE('',#512,7.);
#147=CIRCLE('',#514,9.5);
#148=CIRCLE('',#516,10.58);
#149=CIRCLE('',#518,11.08);
#150=CIRCLE('',#520,11.08);
#151=CIRCLE('',#522,12.);
#152=CIRCLE('',#524,12.);
#153=CIRCLE('',#526,11.08);
#154=CIRCLE('',#528,11.08);
#155=CIRCLE('',#530,12.08);
#156=CIRCLE('',#532,12.8);
#157=CIRCLE('',#534,12.8);
#158=CIRCLE('',#536,13.1);
#159=CIRCLE('',#538,14.7);
#160=CIRCLE('',#540,15.);
#161=CIRCLE('',#542,15.);
#162=CIRCLE('',#544,15.5);
#163=CIRCLE('',#546,15.5);
#164=CIRCLE('',#548,12.75);
#165=CIRCLE('',#550,12.75);
#166=CIRCLE('',#552,15.5);
#167=CIRCLE('',#554,15.5);
#168=CIRCLE('',#556,15.);
#169=EDGE_LOOP('',(#39));
#170=EDGE_LOOP('',(#40));
#171=EDGE_LOOP('',(#41));
#172=EDGE_LOOP('',(#42));
#173=EDGE_LOOP('',(#43));
#174=EDGE_LOOP('',(#44));
#175=EDGE_LOOP('',(#45));
#176=EDGE_LOOP('',(#46));
#177=EDGE_LOOP('',(#47));
#178=EDGE_LOOP('',(#48));
#179=EDGE_LOOP('',(#49));
#180=EDGE_LOOP('',(#50));
#181=EDGE_LOOP('',(#51));
#182=EDGE_LOOP('',(#52));
#183=EDGE_LOOP('',(#53));
#184=EDGE_LOOP('',(#54));
#185=EDGE_LOOP('',(#55));
#186=EDGE_LOOP('',(#56));
#187=EDGE_LOOP('',(#57));
#188=EDGE_LOOP('',(#58));
#189=EDGE_LOOP('',(#59));
#190=EDGE_LOOP('',(#60));
#191=EDGE_LOOP('',(#61));
#192=EDGE_LOOP('',(#62));
#193=EDGE_LOOP('',(#63));
#194=EDGE_LOOP('',(#64));
#195=EDGE_LOOP('',(#65));
#196=EDGE_LOOP('',(#66));
#197=EDGE_LOOP('',(#67));
#198=EDGE_LOOP('',(#68));
#199=EDGE_LOOP('',(#69));
#200=EDGE_LOOP('',(#70));
#201=EDGE_LOOP('',(#71));
#202=EDGE_LOOP('',(#72));
#203=EDGE_LOOP('',(#73));
#204=EDGE_LOOP('',(#74));
#205=EDGE_LOOP('',(#75));
#206=EDGE_LOOP('',(#76));
#207=EDGE_LOOP('',(#77));
#208=EDGE_LOOP('',(#78));
#209=EDGE_LOOP('',(#79));
#210=EDGE_LOOP('',(#80));
#211=EDGE_LOOP('',(#81));
#212=EDGE_LOOP('',(#82));
#213=EDGE_LOOP('',(#83));
#214=EDGE_LOOP('',(#84));
#215=EDGE_LOOP('',(#85));
#216=EDGE_LOOP('',(#86));
#217=EDGE_LOOP('',(#87));
#218=EDGE_LOOP('',(#88));
#219=EDGE_LOOP('',(#89));
#220=EDGE_LOOP('',(#90));
#221=FACE_BOUND('',#169,.T.);
#222=FACE_BOUND('',#170,.T.);
#223=FACE_BOUND('',#171,.T.);
#224=FACE_BOUND('',#172,.T.);
#225=FACE_BOUND('',#173,.T.);
#226=FACE_BOUND('',#174,.T.);
#227=FACE_BOUND('',#175,.T.);
#228=FACE_BOUND('',#176,.T.);
#229=FACE_BOUND('',#177,.T.);
#230=FACE_BOUND('',#178,.T.);
#231=FACE_BOUND('',#179,.T.);
#232=FACE_BOUND('',#180,.T.);
#233=FACE_BOUND('',#181,.T.);
#234=FACE_BOUND('',#182,.T.);
#235=FACE_BOUND('',#183,.T.);
#236=FACE_BOUND('',#184,.T.);
#237=FACE_BOUND('',#185,.T.);
#238=FACE_BOUND('',#186,.T.);
#239=FACE_BOUND('',#187,.T.);
#240=FACE_BOUND('',#188,.T.);
#241=FACE_BOUND('',#189,.T.);
#242=FACE_BOUND('',#190,.T.);
#243=FACE_BOUND('',#191,.T.);
#244=FACE_BOUND('',#192,.T.);
#245=FACE_BOUND('',#193,.T.);
#246=FACE_BOUND('',#194,.T.);
#247=FACE_BOUND('',#195,.T.);
#248=FACE_BOUND('',#196,.T.);
#249=FACE_BOUND('',#197,.T.);
#250=FACE_BOUND('',#198,.T.);
#251=FACE_BOUND('',#199,.T.);
#252=FACE_BOUND('',#200,.T.);
#253=FACE_BOUND('',#201,.T.);
#254=FACE_BOUND('',#202,.T.);
#255=FACE_BOUND('',#203,.T.);
#256=FACE_BOUND('',#204,.T.);
#257=FACE_BOUND('',#205,.T.);
#258=FACE_BOUND('',#206,.T.);
#259=FACE_BOUND('',#207,.T.);
#260=FACE_BOUND('',#208,.T.);
#261=FACE_BOUND('',#209,.T.);
#262=FACE_BOUND('',#210,.T.);
#263=FACE_BOUND('',#211,.T.);
#264=FACE_BOUND('',#212,.T.);
#265=FACE_BOUND('',#213,.T.);
#266=FACE_BOUND('',#214,.T.);
#267=FACE_BOUND('',#215,.T.);
#268=FACE_BOUND('',#216,.T.);
#269=FACE_BOUND('',#217,.T.);
#270=FACE_BOUND('',#218,.T.);
#271=FACE_BOUND('',#219,.T.);
#272=FACE_BOUND('',#220,.T.);
#273=PLANE('',#505);
#274=PLANE('',#509);
#275=PLANE('',#515);
#276=PLANE('',#531);
#277=PLANE('',#537);
#278=PLANE('',#547);
#279=PLANE('',#551);
#280=PLANE('',#557);
#281=STYLED_ITEM('',(#308),#473);
#282=STYLED_ITEM('',(#309),#474);
#283=STYLED_ITEM('',(#310),#475);
#284=STYLED_ITEM('',(#311),#476);
#285=STYLED_ITEM('',(#312),#477);
#286=STYLED_ITEM('',(#313),#478);
#287=STYLED_ITEM('',(#314),#479);
#288=STYLED_ITEM('',(#315),#480);
#289=STYLED_ITEM('',(#316),#481);
#290=STYLED_ITEM('',(#317),#482);
#291=STYLED_ITEM('',(#318),#483);
#292=STYLED_ITEM('',(#319),#484);
#293=STYLED_ITEM('',(#320),#485);
#294=STYLED_ITEM('',(#321),#486);
#295=STYLED_ITEM('',(#322),#487);
#296=STYLED_ITEM('',(#323),#488);
#297=STYLED_ITEM('',(#324),#489);
#298=STYLED_ITEM('',(#325),#490);
#299=STYLED_ITEM('',(#326),#491);
#300=STYLED_ITEM('',(#327),#492);
#301=STYLED_ITEM('',(#328),#493);
#302=STYLED_ITEM('',(#329),#494);
#303=STYLED_ITEM('',(#330),#495);
#304=STYLED_ITEM('',(#331),#496);
#305=STYLED_ITEM('',(#332),#497);
#306=STYLED_ITEM('',(#333),#498);
#307=STYLED_ITEM('',(#334),#499);
#308=PRESENTATION_STYLE_ASSIGNMENT((#335));
#309=PRESENTATION_STYLE_ASSIGNMENT((#336));
#310=PRESENTATION_STYLE_ASSIGNMENT((#337));
#311=PRESENTATION_STYLE_ASSIGNMENT((#338));
#312=PRESENTATION_STYLE_ASSIGNMENT((#339));
#313=PRESENTATION_STYLE_ASSIGNMENT((#340));
#314=PRESENTATION_STYLE_ASSIGNMENT((#341));
#315=PRESENTATION_STYLE_ASSIGNMENT((#342));
#316=PRESENTATION_STYLE_ASSIGNMENT((#343));
#317=PRESENTATION_STYLE_ASSIGNMENT((#344));
#318=PRESENTATION_STYLE_ASSIGNMENT((#345));
#319=PRESENTATION_STYLE_ASSIGNMENT((#346));
#320=PRESENTATION_STYLE_ASSIGNMENT((#347));
#321=PRESENTATION_STYLE_ASSIGNMENT((#348));
#322=PRESENTATION_STYLE_ASSIGNMENT((#349));
#323=PRESENTATION_STYLE_ASSIGNMENT((#350));
#324=PRESENTATION_STYLE_ASSIGNMENT((#351));
#325=PRESENTATION_STYLE_ASSIGNMENT((#352));
#326=PRESENTATION_STYLE_ASSIGNMENT((#353));
#327=PRESENTATION_STYLE_ASSIGNMENT((#354));
#328=PRESENTATION_STYLE_ASSIGNMENT((#355));
#329=PRESENTATION_STYLE_ASSIGNMENT((#356));
#330=PRESENTATION_STYLE_ASSIGNMENT((#357));
#331=PRESENTATION_STYLE_ASSIGNMENT((#358));
#332=PRESENTATION_STYLE_ASSIGNMENT((#359));
#333=PRESENTATION_STYLE_ASSIGNMENT((#360));
#334=PRESENTATION_STYLE_ASSIGNMENT((#361));
#335=SURFACE_STYLE_USAGE(.BOTH.,#362);
#336=SURFACE_STYLE_USAGE(.BOTH.,#363);
#337=SURFACE_STYLE_USAGE(.BOTH.,#364);
#338=SURFACE_STYLE_USAGE(.BOTH.,#365);
#339=SURFACE_STYLE_USAGE(.BOTH.,#366);
#340=SURFACE_STYLE_USAGE(.BOTH.,#367);
#341=SURFACE_STYLE_USAGE(.BOTH.,#368);
#342=SURFACE_STYLE_USAGE(.BOTH.,#369);
#343=SURFACE_STYLE_USAGE(.BOTH.,#370);
#344=SURFACE_STYLE_USAGE(.BOTH.,#371);
#345=SURFACE_STYLE_USAGE(.BOTH.,#372);
#346=SURFACE_STYLE_USAGE(.BOTH.,#373);
#347=SURFACE_STYLE_USAGE(.BOTH.,#374);
#348=SURFACE_STYLE_USAGE(.BOTH.,#375);
#349=SURFACE_STYLE_USAGE(.BOTH.,#376);
#350=SURFACE_STYLE_USAGE(.BOTH.,#377);
#351=SURFACE_STYLE_USAGE(.BOTH.,#378);
#352=SURFACE_STYLE_USAGE(.BOTH.,#379);
#353=SURFACE_STYLE_USAGE(.BOTH.,#380);
#354=SURFACE_STYLE_USAGE(.BOTH.,#381);
#355=SURFACE_STYLE_USAGE(.BOTH.,#382);
#356=SURFACE_STYLE_USAGE(.BOTH.,#383);
#357=SURFACE_STYLE_USAGE(.BOTH.,#384);
#358=SURFACE_STYLE_USAGE(.BOTH.,#385);
#359=SURFACE_STYLE_USAGE(.BOTH.,#386);
#360=SURFACE_STYLE_USAGE(.BOTH.,#387);
#361=SURFACE_STYLE_USAGE(.BOTH.,#388);
#362=SURFACE_SIDE_STYLE('',(#389));
#363=SURFACE_SIDE_STYLE('',(#390));
#364=SURFACE_SIDE_STYLE('',(#391));
#365=SURFACE_SIDE_STYLE('',(#392));
#366=SURFACE_SIDE_STYLE('',(#393));
#367=SURFACE_SIDE_STYLE('',(#394));
#368=SURFACE_SIDE_STYLE('',(#395));
#369=SURFACE_SIDE_STYLE('',(#396));
#370=SURFACE_SIDE_STYLE('',(#397));
#371=SURFACE_SIDE_STYLE('',(#398));
#372=SURFACE_SIDE_STYLE('',(#399));
#373=SURFACE_SIDE_STYLE('',(#400));
#374=SURFACE_SIDE_STYLE('',(#401));
#375=SURFACE_SIDE_STYLE('',(#402));
#376=SURFACE_SIDE_STYLE('',(#403));
#377=SURFACE_SIDE_STYLE('',(#404));
#378=SURFACE_SIDE_STYLE('',(#405));
#379=SURFACE_SIDE_STYLE('',(#406));
#380=SURFACE_SIDE_STYLE('',(#407));
#381=SURFACE_SIDE_STYLE('',(#408));
#382=SURFACE_SIDE_STYLE('',(#409));
#383=SURFACE_SIDE_STYLE('',(#410));
#384=SURFACE_SIDE_STYLE('',(#411));
#385=SURFACE_SIDE_STYLE('',(#412));
#386=SURFACE_SIDE_STYLE('',(#413));
#387=SURFACE_SIDE_STYLE('',(#414));
#388=SURFACE_SIDE_STYLE('',(#415));
#389=SURFACE_STYLE_FILL_AREA(#416);
#390=SURFACE_STYLE_FILL_AREA(#417);
#391=SURFACE_STYLE_FILL_AREA(#418);
#392=SURFACE_STYLE_FILL_AREA(#419);
#393=SURFACE_STYLE_FILL_AREA(#420);
#394=SURFACE_STYLE_FILL_AREA(#421);
#395=SURFACE_STYLE_FILL_AREA(#422);
#396=SURFACE_STYLE_FILL_AREA(#423);
#397=SURFACE_STYLE_FILL_AREA(#424);
#398=SURFACE_STYLE_FILL_AREA(#425);
#399=SURFACE_STYLE_FILL_AREA(#426);
#400=SURFACE_STYLE_FILL_AREA(#427);
#401=SURFACE_STYLE_FILL_AREA(#428);
#402=SURFACE_STYLE_FILL_AREA(#429);
#403=SURFACE_STYLE_FILL_AREA(#430);
#404=SURFACE_STYLE_FILL_AREA(#431);
#405=SURFACE_STYLE_FILL_AREA(#432);
#406=SURFACE_STYLE_FILL_AREA(#433);
#407=SURFACE_STYLE_FILL_AREA(#434);
#408=SURFACE_STYLE_FILL_AREA(#435);
#409=SURFACE_STYLE_FILL_AREA(#436);
#410=SURFACE_STYLE_FILL_AREA(#437);
#411=SURFACE_STYLE_FILL_AREA(#438);
#412=SURFACE_STYLE_FILL_AREA(#439);
#413=SURFACE_STYLE_FILL_AREA(#440);
#414=SURFACE_STYLE_FILL_AREA(#441);
#415=SURFACE_STYLE_FILL_AREA(#442);
#416=FILL_AREA_STYLE('',(#443));
#417=FILL_AREA_STYLE('',(#444));
#418=FILL_AREA_STYLE('',(#445));
#419=FILL_AREA_STYLE('',(#446));
#420=FILL_AREA_STYLE('',(#447));
#421=FILL_AREA_STYLE('',(#448));
#422=FILL_AREA_STYLE('',(#449));
#423=FILL_AREA_STYLE('',(#450));
#424=FILL_AREA_STYLE('',(#451));
#425=FILL_AREA_STYLE('',(#452));
#426=FILL_AREA_STYLE('',(#453));
#427=FILL_AREA_STYLE('',(#454));
#428=FILL_AREA_STYLE('',(#455));
#429=FILL_AREA_STYLE('',(#456));
#430=FILL_AREA_STYLE('',(#457));
#431=FILL_AREA_STYLE('',(#458));
#432=FILL_AREA_STYLE('',(#459));
#433=FILL_AREA_STYLE('',(#460));
#434=FILL_AREA_STYLE('',(#461));
#435=FILL_AREA_STYLE('',(#462));
#436=FILL_AREA_STYLE('',(#463));
#437=FILL_AREA_STYLE('',(#464));
#438=FILL_AREA_STYLE('',(#465));
#439=FILL_AREA_STYLE('',(#466));
#440=FILL_AREA_STYLE('',(#467));
#441=FILL_AREA_STYLE('',(#468));
#442=FILL_AREA_STYLE('',(#469));
#443=FILL_AREA_STYLE_COLOUR('',#470);
#444=FILL_AREA_STYLE_COLOUR('',#470);
#445=FILL_AREA_STYLE_COLOUR('',#470);
#446=FILL_AREA_STYLE_COLOUR('',#470);
#447=FILL_AREA_STYLE_COLOUR('',#470);
#448=FILL_AREA_STYLE_COLOUR('',#470);
#449=FILL_AREA_STYLE_COLOUR('',#470);
#450=FILL_AREA_STYLE_COLOUR('',#470);
#451=FILL_AREA_STYLE_COLOUR('',#470);
#452=FILL_AREA_STYLE_COLOUR('',#470);
#453=FILL_AREA_STYLE_COLOUR('',#470);
#454=FILL_AREA_STYLE_COLOUR('',#470);
#455=FILL_AREA_STYLE_COLOUR('',#470);
#456=FILL_AREA_STYLE_COLOUR('',#470);
#457=FILL_AREA_STYLE_COLOUR('',#471);
#458=FILL_AREA_STYLE_COLOUR('',#471);
#459=FILL_AREA_STYLE_COLOUR('',#471);
#460=FILL_AREA_STYLE_COLOUR('',#471);
#461=FILL_AREA_STYLE_COLOUR('',#471);
#462=FILL_AREA_STYLE_COLOUR('',#470);
#463=FILL_AREA_STYLE_COLOUR('',#470);
#464=FILL_AREA_STYLE_COLOUR('',#470);
#465=FILL_AREA_STYLE_COLOUR('',#472);
#466=FILL_AREA_STYLE_COLOUR('',#470);
#467=FILL_AREA_STYLE_COLOUR('',#470);
#468=FILL_AREA_STYLE_COLOUR('',#470);
#469=FILL_AREA_STYLE_COLOUR('',#470);
#470=COLOUR_RGB('',0.689999997615814,0.689999997615814,0.689999997615814);
#471=COLOUR_RGB('',0.097999997437,0.097999997437,0.097999997437);
#472=COLOUR_RGB('',0.94099998474121,0.94099998474121,0.94099998474121);
#473=ADVANCED_FACE('',(#221),#273,.F.);
#474=ADVANCED_FACE('',(#222,#223),#29,.F.);
#475=ADVANCED_FACE('',(#224,#225),#274,.F.);
#476=ADVANCED_FACE('',(#226,#227),#30,.F.);
#477=ADVANCED_FACE('',(#228,#229),#23,.F.);
#478=ADVANCED_FACE('',(#230,#231),#275,.F.);
#479=ADVANCED_FACE('',(#232,#233),#24,.T.);
#480=ADVANCED_FACE('',(#234,#235),#31,.T.);
#481=ADVANCED_FACE('',(#236,#237),#25,.T.);
#482=ADVANCED_FACE('',(#238,#239),#32,.T.);
#483=ADVANCED_FACE('',(#240,#241),#26,.T.);
#484=ADVANCED_FACE('',(#242,#243),#33,.T.);
#485=ADVANCED_FACE('',(#244,#245),#20,.F.);
#486=ADVANCED_FACE('',(#246,#247),#276,.F.);
#487=ADVANCED_FACE('',(#248,#249),#34,.F.);
#488=ADVANCED_FACE('',(#250,#251),#27,.F.);
#489=ADVANCED_FACE('',(#252,#253),#277,.F.);
#490=ADVANCED_FACE('',(#254,#255),#28,.T.);
#491=ADVANCED_FACE('',(#256,#257),#35,.T.);
#492=ADVANCED_FACE('',(#258,#259),#21,.T.);
#493=ADVANCED_FACE('',(#260,#261),#36,.T.);
#494=ADVANCED_FACE('',(#262,#263),#278,.F.);
#495=ADVANCED_FACE('',(#264,#265),#37,.T.);
#496=ADVANCED_FACE('',(#266,#267),#279,.F.);
#497=ADVANCED_FACE('',(#268,#269),#38,.T.);
#498=ADVANCED_FACE('',(#270,#271),#22,.T.);
#499=ADVANCED_FACE('',(#272),#280,.F.);
#500=CLOSED_SHELL('',(#473,#474,#475,#476,#477,#478,#479,#480,#481,#482,
#483,#484,#485,#486,#487,#488,#489,#490,#491,#492,#493,#494,#495,#496,#497,
#498,#499));
#501=MANIFOLD_SOLID_BREP('532911 MS6-LFX',#500);
#502=SHAPE_DEFINITION_REPRESENTATION(#752,#503);
#503=SHAPE_REPRESENTATION('532911 MS6-LFX',(#504),#747);
#504=AXIS2_PLACEMENT_3D('',#666,#558,#559);
#505=AXIS2_PLACEMENT_3D('',#667,#560,#561);
#506=AXIS2_PLACEMENT_3D('',#668,#562,#563);
#507=AXIS2_PLACEMENT_3D('',#670,#564,#565);
#508=AXIS2_PLACEMENT_3D('',#671,#566,#567);
#509=AXIS2_PLACEMENT_3D('',#673,#568,#569);
#510=AXIS2_PLACEMENT_3D('',#674,#570,#571);
#511=AXIS2_PLACEMENT_3D('',#676,#572,#573);
#512=AXIS2_PLACEMENT_3D('',#677,#574,#575);
#513=AXIS2_PLACEMENT_3D('',#679,#576,#577);
#514=AXIS2_PLACEMENT_3D('',#680,#578,#579);
#515=AXIS2_PLACEMENT_3D('',#682,#580,#581);
#516=AXIS2_PLACEMENT_3D('',#683,#582,#583);
#517=AXIS2_PLACEMENT_3D('',#685,#584,#585);
#518=AXIS2_PLACEMENT_3D('',#686,#586,#587);
#519=AXIS2_PLACEMENT_3D('',#688,#588,#589);
#520=AXIS2_PLACEMENT_3D('',#689,#590,#591);
#521=AXIS2_PLACEMENT_3D('',#691,#592,#593);
#522=AXIS2_PLACEMENT_3D('',#692,#594,#595);
#523=AXIS2_PLACEMENT_3D('',#694,#596,#597);
#524=AXIS2_PLACEMENT_3D('',#695,#598,#599);
#525=AXIS2_PLACEMENT_3D('',#697,#600,#601);
#526=AXIS2_PLACEMENT_3D('',#698,#602,#603);
#527=AXIS2_PLACEMENT_3D('',#700,#604,#605);
#528=AXIS2_PLACEMENT_3D('',#701,#606,#607);
#529=AXIS2_PLACEMENT_3D('',#703,#608,#609);
#530=AXIS2_PLACEMENT_3D('',#704,#610,#611);
#531=AXIS2_PLACEMENT_3D('',#706,#612,#613);
#532=AXIS2_PLACEMENT_3D('',#707,#614,#615);
#533=AXIS2_PLACEMENT_3D('',#709,#616,#617);
#534=AXIS2_PLACEMENT_3D('',#710,#618,#619);
#535=AXIS2_PLACEMENT_3D('',#712,#620,#621);
#536=AXIS2_PLACEMENT_3D('',#713,#622,#623);
#537=AXIS2_PLACEMENT_3D('',#715,#624,#625);
#538=AXIS2_PLACEMENT_3D('',#716,#626,#627);
#539=AXIS2_PLACEMENT_3D('',#718,#628,#629);
#540=AXIS2_PLACEMENT_3D('',#719,#630,#631);
#541=AXIS2_PLACEMENT_3D('',#721,#632,#633);
#542=AXIS2_PLACEMENT_3D('',#722,#634,#635);
#543=AXIS2_PLACEMENT_3D('',#724,#636,#637);
#544=AXIS2_PLACEMENT_3D('',#725,#638,#639);
#545=AXIS2_PLACEMENT_3D('',#727,#640,#641);
#546=AXIS2_PLACEMENT_3D('',#728,#642,#643);
#547=AXIS2_PLACEMENT_3D('',#730,#644,#645);
#548=AXIS2_PLACEMENT_3D('',#731,#646,#647);
#549=AXIS2_PLACEMENT_3D('',#733,#648,#649);
#550=AXIS2_PLACEMENT_3D('',#734,#650,#651);
#551=AXIS2_PLACEMENT_3D('',#736,#652,#653);
#552=AXIS2_PLACEMENT_3D('',#737,#654,#655);
#553=AXIS2_PLACEMENT_3D('',#739,#656,#657);
#554=AXIS2_PLACEMENT_3D('',#740,#658,#659);
#555=AXIS2_PLACEMENT_3D('',#742,#660,#661);
#556=AXIS2_PLACEMENT_3D('',#743,#662,#663);
#557=AXIS2_PLACEMENT_3D('',#745,#664,#665);
#558=DIRECTION('',(0.,0.,1.));
#559=DIRECTION('',(1.,0.,0.));
#560=DIRECTION('',(0.,-1.,0.));
#561=DIRECTION('',(0.,0.,-1.));
#562=DIRECTION('',(0.,-1.,0.));
#563=DIRECTION('',(0.,0.,-1.));
#564=DIRECTION('',(0.,-1.,0.));
#565=DIRECTION('',(0.,0.,-1.));
#566=DIRECTION('',(0.,-1.,0.));
#567=DIRECTION('',(0.,0.,-1.));
#568=DIRECTION('',(0.,1.,0.));
#569=DIRECTION('',(0.,0.,1.));
#570=DIRECTION('',(0.,-1.,0.));
#571=DIRECTION('',(0.,0.,-1.));
#572=DIRECTION('',(0.,-1.,0.));
#573=DIRECTION('',(0.,0.,-1.));
#574=DIRECTION('',(0.,-1.,0.));
#575=DIRECTION('',(0.,0.,-1.));
#576=DIRECTION('',(0.,1.,0.));
#577=DIRECTION('',(0.,0.,1.));
#578=DIRECTION('',(0.,-1.,0.));
#579=DIRECTION('',(0.,0.,-1.));
#580=DIRECTION('',(0.,-1.,0.));
#581=DIRECTION('',(0.,0.,-1.));
#582=DIRECTION('',(0.,-1.,0.));
#583=DIRECTION('',(0.,0.,-1.));
#584=DIRECTION('',(0.,-1.,0.));
#585=DIRECTION('',(0.,0.,-1.));
#586=DIRECTION('',(0.,-1.,0.));
#587=DIRECTION('',(0.,0.,-1.));
#588=DIRECTION('',(0.,-1.,0.));
#589=DIRECTION('',(0.,0.,-1.));
#590=DIRECTION('',(0.,-1.,0.));
#591=DIRECTION('',(0.,0.,-1.));
#592=DIRECTION('',(0.,-1.,0.));
#593=DIRECTION('',(0.,0.,-1.));
#594=DIRECTION('',(0.,-1.,0.));
#595=DIRECTION('',(0.,0.,-1.));
#596=DIRECTION('',(0.,-1.,0.));
#597=DIRECTION('',(0.,0.,-1.));
#598=DIRECTION('',(0.,-1.,0.));
#599=DIRECTION('',(0.,0.,-1.));
#600=DIRECTION('',(0.,1.,0.));
#601=DIRECTION('',(0.,0.,1.));
#602=DIRECTION('',(0.,-1.,0.));
#603=DIRECTION('',(0.,0.,-1.));
#604=DIRECTION('',(0.,-1.,0.));
#605=DIRECTION('',(0.,0.,-1.));
#606=DIRECTION('',(0.,-1.,0.));
#607=DIRECTION('',(0.,0.,-1.));
#608=DIRECTION('',(0.,-1.,0.));
#609=DIRECTION('',(0.,0.,-1.));
#610=DIRECTION('',(0.,-1.,0.));
#611=DIRECTION('',(0.,0.,-1.));
#612=DIRECTION('',(0.,-1.,0.));
#613=DIRECTION('',(0.,0.,-1.));
#614=DIRECTION('',(0.,-1.,0.));
#615=DIRECTION('',(0.,0.,-1.));
#616=DIRECTION('',(0.,-1.,0.));
#617=DIRECTION('',(0.,0.,-1.));
#618=DIRECTION('',(0.,-1.,0.));
#619=DIRECTION('',(0.,0.,-1.));
#620=DIRECTION('',(0.,1.,0.));
#621=DIRECTION('',(0.,0.,1.));
#622=DIRECTION('',(0.,-1.,0.));
#623=DIRECTION('',(0.,0.,-1.));
#624=DIRECTION('',(0.,-1.,0.));
#625=DIRECTION('',(0.,0.,-1.));
#626=DIRECTION('',(0.,-1.,0.));
#627=DIRECTION('',(0.,0.,-1.));
#628=DIRECTION('',(0.,-1.,0.));
#629=DIRECTION('',(0.,0.,-1.));
#630=DIRECTION('',(0.,-1.,0.));
#631=DIRECTION('',(0.,0.,-1.));
#632=DIRECTION('',(0.,-1.,0.));
#633=DIRECTION('',(0.,0.,-1.));
#634=DIRECTION('',(0.,-1.,0.));
#635=DIRECTION('',(0.,0.,-1.));
#636=DIRECTION('',(0.,-1.,0.));
#637=DIRECTION('',(0.,0.,-1.));
#638=DIRECTION('',(0.,-1.,0.));
#639=DIRECTION('',(0.,0.,-1.));
#640=DIRECTION('',(0.,-1.,0.));
#641=DIRECTION('',(0.,0.,-1.));
#642=DIRECTION('',(0.,-1.,0.));
#643=DIRECTION('',(0.,0.,-1.));
#644=DIRECTION('',(0.,1.,0.));
#645=DIRECTION('',(0.,0.,1.));
#646=DIRECTION('',(0.,-1.,0.));
#647=DIRECTION('',(0.,0.,-1.));
#648=DIRECTION('',(0.,-1.,0.));
#649=DIRECTION('',(0.,0.,-1.));
#650=DIRECTION('',(0.,-1.,0.));
#651=DIRECTION('',(0.,0.,-1.));
#652=DIRECTION('',(0.,-1.,0.));
#653=DIRECTION('',(0.,0.,-1.));
#654=DIRECTION('',(0.,-1.,0.));
#655=DIRECTION('',(0.,0.,-1.));
#656=DIRECTION('',(0.,-1.,0.));
#657=DIRECTION('',(0.,0.,-1.));
#658=DIRECTION('',(0.,-1.,0.));
#659=DIRECTION('',(0.,0.,-1.));
#660=DIRECTION('',(0.,-1.,0.));
#661=DIRECTION('',(0.,0.,-1.));
#662=DIRECTION('',(0.,-1.,0.));
#663=DIRECTION('',(0.,0.,-1.));
#664=DIRECTION('',(0.,1.,0.));
#665=DIRECTION('',(0.,0.,1.));
#666=CARTESIAN_POINT('',(0.,0.,0.));
#667=CARTESIAN_POINT('',(0.,-43.5,0.));
#668=CARTESIAN_POINT('',(0.,-43.5,0.));
#669=CARTESIAN_POINT('',(0.,-43.5,-9.25));
#670=CARTESIAN_POINT('',(0.,-50.,0.));
#671=CARTESIAN_POINT('',(0.,43.5,0.));
#672=CARTESIAN_POINT('',(0.,43.5,-9.25));
#673=CARTESIAN_POINT('',(9.25,43.5,0.));
#674=CARTESIAN_POINT('',(0.,43.5,0.));
#675=CARTESIAN_POINT('',(0.,43.5,-7.));
#676=CARTESIAN_POINT('',(0.,-50.,0.));
#677=CARTESIAN_POINT('',(0.,48.1698729810778,0.));
#678=CARTESIAN_POINT('',(0.,48.1698729810778,-7.));
#679=CARTESIAN_POINT('',(0.,48.1698729810778,0.));
#680=CARTESIAN_POINT('',(0.,57.5,0.));
#681=CARTESIAN_POINT('',(0.,57.5,-9.5));
#682=CARTESIAN_POINT('',(9.5,57.5,0.));
#683=CARTESIAN_POINT('',(0.,57.5,0.));
#684=CARTESIAN_POINT('',(0.,57.5,-10.58));
#685=CARTESIAN_POINT('',(0.,57.5,0.));
#686=CARTESIAN_POINT('',(0.,57.,0.));
#687=CARTESIAN_POINT('',(0.,57.,-11.08));
#688=CARTESIAN_POINT('',(0.,-50.,0.));
#689=CARTESIAN_POINT('',(0.,56.5,0.));
#690=CARTESIAN_POINT('',(0.,56.5,-11.08));
#691=CARTESIAN_POINT('',(0.,56.5,0.));
#692=CARTESIAN_POINT('',(0.,55.9688377523455,0.));
#693=CARTESIAN_POINT('',(0.,55.9688377523455,-12.));
#694=CARTESIAN_POINT('',(0.,-50.,0.));
#695=CARTESIAN_POINT('',(0.,52.5311622476545,0.));
#696=CARTESIAN_POINT('',(0.,52.5311622476545,-12.));
#697=CARTESIAN_POINT('',(0.,52.5311622476545,0.));
#698=CARTESIAN_POINT('',(0.,52.,0.));
#699=CARTESIAN_POINT('',(0.,52.,-11.08));
#700=CARTESIAN_POINT('',(0.,-50.,0.));
#701=CARTESIAN_POINT('',(0.,51.,0.));
#702=CARTESIAN_POINT('',(0.,51.,-11.08));
#703=CARTESIAN_POINT('',(0.,51.,0.));
#704=CARTESIAN_POINT('',(0.,50.,0.));
#705=CARTESIAN_POINT('',(0.,50.,-12.08));
#706=CARTESIAN_POINT('',(12.08,50.,0.));
#707=CARTESIAN_POINT('',(0.,50.,0.));
#708=CARTESIAN_POINT('',(0.,50.,-12.8));
#709=CARTESIAN_POINT('',(0.,-50.,0.));
#710=CARTESIAN_POINT('',(0.,50.7,0.));
#711=CARTESIAN_POINT('',(0.,50.7,-12.8));
#712=CARTESIAN_POINT('',(0.,50.7,0.));
#713=CARTESIAN_POINT('',(0.,51.,0.));
#714=CARTESIAN_POINT('',(0.,51.,-13.1));
#715=CARTESIAN_POINT('',(13.1,51.,0.));
#716=CARTESIAN_POINT('',(0.,51.,0.));
#717=CARTESIAN_POINT('',(0.,51.,-14.7));
#718=CARTESIAN_POINT('',(0.,51.,0.));
#719=CARTESIAN_POINT('',(0.,50.7,0.));
#720=CARTESIAN_POINT('',(0.,50.7,-15.));
#721=CARTESIAN_POINT('',(0.,-50.,0.));
#722=CARTESIAN_POINT('',(0.,50.,0.));
#723=CARTESIAN_POINT('',(0.,50.,-15.));
#724=CARTESIAN_POINT('',(0.,49.5,0.));
#725=CARTESIAN_POINT('',(0.,49.5,0.));
#726=CARTESIAN_POINT('',(0.,49.5,-15.5));
#727=CARTESIAN_POINT('',(0.,-50.,0.));
#728=CARTESIAN_POINT('',(0.,43.5,0.));
#729=CARTESIAN_POINT('',(0.,43.5,-15.5));
#730=CARTESIAN_POINT('',(15.5,43.5,0.));
#731=CARTESIAN_POINT('',(0.,43.5,0.));
#732=CARTESIAN_POINT('',(0.,43.5,-12.75));
#733=CARTESIAN_POINT('',(0.,-50.,0.));
#734=CARTESIAN_POINT('',(0.,-43.5,0.));
#735=CARTESIAN_POINT('',(0.,-43.5,-12.75));
#736=CARTESIAN_POINT('',(12.75,-43.5,0.));
#737=CARTESIAN_POINT('',(0.,-43.5,0.));
#738=CARTESIAN_POINT('',(0.,-43.5,-15.5));
#739=CARTESIAN_POINT('',(0.,-50.,0.));
#740=CARTESIAN_POINT('',(0.,-49.5,0.));
#741=CARTESIAN_POINT('',(0.,-49.5,-15.5));
#742=CARTESIAN_POINT('',(0.,-49.5,0.));
#743=CARTESIAN_POINT('',(0.,-50.,0.));
#744=CARTESIAN_POINT('',(0.,-50.,-15.));
#745=CARTESIAN_POINT('',(15.,-50.,0.));
#746=MECHANICAL_DESIGN_GEOMETRIC_PRESENTATION_REPRESENTATION('',(#281,#282,
#283,#284,#285,#286,#287,#288,#289,#290,#291,#292,#293,#294,#295,#296,#297,
#298,#299,#300,#301,#302,#303,#304,#305,#306,#307),#747);
#747=(
GEOMETRIC_REPRESENTATION_CONTEXT(3)
GLOBAL_UNCERTAINTY_ASSIGNED_CONTEXT((#748))
GLOBAL_UNIT_ASSIGNED_CONTEXT((#751,#750,#749))
REPRESENTATION_CONTEXT('532911 MS6-LFX','TOP_LEVEL_ASSEMBLY_PART')
);
#748=UNCERTAINTY_MEASURE_WITH_UNIT(LENGTH_MEASURE(0.005),#751,
'DISTANCE_ACCURACY_VALUE','Maximum Tolerance applied to model');
#749=(
NAMED_UNIT(*)
SI_UNIT($,.STERADIAN.)
SOLID_ANGLE_UNIT()
);
#750=(
NAMED_UNIT(*)
PLANE_ANGLE_UNIT()
SI_UNIT($,.RADIAN.)
);
#751=(
LENGTH_UNIT()
NAMED_UNIT(*)
SI_UNIT(.MILLI.,.METRE.)
);
#752=PRODUCT_DEFINITION_SHAPE('','',#753);
#753=PRODUCT_DEFINITION('','',#755,#754);
#754=PRODUCT_DEFINITION_CONTEXT('',#761,'design');
#755=PRODUCT_DEFINITION_FORMATION_WITH_SPECIFIED_SOURCE('','',#757,
 .NOT_KNOWN.);
#756=PRODUCT_RELATED_PRODUCT_CATEGORY('','',(#757));
#757=PRODUCT('532911 MS6-LFX','532911 MS6-LFX','532911 MS6-LFX',(#759));
#758=PRODUCT_CATEGORY('','');
#759=PRODUCT_CONTEXT('',#761,'mechanical');
#760=APPLICATION_PROTOCOL_DEFINITION('international standard',
'automotive_design',2010,#761);
#761=APPLICATION_CONTEXT(
'core data for automotive mechanical design processes');
ENDSEC;
END-ISO-10303-21;
