ISO-10303-21;
HEADER;
/* Generated by software containing ST-Developer
 * from STEP Tools, Inc. (www.steptools.com) 
 */
/* OPTION: using custom renumber hook */

FILE_DESCRIPTION(
/* description */ ('STEP AP214'),
/* implementation_level */ '2;1');

FILE_NAME(
/* name */ '532912_MS4_D-MINI-LFX',
/* time_stamp */ '2024-09-09T14:49:07+02:00',
/* author */ ('License CC BY-ND 4.0'),
/* organization */ ('CADENAS'),
/* preprocessor_version */ 'ST-DEVELOPER v19.3',
/* originating_system */ 'PARTsolutions',
/* authorisation */ '  ');

FILE_SCHEMA (('AUTOMOTIVE_DESIGN {1 0 10303 214 3 1 1}'));
ENDSEC;

DATA;
#10=PROPERTY_DEFINITION_REPRESENTATION(#14,#12);
#11=PROPERTY_DEFINITION_REPRESENTATION(#15,#13);
#12=REPRESENTATION('',(#16),#557);
#13=REPRESENTATION('',(#17),#557);
#14=PROPERTY_DEFINITION('pmi validation property','',#562);
#15=PROPERTY_DEFINITION('pmi validation property','',#562);
#16=VALUE_REPRESENTATION_ITEM('number of annotations',COUNT_MEASURE(0.));
#17=VALUE_REPRESENTATION_ITEM('number of views',COUNT_MEASURE(0.));
#18=SHAPE_REPRESENTATION_RELATIONSHIP('','',#376,#19);
#19=ADVANCED_BREP_SHAPE_REPRESENTATION('',(#374),#557);
#20=TOROIDAL_SURFACE('',#398,8.24999999999999,0.749999999999992);
#21=TOROIDAL_SURFACE('',#402,9.75,0.999999999999999);
#22=TOROIDAL_SURFACE('',#414,10.25,0.500000000000006);
#23=CYLINDRICAL_SURFACE('',#384,3.75);
#24=CYLINDRICAL_SURFACE('',#385,7.5);
#25=CYLINDRICAL_SURFACE('',#390,9.);
#26=CYLINDRICAL_SURFACE('',#397,5.5);
#27=CYLINDRICAL_SURFACE('',#404,10.75);
#28=CYLINDRICAL_SURFACE('',#408,8.5);
#29=CYLINDRICAL_SURFACE('',#412,10.75);
#30=CONICAL_SURFACE('',#381,7.,0.436332312998583);
#31=CONICAL_SURFACE('',#392,9.,0.785398163397448);
#32=ORIENTED_EDGE('',*,*,#70,.F.);
#33=ORIENTED_EDGE('',*,*,#71,.F.);
#34=ORIENTED_EDGE('',*,*,#72,.T.);
#35=ORIENTED_EDGE('',*,*,#73,.F.);
#36=ORIENTED_EDGE('',*,*,#71,.T.);
#37=ORIENTED_EDGE('',*,*,#72,.F.);
#38=ORIENTED_EDGE('',*,*,#74,.T.);
#39=ORIENTED_EDGE('',*,*,#75,.F.);
#40=ORIENTED_EDGE('',*,*,#76,.T.);
#41=ORIENTED_EDGE('',*,*,#74,.F.);
#42=ORIENTED_EDGE('',*,*,#77,.T.);
#43=ORIENTED_EDGE('',*,*,#76,.F.);
#44=ORIENTED_EDGE('',*,*,#78,.T.);
#45=ORIENTED_EDGE('',*,*,#77,.F.);
#46=ORIENTED_EDGE('',*,*,#73,.T.);
#47=ORIENTED_EDGE('',*,*,#78,.F.);
#48=ORIENTED_EDGE('',*,*,#79,.F.);
#49=ORIENTED_EDGE('',*,*,#70,.T.);
#50=ORIENTED_EDGE('',*,*,#79,.T.);
#51=ORIENTED_EDGE('',*,*,#80,.F.);
#52=ORIENTED_EDGE('',*,*,#75,.T.);
#53=ORIENTED_EDGE('',*,*,#81,.T.);
#54=ORIENTED_EDGE('',*,*,#82,.T.);
#55=ORIENTED_EDGE('',*,*,#81,.F.);
#56=ORIENTED_EDGE('',*,*,#82,.F.);
#57=ORIENTED_EDGE('',*,*,#83,.T.);
#58=ORIENTED_EDGE('',*,*,#83,.F.);
#59=ORIENTED_EDGE('',*,*,#84,.T.);
#60=ORIENTED_EDGE('',*,*,#84,.F.);
#61=ORIENTED_EDGE('',*,*,#85,.T.);
#62=ORIENTED_EDGE('',*,*,#86,.T.);
#63=ORIENTED_EDGE('',*,*,#85,.F.);
#64=ORIENTED_EDGE('',*,*,#87,.T.);
#65=ORIENTED_EDGE('',*,*,#86,.F.);
#66=ORIENTED_EDGE('',*,*,#88,.T.);
#67=ORIENTED_EDGE('',*,*,#87,.F.);
#68=ORIENTED_EDGE('',*,*,#80,.T.);
#69=ORIENTED_EDGE('',*,*,#88,.F.);
#70=EDGE_CURVE('',#89,#89,#108,.F.);
#71=EDGE_CURVE('',#90,#90,#109,.T.);
#72=EDGE_CURVE('',#91,#91,#110,.T.);
#73=EDGE_CURVE('',#92,#92,#111,.T.);
#74=EDGE_CURVE('',#93,#93,#112,.T.);
#75=EDGE_CURVE('',#94,#94,#113,.T.);
#76=EDGE_CURVE('',#95,#95,#114,.T.);
#77=EDGE_CURVE('',#96,#96,#115,.T.);
#78=EDGE_CURVE('',#97,#97,#116,.T.);
#79=EDGE_CURVE('',#98,#98,#117,.T.);
#80=EDGE_CURVE('',#99,#99,#118,.T.);
#81=EDGE_CURVE('',#100,#100,#119,.T.);
#82=EDGE_CURVE('',#101,#101,#120,.T.);
#83=EDGE_CURVE('',#102,#102,#121,.T.);
#84=EDGE_CURVE('',#103,#103,#122,.T.);
#85=EDGE_CURVE('',#104,#104,#123,.T.);
#86=EDGE_CURVE('',#105,#105,#124,.T.);
#87=EDGE_CURVE('',#106,#106,#125,.T.);
#88=EDGE_CURVE('',#107,#107,#126,.T.);
#89=VERTEX_POINT('',#500);
#90=VERTEX_POINT('',#502);
#91=VERTEX_POINT('',#505);
#92=VERTEX_POINT('',#507);
#93=VERTEX_POINT('',#511);
#94=VERTEX_POINT('',#513);
#95=VERTEX_POINT('',#516);
#96=VERTEX_POINT('',#519);
#97=VERTEX_POINT('',#522);
#98=VERTEX_POINT('',#526);
#99=VERTEX_POINT('',#530);
#100=VERTEX_POINT('',#533);
#101=VERTEX_POINT('',#536);
#102=VERTEX_POINT('',#539);
#103=VERTEX_POINT('',#542);
#104=VERTEX_POINT('',#545);
#105=VERTEX_POINT('',#548);
#106=VERTEX_POINT('',#551);
#107=VERTEX_POINT('',#554);
#108=CIRCLE('',#379,5.5);
#109=CIRCLE('',#380,3.75);
#110=CIRCLE('',#382,3.75);
#111=CIRCLE('',#383,7.);
#112=CIRCLE('',#386,7.5);
#113=CIRCLE('',#387,7.5);
#114=CIRCLE('',#389,9.);
#115=CIRCLE('',#391,9.);
#116=CIRCLE('',#393,8.5);
#117=CIRCLE('',#396,5.5);
#118=CIRCLE('',#399,8.25);
#119=CIRCLE('',#401,8.75);
#120=CIRCLE('',#403,10.75);
#121=CIRCLE('',#405,10.75);
#122=CIRCLE('',#407,8.5);
#123=CIRCLE('',#409,8.5);
#124=CIRCLE('',#411,10.75);
#125=CIRCLE('',#413,10.75);
#126=CIRCLE('',#415,10.25);
#127=EDGE_LOOP('',(#32));
#128=EDGE_LOOP('',(#33));
#129=EDGE_LOOP('',(#34));
#130=EDGE_LOOP('',(#35));
#131=EDGE_LOOP('',(#36));
#132=EDGE_LOOP('',(#37));
#133=EDGE_LOOP('',(#38));
#134=EDGE_LOOP('',(#39));
#135=EDGE_LOOP('',(#40));
#136=EDGE_LOOP('',(#41));
#137=EDGE_LOOP('',(#42));
#138=EDGE_LOOP('',(#43));
#139=EDGE_LOOP('',(#44));
#140=EDGE_LOOP('',(#45));
#141=EDGE_LOOP('',(#46));
#142=EDGE_LOOP('',(#47));
#143=EDGE_LOOP('',(#48));
#144=EDGE_LOOP('',(#49));
#145=EDGE_LOOP('',(#50));
#146=EDGE_LOOP('',(#51));
#147=EDGE_LOOP('',(#52));
#148=EDGE_LOOP('',(#53));
#149=EDGE_LOOP('',(#54));
#150=EDGE_LOOP('',(#55));
#151=EDGE_LOOP('',(#56));
#152=EDGE_LOOP('',(#57));
#153=EDGE_LOOP('',(#58));
#154=EDGE_LOOP('',(#59));
#155=EDGE_LOOP('',(#60));
#156=EDGE_LOOP('',(#61));
#157=EDGE_LOOP('',(#62));
#158=EDGE_LOOP('',(#63));
#159=EDGE_LOOP('',(#64));
#160=EDGE_LOOP('',(#65));
#161=EDGE_LOOP('',(#66));
#162=EDGE_LOOP('',(#67));
#163=EDGE_LOOP('',(#68));
#164=EDGE_LOOP('',(#69));
#165=FACE_BOUND('',#127,.T.);
#166=FACE_BOUND('',#128,.T.);
#167=FACE_BOUND('',#129,.T.);
#168=FACE_BOUND('',#130,.T.);
#169=FACE_BOUND('',#131,.T.);
#170=FACE_BOUND('',#132,.T.);
#171=FACE_BOUND('',#133,.T.);
#172=FACE_BOUND('',#134,.T.);
#173=FACE_BOUND('',#135,.T.);
#174=FACE_BOUND('',#136,.T.);
#175=FACE_BOUND('',#137,.T.);
#176=FACE_BOUND('',#138,.T.);
#177=FACE_BOUND('',#139,.T.);
#178=FACE_BOUND('',#140,.T.);
#179=FACE_BOUND('',#141,.T.);
#180=FACE_BOUND('',#142,.T.);
#181=FACE_BOUND('',#143,.T.);
#182=FACE_BOUND('',#144,.T.);
#183=FACE_BOUND('',#145,.T.);
#184=FACE_BOUND('',#146,.T.);
#185=FACE_BOUND('',#147,.T.);
#186=FACE_BOUND('',#148,.T.);
#187=FACE_BOUND('',#149,.T.);
#188=FACE_BOUND('',#150,.T.);
#189=FACE_BOUND('',#151,.T.);
#190=FACE_BOUND('',#152,.T.);
#191=FACE_BOUND('',#153,.T.);
#192=FACE_BOUND('',#154,.T.);
#193=FACE_BOUND('',#155,.T.);
#194=FACE_BOUND('',#156,.T.);
#195=FACE_BOUND('',#157,.T.);
#196=FACE_BOUND('',#158,.T.);
#197=FACE_BOUND('',#159,.T.);
#198=FACE_BOUND('',#160,.T.);
#199=FACE_BOUND('',#161,.T.);
#200=FACE_BOUND('',#162,.T.);
#201=FACE_BOUND('',#163,.T.);
#202=FACE_BOUND('',#164,.T.);
#203=PLANE('',#378);
#204=PLANE('',#388);
#205=PLANE('',#394);
#206=PLANE('',#395);
#207=PLANE('',#400);
#208=PLANE('',#406);
#209=PLANE('',#410);
#210=PLANE('',#416);
#211=STYLED_ITEM('',(#231),#353);
#212=STYLED_ITEM('',(#232),#354);
#213=STYLED_ITEM('',(#233),#355);
#214=STYLED_ITEM('',(#234),#356);
#215=STYLED_ITEM('',(#235),#357);
#216=STYLED_ITEM('',(#236),#358);
#217=STYLED_ITEM('',(#237),#359);
#218=STYLED_ITEM('',(#238),#360);
#219=STYLED_ITEM('',(#239),#361);
#220=STYLED_ITEM('',(#240),#362);
#221=STYLED_ITEM('',(#241),#363);
#222=STYLED_ITEM('',(#242),#364);
#223=STYLED_ITEM('',(#243),#365);
#224=STYLED_ITEM('',(#244),#366);
#225=STYLED_ITEM('',(#245),#367);
#226=STYLED_ITEM('',(#246),#368);
#227=STYLED_ITEM('',(#247),#369);
#228=STYLED_ITEM('',(#248),#370);
#229=STYLED_ITEM('',(#249),#371);
#230=STYLED_ITEM('',(#250),#372);
#231=PRESENTATION_STYLE_ASSIGNMENT((#251));
#232=PRESENTATION_STYLE_ASSIGNMENT((#252));
#233=PRESENTATION_STYLE_ASSIGNMENT((#253));
#234=PRESENTATION_STYLE_ASSIGNMENT((#254));
#235=PRESENTATION_STYLE_ASSIGNMENT((#255));
#236=PRESENTATION_STYLE_ASSIGNMENT((#256));
#237=PRESENTATION_STYLE_ASSIGNMENT((#257));
#238=PRESENTATION_STYLE_ASSIGNMENT((#258));
#239=PRESENTATION_STYLE_ASSIGNMENT((#259));
#240=PRESENTATION_STYLE_ASSIGNMENT((#260));
#241=PRESENTATION_STYLE_ASSIGNMENT((#261));
#242=PRESENTATION_STYLE_ASSIGNMENT((#262));
#243=PRESENTATION_STYLE_ASSIGNMENT((#263));
#244=PRESENTATION_STYLE_ASSIGNMENT((#264));
#245=PRESENTATION_STYLE_ASSIGNMENT((#265));
#246=PRESENTATION_STYLE_ASSIGNMENT((#266));
#247=PRESENTATION_STYLE_ASSIGNMENT((#267));
#248=PRESENTATION_STYLE_ASSIGNMENT((#268));
#249=PRESENTATION_STYLE_ASSIGNMENT((#269));
#250=PRESENTATION_STYLE_ASSIGNMENT((#270));
#251=SURFACE_STYLE_USAGE(.BOTH.,#271);
#252=SURFACE_STYLE_USAGE(.BOTH.,#272);
#253=SURFACE_STYLE_USAGE(.BOTH.,#273);
#254=SURFACE_STYLE_USAGE(.BOTH.,#274);
#255=SURFACE_STYLE_USAGE(.BOTH.,#275);
#256=SURFACE_STYLE_USAGE(.BOTH.,#276);
#257=SURFACE_STYLE_USAGE(.BOTH.,#277);
#258=SURFACE_STYLE_USAGE(.BOTH.,#278);
#259=SURFACE_STYLE_USAGE(.BOTH.,#279);
#260=SURFACE_STYLE_USAGE(.BOTH.,#280);
#261=SURFACE_STYLE_USAGE(.BOTH.,#281);
#262=SURFACE_STYLE_USAGE(.BOTH.,#282);
#263=SURFACE_STYLE_USAGE(.BOTH.,#283);
#264=SURFACE_STYLE_USAGE(.BOTH.,#284);
#265=SURFACE_STYLE_USAGE(.BOTH.,#285);
#266=SURFACE_STYLE_USAGE(.BOTH.,#286);
#267=SURFACE_STYLE_USAGE(.BOTH.,#287);
#268=SURFACE_STYLE_USAGE(.BOTH.,#288);
#269=SURFACE_STYLE_USAGE(.BOTH.,#289);
#270=SURFACE_STYLE_USAGE(.BOTH.,#290);
#271=SURFACE_SIDE_STYLE('',(#291));
#272=SURFACE_SIDE_STYLE('',(#292));
#273=SURFACE_SIDE_STYLE('',(#293));
#274=SURFACE_SIDE_STYLE('',(#294));
#275=SURFACE_SIDE_STYLE('',(#295));
#276=SURFACE_SIDE_STYLE('',(#296));
#277=SURFACE_SIDE_STYLE('',(#297));
#278=SURFACE_SIDE_STYLE('',(#298));
#279=SURFACE_SIDE_STYLE('',(#299));
#280=SURFACE_SIDE_STYLE('',(#300));
#281=SURFACE_SIDE_STYLE('',(#301));
#282=SURFACE_SIDE_STYLE('',(#302));
#283=SURFACE_SIDE_STYLE('',(#303));
#284=SURFACE_SIDE_STYLE('',(#304));
#285=SURFACE_SIDE_STYLE('',(#305));
#286=SURFACE_SIDE_STYLE('',(#306));
#287=SURFACE_SIDE_STYLE('',(#307));
#288=SURFACE_SIDE_STYLE('',(#308));
#289=SURFACE_SIDE_STYLE('',(#309));
#290=SURFACE_SIDE_STYLE('',(#310));
#291=SURFACE_STYLE_FILL_AREA(#311);
#292=SURFACE_STYLE_FILL_AREA(#312);
#293=SURFACE_STYLE_FILL_AREA(#313);
#294=SURFACE_STYLE_FILL_AREA(#314);
#295=SURFACE_STYLE_FILL_AREA(#315);
#296=SURFACE_STYLE_FILL_AREA(#316);
#297=SURFACE_STYLE_FILL_AREA(#317);
#298=SURFACE_STYLE_FILL_AREA(#318);
#299=SURFACE_STYLE_FILL_AREA(#319);
#300=SURFACE_STYLE_FILL_AREA(#320);
#301=SURFACE_STYLE_FILL_AREA(#321);
#302=SURFACE_STYLE_FILL_AREA(#322);
#303=SURFACE_STYLE_FILL_AREA(#323);
#304=SURFACE_STYLE_FILL_AREA(#324);
#305=SURFACE_STYLE_FILL_AREA(#325);
#306=SURFACE_STYLE_FILL_AREA(#326);
#307=SURFACE_STYLE_FILL_AREA(#327);
#308=SURFACE_STYLE_FILL_AREA(#328);
#309=SURFACE_STYLE_FILL_AREA(#329);
#310=SURFACE_STYLE_FILL_AREA(#330);
#311=FILL_AREA_STYLE('',(#331));
#312=FILL_AREA_STYLE('',(#332));
#313=FILL_AREA_STYLE('',(#333));
#314=FILL_AREA_STYLE('',(#334));
#315=FILL_AREA_STYLE('',(#335));
#316=FILL_AREA_STYLE('',(#336));
#317=FILL_AREA_STYLE('',(#337));
#318=FILL_AREA_STYLE('',(#338));
#319=FILL_AREA_STYLE('',(#339));
#320=FILL_AREA_STYLE('',(#340));
#321=FILL_AREA_STYLE('',(#341));
#322=FILL_AREA_STYLE('',(#342));
#323=FILL_AREA_STYLE('',(#343));
#324=FILL_AREA_STYLE('',(#344));
#325=FILL_AREA_STYLE('',(#345));
#326=FILL_AREA_STYLE('',(#346));
#327=FILL_AREA_STYLE('',(#347));
#328=FILL_AREA_STYLE('',(#348));
#329=FILL_AREA_STYLE('',(#349));
#330=FILL_AREA_STYLE('',(#350));
#331=FILL_AREA_STYLE_COLOUR('',#351);
#332=FILL_AREA_STYLE_COLOUR('',#351);
#333=FILL_AREA_STYLE_COLOUR('',#351);
#334=FILL_AREA_STYLE_COLOUR('',#351);
#335=FILL_AREA_STYLE_COLOUR('',#351);
#336=FILL_AREA_STYLE_COLOUR('',#351);
#337=FILL_AREA_STYLE_COLOUR('',#351);
#338=FILL_AREA_STYLE_COLOUR('',#351);
#339=FILL_AREA_STYLE_COLOUR('',#351);
#340=FILL_AREA_STYLE_COLOUR('',#351);
#341=FILL_AREA_STYLE_COLOUR('',#351);
#342=FILL_AREA_STYLE_COLOUR('',#351);
#343=FILL_AREA_STYLE_COLOUR('',#351);
#344=FILL_AREA_STYLE_COLOUR('',#351);
#345=FILL_AREA_STYLE_COLOUR('',#351);
#346=FILL_AREA_STYLE_COLOUR('',#352);
#347=FILL_AREA_STYLE_COLOUR('',#351);
#348=FILL_AREA_STYLE_COLOUR('',#351);
#349=FILL_AREA_STYLE_COLOUR('',#351);
#350=FILL_AREA_STYLE_COLOUR('',#351);
#351=COLOUR_RGB('',0.200000002980232,0.200000002980232,0.200000002980232);
#352=COLOUR_RGB('',0.75300002098083,0.75300002098083,0.75300002098083);
#353=ADVANCED_FACE('',(#165,#166),#203,.T.);
#354=ADVANCED_FACE('',(#167,#168),#30,.F.);
#355=ADVANCED_FACE('',(#169,#170),#23,.F.);
#356=ADVANCED_FACE('',(#171,#172),#24,.T.);
#357=ADVANCED_FACE('',(#173,#174),#204,.T.);
#358=ADVANCED_FACE('',(#175,#176),#25,.T.);
#359=ADVANCED_FACE('',(#177,#178),#31,.T.);
#360=ADVANCED_FACE('',(#179,#180),#205,.T.);
#361=ADVANCED_FACE('',(#181),#206,.F.);
#362=ADVANCED_FACE('',(#182,#183),#26,.F.);
#363=ADVANCED_FACE('',(#184,#185),#20,.T.);
#364=ADVANCED_FACE('',(#186),#207,.F.);
#365=ADVANCED_FACE('',(#187,#188),#21,.T.);
#366=ADVANCED_FACE('',(#189,#190),#27,.T.);
#367=ADVANCED_FACE('',(#191,#192),#208,.F.);
#368=ADVANCED_FACE('',(#193,#194),#28,.T.);
#369=ADVANCED_FACE('',(#195,#196),#209,.T.);
#370=ADVANCED_FACE('',(#197,#198),#29,.T.);
#371=ADVANCED_FACE('',(#199,#200),#22,.T.);
#372=ADVANCED_FACE('',(#201,#202),#210,.T.);
#373=CLOSED_SHELL('',(#353,#354,#355,#356,#357,#358,#359,#360,#361,#362,
#363,#364,#365,#366,#367,#368,#369,#370,#371,#372));
#374=MANIFOLD_SOLID_BREP('532912 MS4/D-MINI-LFX',#373);
#375=SHAPE_DEFINITION_REPRESENTATION(#562,#376);
#376=SHAPE_REPRESENTATION('532912 MS4/D-MINI-LFX',(#377),#557);
#377=AXIS2_PLACEMENT_3D('',#497,#417,#418);
#378=AXIS2_PLACEMENT_3D('',#498,#419,#420);
#379=AXIS2_PLACEMENT_3D('',#499,#421,#422);
#380=AXIS2_PLACEMENT_3D('',#501,#423,#424);
#381=AXIS2_PLACEMENT_3D('',#503,#425,#426);
#382=AXIS2_PLACEMENT_3D('',#504,#427,#428);
#383=AXIS2_PLACEMENT_3D('',#506,#429,#430);
#384=AXIS2_PLACEMENT_3D('',#508,#431,#432);
#385=AXIS2_PLACEMENT_3D('',#509,#433,#434);
#386=AXIS2_PLACEMENT_3D('',#510,#435,#436);
#387=AXIS2_PLACEMENT_3D('',#512,#437,#438);
#388=AXIS2_PLACEMENT_3D('',#514,#439,#440);
#389=AXIS2_PLACEMENT_3D('',#515,#441,#442);
#390=AXIS2_PLACEMENT_3D('',#517,#443,#444);
#391=AXIS2_PLACEMENT_3D('',#518,#445,#446);
#392=AXIS2_PLACEMENT_3D('',#520,#447,#448);
#393=AXIS2_PLACEMENT_3D('',#521,#449,#450);
#394=AXIS2_PLACEMENT_3D('',#523,#451,#452);
#395=AXIS2_PLACEMENT_3D('',#524,#453,#454);
#396=AXIS2_PLACEMENT_3D('',#525,#455,#456);
#397=AXIS2_PLACEMENT_3D('',#527,#457,#458);
#398=AXIS2_PLACEMENT_3D('',#528,#459,#460);
#399=AXIS2_PLACEMENT_3D('',#529,#461,#462);
#400=AXIS2_PLACEMENT_3D('',#531,#463,#464);
#401=AXIS2_PLACEMENT_3D('',#532,#465,#466);
#402=AXIS2_PLACEMENT_3D('',#534,#467,#468);
#403=AXIS2_PLACEMENT_3D('',#535,#469,#470);
#404=AXIS2_PLACEMENT_3D('',#537,#471,#472);
#405=AXIS2_PLACEMENT_3D('',#538,#473,#474);
#406=AXIS2_PLACEMENT_3D('',#540,#475,#476);
#407=AXIS2_PLACEMENT_3D('',#541,#477,#478);
#408=AXIS2_PLACEMENT_3D('',#543,#479,#480);
#409=AXIS2_PLACEMENT_3D('',#544,#481,#482);
#410=AXIS2_PLACEMENT_3D('',#546,#483,#484);
#411=AXIS2_PLACEMENT_3D('',#547,#485,#486);
#412=AXIS2_PLACEMENT_3D('',#549,#487,#488);
#413=AXIS2_PLACEMENT_3D('',#550,#489,#490);
#414=AXIS2_PLACEMENT_3D('',#552,#491,#492);
#415=AXIS2_PLACEMENT_3D('',#553,#493,#494);
#416=AXIS2_PLACEMENT_3D('',#555,#495,#496);
#417=DIRECTION('',(0.,0.,1.));
#418=DIRECTION('',(1.,0.,0.));
#419=DIRECTION('',(0.,-1.,0.));
#420=DIRECTION('',(0.,0.,-1.));
#421=DIRECTION('',(0.,-1.,0.));
#422=DIRECTION('',(0.,0.,-1.));
#423=DIRECTION('',(0.,-1.,0.));
#424=DIRECTION('',(0.,0.,-1.));
#425=DIRECTION('',(0.,1.,0.));
#426=DIRECTION('',(0.,0.,1.));
#427=DIRECTION('',(0.,-1.,0.));
#428=DIRECTION('',(0.,0.,-1.));
#429=DIRECTION('',(0.,-1.,0.));
#430=DIRECTION('',(0.,0.,-1.));
#431=DIRECTION('',(0.,-1.,0.));
#432=DIRECTION('',(0.,0.,-1.));
#433=DIRECTION('',(0.,-1.,0.));
#434=DIRECTION('',(0.,0.,-1.));
#435=DIRECTION('',(0.,-1.,0.));
#436=DIRECTION('',(0.,0.,-1.));
#437=DIRECTION('',(0.,-1.,0.));
#438=DIRECTION('',(0.,0.,-1.));
#439=DIRECTION('',(0.,-1.,0.));
#440=DIRECTION('',(0.,0.,-1.));
#441=DIRECTION('',(0.,-1.,0.));
#442=DIRECTION('',(0.,0.,-1.));
#443=DIRECTION('',(0.,-1.,0.));
#444=DIRECTION('',(0.,0.,-1.));
#445=DIRECTION('',(0.,-1.,0.));
#446=DIRECTION('',(0.,0.,-1.));
#447=DIRECTION('',(0.,-1.,0.));
#448=DIRECTION('',(0.,0.,-1.));
#449=DIRECTION('',(0.,-1.,0.));
#450=DIRECTION('',(0.,0.,-1.));
#451=DIRECTION('',(0.,1.,0.));
#452=DIRECTION('',(0.,0.,1.));
#453=DIRECTION('',(0.,-1.,0.));
#454=DIRECTION('',(0.,0.,-1.));
#455=DIRECTION('',(0.,-1.,0.));
#456=DIRECTION('',(0.,0.,-1.));
#457=DIRECTION('',(0.,-1.,0.));
#458=DIRECTION('',(0.,0.,-1.));
#459=DIRECTION('',(0.,1.,0.));
#460=DIRECTION('',(0.,0.,1.));
#461=DIRECTION('',(0.,-1.,0.));
#462=DIRECTION('',(0.,0.,-1.));
#463=DIRECTION('',(0.,1.,0.));
#464=DIRECTION('',(0.,0.,1.));
#465=DIRECTION('',(0.,-1.,0.));
#466=DIRECTION('',(0.,0.,-1.));
#467=DIRECTION('',(0.,-1.,0.));
#468=DIRECTION('',(0.,0.,-1.));
#469=DIRECTION('',(0.,-1.,0.));
#470=DIRECTION('',(0.,0.,-1.));
#471=DIRECTION('',(0.,-1.,0.));
#472=DIRECTION('',(0.,0.,-1.));
#473=DIRECTION('',(0.,-1.,0.));
#474=DIRECTION('',(0.,0.,-1.));
#475=DIRECTION('',(0.,-1.,0.));
#476=DIRECTION('',(0.,0.,-1.));
#477=DIRECTION('',(0.,-1.,0.));
#478=DIRECTION('',(0.,0.,-1.));
#479=DIRECTION('',(0.,-1.,0.));
#480=DIRECTION('',(0.,0.,-1.));
#481=DIRECTION('',(0.,-1.,0.));
#482=DIRECTION('',(0.,0.,-1.));
#483=DIRECTION('',(0.,-1.,0.));
#484=DIRECTION('',(0.,0.,-1.));
#485=DIRECTION('',(0.,-1.,0.));
#486=DIRECTION('',(0.,0.,-1.));
#487=DIRECTION('',(0.,-1.,0.));
#488=DIRECTION('',(0.,0.,-1.));
#489=DIRECTION('',(0.,-1.,0.));
#490=DIRECTION('',(0.,0.,-1.));
#491=DIRECTION('',(0.,-1.,0.));
#492=DIRECTION('',(0.,0.,-1.));
#493=DIRECTION('',(0.,-1.,0.));
#494=DIRECTION('',(0.,0.,-1.));
#495=DIRECTION('',(0.,1.,0.));
#496=DIRECTION('',(0.,0.,1.));
#497=CARTESIAN_POINT('',(0.,0.,0.));
#498=CARTESIAN_POINT('',(0.,62.7,-3.75));
#499=CARTESIAN_POINT('',(0.,62.7,0.));
#500=CARTESIAN_POINT('',(0.,62.7,-5.5));
#501=CARTESIAN_POINT('',(0.,62.7,0.));
#502=CARTESIAN_POINT('',(0.,62.7,-3.75));
#503=CARTESIAN_POINT('',(0.,74.95,0.));
#504=CARTESIAN_POINT('',(0.,67.9803525083439,0.));
#505=CARTESIAN_POINT('',(0.,67.9803525083439,-3.75));
#506=CARTESIAN_POINT('',(0.,74.95,0.));
#507=CARTESIAN_POINT('',(0.,74.95,-7.));
#508=CARTESIAN_POINT('',(0.,62.7,0.));
#509=CARTESIAN_POINT('',(0.,62.7,0.));
#510=CARTESIAN_POINT('',(0.,70.2,0.));
#511=CARTESIAN_POINT('',(0.,70.2,-7.5));
#512=CARTESIAN_POINT('',(0.,68.95,0.));
#513=CARTESIAN_POINT('',(0.,68.95,-7.5));
#514=CARTESIAN_POINT('',(0.,70.2,-7.5));
#515=CARTESIAN_POINT('',(0.,70.2,0.));
#516=CARTESIAN_POINT('',(0.,70.2,-9.));
#517=CARTESIAN_POINT('',(0.,62.7,0.));
#518=CARTESIAN_POINT('',(0.,74.45,0.));
#519=CARTESIAN_POINT('',(0.,74.45,-9.));
#520=CARTESIAN_POINT('',(0.,74.45,0.));
#521=CARTESIAN_POINT('',(0.,74.95,0.));
#522=CARTESIAN_POINT('',(0.,74.95,-8.5));
#523=CARTESIAN_POINT('',(0.,74.95,-8.5));
#524=CARTESIAN_POINT('',(0.,2.7,0.));
#525=CARTESIAN_POINT('',(0.,2.7,0.));
#526=CARTESIAN_POINT('',(0.,2.7,-5.5));
#527=CARTESIAN_POINT('',(0.,1.,0.));
#528=CARTESIAN_POINT('',(0.,68.95,0.));
#529=CARTESIAN_POINT('',(0.,68.2,0.));
#530=CARTESIAN_POINT('',(0.,68.2,-8.25));
#531=CARTESIAN_POINT('',(0.,1.,-8.75));
#532=CARTESIAN_POINT('',(0.,1.,0.));
#533=CARTESIAN_POINT('',(0.,1.,-8.75));
#534=CARTESIAN_POINT('',(0.,1.,0.));
#535=CARTESIAN_POINT('',(0.,1.,0.));
#536=CARTESIAN_POINT('',(0.,1.,-10.75));
#537=CARTESIAN_POINT('',(0.,1.,0.));
#538=CARTESIAN_POINT('',(0.,6.8,0.));
#539=CARTESIAN_POINT('',(0.,6.8,-10.75));
#540=CARTESIAN_POINT('',(0.,6.8,-8.5));
#541=CARTESIAN_POINT('',(0.,6.8,0.));
#542=CARTESIAN_POINT('',(0.,6.8,-8.5));
#543=CARTESIAN_POINT('',(0.,1.,0.));
#544=CARTESIAN_POINT('',(0.,62.7,0.));
#545=CARTESIAN_POINT('',(0.,62.7,-8.5));
#546=CARTESIAN_POINT('',(0.,62.7,-3.75));
#547=CARTESIAN_POINT('',(0.,62.7,0.));
#548=CARTESIAN_POINT('',(0.,62.7,-10.75));
#549=CARTESIAN_POINT('',(0.,62.7,0.));
#550=CARTESIAN_POINT('',(0.,67.7,0.));
#551=CARTESIAN_POINT('',(0.,67.7,-10.75));
#552=CARTESIAN_POINT('',(0.,67.7,0.));
#553=CARTESIAN_POINT('',(0.,68.2,0.));
#554=CARTESIAN_POINT('',(0.,68.2,-10.25));
#555=CARTESIAN_POINT('',(0.,68.2,-10.25));
#556=MECHANICAL_DESIGN_GEOMETRIC_PRESENTATION_REPRESENTATION('',(#211,#212,
#213,#214,#215,#216,#217,#218,#219,#220,#221,#222,#223,#224,#225,#226,#227,
#228,#229,#230),#557);
#557=(
GEOMETRIC_REPRESENTATION_CONTEXT(3)
GLOBAL_UNCERTAINTY_ASSIGNED_CONTEXT((#558))
GLOBAL_UNIT_ASSIGNED_CONTEXT((#561,#560,#559))
REPRESENTATION_CONTEXT('532912 MS4/D-MINI-LFX',
'TOP_LEVEL_ASSEMBLY_PART')
);
#558=UNCERTAINTY_MEASURE_WITH_UNIT(LENGTH_MEASURE(0.005),#561,
'DISTANCE_ACCURACY_VALUE','Maximum Tolerance applied to model');
#559=(
NAMED_UNIT(*)
SI_UNIT($,.STERADIAN.)
SOLID_ANGLE_UNIT()
);
#560=(
NAMED_UNIT(*)
PLANE_ANGLE_UNIT()
SI_UNIT($,.RADIAN.)
);
#561=(
LENGTH_UNIT()
NAMED_UNIT(*)
SI_UNIT(.MILLI.,.METRE.)
);
#562=PRODUCT_DEFINITION_SHAPE('','',#563);
#563=PRODUCT_DEFINITION('','',#565,#564);
#564=PRODUCT_DEFINITION_CONTEXT('',#571,'design');
#565=PRODUCT_DEFINITION_FORMATION_WITH_SPECIFIED_SOURCE('','',#567,
 .NOT_KNOWN.);
#566=PRODUCT_RELATED_PRODUCT_CATEGORY('','',(#567));
#567=PRODUCT('532912 MS4/D-MINI-LFX','532912 MS4/D-MINI-LFX',
'532912 MS4/D-MINI-LFX',(#569));
#568=PRODUCT_CATEGORY('','');
#569=PRODUCT_CONTEXT('',#571,'mechanical');
#570=APPLICATION_PROTOCOL_DEFINITION('international standard',
'automotive_design',2010,#571);
#571=APPLICATION_CONTEXT(
'core data for automotive mechanical design processes');
ENDSEC;
END-ISO-10303-21;
