ISO-10303-21;
HEADER;
/* Generated by software containing ST-Developer
 * from STEP Tools, Inc. (www.steptools.com) 
 */
/* OPTION: using custom renumber hook */

FILE_DESCRIPTION(
/* description */ ('STEP AP214'),
/* implementation_level */ '2;1');

FILE_NAME(
/* name */ '534255_SMBK-10',
/* time_stamp */ '2024-09-15T07:30:16+02:00',
/* author */ ('License CC BY-ND 4.0'),
/* organization */ ('CADENAS'),
/* preprocessor_version */ 'ST-DEVELOPER v19.3',
/* originating_system */ 'PARTsolutions',
/* authorisation */ '  ');

FILE_SCHEMA (('AUTOMOTIVE_DESIGN {1 0 10303 214 3 1 1}'));
ENDSEC;

DATA;
#10=PROPERTY_DEFINITION_REPRESENTATION(#14,#12);
#11=PROPERTY_DEFINITION_REPRESENTATION(#15,#13);
#12=REPRESENTATION('',(#16),#597);
#13=REPRESENTATION('',(#17),#597);
#14=PROPERTY_DEFINITION('pmi validation property','',#602);
#15=PROPERTY_DEFINITION('pmi validation property','',#602);
#16=VALUE_REPRESENTATION_ITEM('number of annotations',COUNT_MEASURE(0.));
#17=VALUE_REPRESENTATION_ITEM('number of views',COUNT_MEASURE(0.));
#18=SHAPE_REPRESENTATION_RELATIONSHIP('','',#359,#19);
#19=ADVANCED_BREP_SHAPE_REPRESENTATION('',(#357),#597);
#20=CIRCLE('',#363,1.8);
#21=CIRCLE('',#364,1.8);
#22=CIRCLE('',#367,0.200000000000001);
#23=CIRCLE('',#368,0.200000000000001);
#24=CIRCLE('',#371,0.200000000000001);
#25=CIRCLE('',#372,0.200000000000001);
#26=CIRCLE('',#375,0.199999999999976);
#27=CIRCLE('',#376,0.199999999999976);
#28=CIRCLE('',#379,1.25);
#29=CIRCLE('',#380,1.25);
#30=CIRCLE('',#383,0.199999999999977);
#31=CIRCLE('',#384,0.199999999999977);
#32=CIRCLE('',#387,0.2);
#33=CIRCLE('',#388,0.2);
#34=CIRCLE('',#391,0.200000000000001);
#35=CIRCLE('',#392,0.200000000000001);
#36=CYLINDRICAL_SURFACE('',#362,1.8);
#37=CYLINDRICAL_SURFACE('',#366,0.200000000000001);
#38=CYLINDRICAL_SURFACE('',#370,0.200000000000001);
#39=CYLINDRICAL_SURFACE('',#374,0.199999999999976);
#40=CYLINDRICAL_SURFACE('',#378,1.25);
#41=CYLINDRICAL_SURFACE('',#382,0.199999999999977);
#42=CYLINDRICAL_SURFACE('',#386,0.2);
#43=CYLINDRICAL_SURFACE('',#390,0.200000000000001);
#44=ORIENTED_EDGE('',*,*,#140,.F.);
#45=ORIENTED_EDGE('',*,*,#141,.F.);
#46=ORIENTED_EDGE('',*,*,#142,.T.);
#47=ORIENTED_EDGE('',*,*,#143,.T.);
#48=ORIENTED_EDGE('',*,*,#144,.F.);
#49=ORIENTED_EDGE('',*,*,#143,.F.);
#50=ORIENTED_EDGE('',*,*,#145,.T.);
#51=ORIENTED_EDGE('',*,*,#146,.T.);
#52=ORIENTED_EDGE('',*,*,#147,.F.);
#53=ORIENTED_EDGE('',*,*,#146,.F.);
#54=ORIENTED_EDGE('',*,*,#148,.T.);
#55=ORIENTED_EDGE('',*,*,#149,.T.);
#56=ORIENTED_EDGE('',*,*,#150,.F.);
#57=ORIENTED_EDGE('',*,*,#149,.F.);
#58=ORIENTED_EDGE('',*,*,#151,.T.);
#59=ORIENTED_EDGE('',*,*,#152,.T.);
#60=ORIENTED_EDGE('',*,*,#153,.F.);
#61=ORIENTED_EDGE('',*,*,#152,.F.);
#62=ORIENTED_EDGE('',*,*,#154,.T.);
#63=ORIENTED_EDGE('',*,*,#155,.T.);
#64=ORIENTED_EDGE('',*,*,#156,.F.);
#65=ORIENTED_EDGE('',*,*,#155,.F.);
#66=ORIENTED_EDGE('',*,*,#157,.T.);
#67=ORIENTED_EDGE('',*,*,#158,.T.);
#68=ORIENTED_EDGE('',*,*,#159,.F.);
#69=ORIENTED_EDGE('',*,*,#158,.F.);
#70=ORIENTED_EDGE('',*,*,#160,.T.);
#71=ORIENTED_EDGE('',*,*,#161,.T.);
#72=ORIENTED_EDGE('',*,*,#162,.F.);
#73=ORIENTED_EDGE('',*,*,#161,.F.);
#74=ORIENTED_EDGE('',*,*,#163,.T.);
#75=ORIENTED_EDGE('',*,*,#164,.T.);
#76=ORIENTED_EDGE('',*,*,#165,.F.);
#77=ORIENTED_EDGE('',*,*,#164,.F.);
#78=ORIENTED_EDGE('',*,*,#166,.T.);
#79=ORIENTED_EDGE('',*,*,#167,.T.);
#80=ORIENTED_EDGE('',*,*,#168,.T.);
#81=ORIENTED_EDGE('',*,*,#167,.F.);
#82=ORIENTED_EDGE('',*,*,#169,.F.);
#83=ORIENTED_EDGE('',*,*,#170,.T.);
#84=ORIENTED_EDGE('',*,*,#171,.F.);
#85=ORIENTED_EDGE('',*,*,#170,.F.);
#86=ORIENTED_EDGE('',*,*,#172,.T.);
#87=ORIENTED_EDGE('',*,*,#173,.T.);
#88=ORIENTED_EDGE('',*,*,#174,.F.);
#89=ORIENTED_EDGE('',*,*,#173,.F.);
#90=ORIENTED_EDGE('',*,*,#175,.T.);
#91=ORIENTED_EDGE('',*,*,#176,.T.);
#92=ORIENTED_EDGE('',*,*,#177,.F.);
#93=ORIENTED_EDGE('',*,*,#176,.F.);
#94=ORIENTED_EDGE('',*,*,#178,.T.);
#95=ORIENTED_EDGE('',*,*,#179,.T.);
#96=ORIENTED_EDGE('',*,*,#180,.F.);
#97=ORIENTED_EDGE('',*,*,#179,.F.);
#98=ORIENTED_EDGE('',*,*,#181,.T.);
#99=ORIENTED_EDGE('',*,*,#182,.T.);
#100=ORIENTED_EDGE('',*,*,#183,.F.);
#101=ORIENTED_EDGE('',*,*,#182,.F.);
#102=ORIENTED_EDGE('',*,*,#184,.T.);
#103=ORIENTED_EDGE('',*,*,#185,.T.);
#104=ORIENTED_EDGE('',*,*,#186,.F.);
#105=ORIENTED_EDGE('',*,*,#185,.F.);
#106=ORIENTED_EDGE('',*,*,#187,.T.);
#107=ORIENTED_EDGE('',*,*,#141,.T.);
#108=ORIENTED_EDGE('',*,*,#142,.F.);
#109=ORIENTED_EDGE('',*,*,#187,.F.);
#110=ORIENTED_EDGE('',*,*,#184,.F.);
#111=ORIENTED_EDGE('',*,*,#181,.F.);
#112=ORIENTED_EDGE('',*,*,#178,.F.);
#113=ORIENTED_EDGE('',*,*,#175,.F.);
#114=ORIENTED_EDGE('',*,*,#172,.F.);
#115=ORIENTED_EDGE('',*,*,#169,.T.);
#116=ORIENTED_EDGE('',*,*,#166,.F.);
#117=ORIENTED_EDGE('',*,*,#163,.F.);
#118=ORIENTED_EDGE('',*,*,#160,.F.);
#119=ORIENTED_EDGE('',*,*,#157,.F.);
#120=ORIENTED_EDGE('',*,*,#154,.F.);
#121=ORIENTED_EDGE('',*,*,#151,.F.);
#122=ORIENTED_EDGE('',*,*,#148,.F.);
#123=ORIENTED_EDGE('',*,*,#145,.F.);
#124=ORIENTED_EDGE('',*,*,#140,.T.);
#125=ORIENTED_EDGE('',*,*,#144,.T.);
#126=ORIENTED_EDGE('',*,*,#147,.T.);
#127=ORIENTED_EDGE('',*,*,#150,.T.);
#128=ORIENTED_EDGE('',*,*,#153,.T.);
#129=ORIENTED_EDGE('',*,*,#156,.T.);
#130=ORIENTED_EDGE('',*,*,#159,.T.);
#131=ORIENTED_EDGE('',*,*,#162,.T.);
#132=ORIENTED_EDGE('',*,*,#165,.T.);
#133=ORIENTED_EDGE('',*,*,#168,.F.);
#134=ORIENTED_EDGE('',*,*,#171,.T.);
#135=ORIENTED_EDGE('',*,*,#174,.T.);
#136=ORIENTED_EDGE('',*,*,#177,.T.);
#137=ORIENTED_EDGE('',*,*,#180,.T.);
#138=ORIENTED_EDGE('',*,*,#183,.T.);
#139=ORIENTED_EDGE('',*,*,#186,.T.);
#140=EDGE_CURVE('',#188,#189,#220,.T.);
#141=EDGE_CURVE('',#190,#188,#221,.T.);
#142=EDGE_CURVE('',#190,#191,#222,.T.);
#143=EDGE_CURVE('',#191,#189,#223,.T.);
#144=EDGE_CURVE('',#189,#192,#20,.T.);
#145=EDGE_CURVE('',#191,#193,#21,.T.);
#146=EDGE_CURVE('',#193,#192,#224,.T.);
#147=EDGE_CURVE('',#192,#194,#225,.T.);
#148=EDGE_CURVE('',#193,#195,#226,.T.);
#149=EDGE_CURVE('',#195,#194,#227,.T.);
#150=EDGE_CURVE('',#194,#196,#22,.T.);
#151=EDGE_CURVE('',#195,#197,#23,.T.);
#152=EDGE_CURVE('',#197,#196,#228,.T.);
#153=EDGE_CURVE('',#196,#198,#229,.T.);
#154=EDGE_CURVE('',#197,#199,#230,.T.);
#155=EDGE_CURVE('',#199,#198,#231,.T.);
#156=EDGE_CURVE('',#198,#200,#24,.T.);
#157=EDGE_CURVE('',#199,#201,#25,.T.);
#158=EDGE_CURVE('',#201,#200,#232,.T.);
#159=EDGE_CURVE('',#200,#202,#233,.T.);
#160=EDGE_CURVE('',#201,#203,#234,.T.);
#161=EDGE_CURVE('',#203,#202,#235,.T.);
#162=EDGE_CURVE('',#202,#204,#26,.T.);
#163=EDGE_CURVE('',#203,#205,#27,.T.);
#164=EDGE_CURVE('',#205,#204,#236,.T.);
#165=EDGE_CURVE('',#204,#206,#237,.T.);
#166=EDGE_CURVE('',#205,#207,#238,.T.);
#167=EDGE_CURVE('',#207,#206,#239,.T.);
#168=EDGE_CURVE('',#208,#206,#28,.T.);
#169=EDGE_CURVE('',#209,#207,#29,.T.);
#170=EDGE_CURVE('',#209,#208,#240,.T.);
#171=EDGE_CURVE('',#208,#210,#241,.T.);
#172=EDGE_CURVE('',#209,#211,#242,.T.);
#173=EDGE_CURVE('',#211,#210,#243,.T.);
#174=EDGE_CURVE('',#210,#212,#30,.T.);
#175=EDGE_CURVE('',#211,#213,#31,.T.);
#176=EDGE_CURVE('',#213,#212,#244,.T.);
#177=EDGE_CURVE('',#212,#214,#245,.T.);
#178=EDGE_CURVE('',#213,#215,#246,.T.);
#179=EDGE_CURVE('',#215,#214,#247,.T.);
#180=EDGE_CURVE('',#214,#216,#32,.T.);
#181=EDGE_CURVE('',#215,#217,#33,.T.);
#182=EDGE_CURVE('',#217,#216,#248,.T.);
#183=EDGE_CURVE('',#216,#218,#249,.T.);
#184=EDGE_CURVE('',#217,#219,#250,.T.);
#185=EDGE_CURVE('',#219,#218,#251,.T.);
#186=EDGE_CURVE('',#218,#188,#34,.T.);
#187=EDGE_CURVE('',#219,#190,#35,.T.);
#188=VERTEX_POINT('',#500);
#189=VERTEX_POINT('',#501);
#190=VERTEX_POINT('',#503);
#191=VERTEX_POINT('',#505);
#192=VERTEX_POINT('',#509);
#193=VERTEX_POINT('',#511);
#194=VERTEX_POINT('',#515);
#195=VERTEX_POINT('',#517);
#196=VERTEX_POINT('',#521);
#197=VERTEX_POINT('',#523);
#198=VERTEX_POINT('',#527);
#199=VERTEX_POINT('',#529);
#200=VERTEX_POINT('',#533);
#201=VERTEX_POINT('',#535);
#202=VERTEX_POINT('',#539);
#203=VERTEX_POINT('',#541);
#204=VERTEX_POINT('',#545);
#205=VERTEX_POINT('',#547);
#206=VERTEX_POINT('',#551);
#207=VERTEX_POINT('',#553);
#208=VERTEX_POINT('',#557);
#209=VERTEX_POINT('',#559);
#210=VERTEX_POINT('',#563);
#211=VERTEX_POINT('',#565);
#212=VERTEX_POINT('',#569);
#213=VERTEX_POINT('',#571);
#214=VERTEX_POINT('',#575);
#215=VERTEX_POINT('',#577);
#216=VERTEX_POINT('',#581);
#217=VERTEX_POINT('',#583);
#218=VERTEX_POINT('',#587);
#219=VERTEX_POINT('',#589);
#220=LINE('',#499,#252);
#221=LINE('',#502,#253);
#222=LINE('',#504,#254);
#223=LINE('',#506,#255);
#224=LINE('',#512,#256);
#225=LINE('',#514,#257);
#226=LINE('',#516,#258);
#227=LINE('',#518,#259);
#228=LINE('',#524,#260);
#229=LINE('',#526,#261);
#230=LINE('',#528,#262);
#231=LINE('',#530,#263);
#232=LINE('',#536,#264);
#233=LINE('',#538,#265);
#234=LINE('',#540,#266);
#235=LINE('',#542,#267);
#236=LINE('',#548,#268);
#237=LINE('',#550,#269);
#238=LINE('',#552,#270);
#239=LINE('',#554,#271);
#240=LINE('',#560,#272);
#241=LINE('',#562,#273);
#242=LINE('',#564,#274);
#243=LINE('',#566,#275);
#244=LINE('',#572,#276);
#245=LINE('',#574,#277);
#246=LINE('',#576,#278);
#247=LINE('',#578,#279);
#248=LINE('',#584,#280);
#249=LINE('',#586,#281);
#250=LINE('',#588,#282);
#251=LINE('',#590,#283);
#252=VECTOR('',#399,1000.);
#253=VECTOR('',#400,1000.);
#254=VECTOR('',#401,1000.);
#255=VECTOR('',#402,1000.);
#256=VECTOR('',#409,1000.);
#257=VECTOR('',#412,1000.);
#258=VECTOR('',#413,1000.);
#259=VECTOR('',#414,1000.);
#260=VECTOR('',#421,1000.);
#261=VECTOR('',#424,1000.);
#262=VECTOR('',#425,1000.);
#263=VECTOR('',#426,1000.);
#264=VECTOR('',#433,1000.);
#265=VECTOR('',#436,1000.);
#266=VECTOR('',#437,1000.);
#267=VECTOR('',#438,1000.);
#268=VECTOR('',#445,1000.);
#269=VECTOR('',#448,1000.);
#270=VECTOR('',#449,1000.);
#271=VECTOR('',#450,1000.);
#272=VECTOR('',#457,1000.);
#273=VECTOR('',#460,1000.);
#274=VECTOR('',#461,1000.);
#275=VECTOR('',#462,1000.);
#276=VECTOR('',#469,1000.);
#277=VECTOR('',#472,1000.);
#278=VECTOR('',#473,1000.);
#279=VECTOR('',#474,1000.);
#280=VECTOR('',#481,1000.);
#281=VECTOR('',#484,1000.);
#282=VECTOR('',#485,1000.);
#283=VECTOR('',#486,1000.);
#284=EDGE_LOOP('',(#44,#45,#46,#47));
#285=EDGE_LOOP('',(#48,#49,#50,#51));
#286=EDGE_LOOP('',(#52,#53,#54,#55));
#287=EDGE_LOOP('',(#56,#57,#58,#59));
#288=EDGE_LOOP('',(#60,#61,#62,#63));
#289=EDGE_LOOP('',(#64,#65,#66,#67));
#290=EDGE_LOOP('',(#68,#69,#70,#71));
#291=EDGE_LOOP('',(#72,#73,#74,#75));
#292=EDGE_LOOP('',(#76,#77,#78,#79));
#293=EDGE_LOOP('',(#80,#81,#82,#83));
#294=EDGE_LOOP('',(#84,#85,#86,#87));
#295=EDGE_LOOP('',(#88,#89,#90,#91));
#296=EDGE_LOOP('',(#92,#93,#94,#95));
#297=EDGE_LOOP('',(#96,#97,#98,#99));
#298=EDGE_LOOP('',(#100,#101,#102,#103));
#299=EDGE_LOOP('',(#104,#105,#106,#107));
#300=EDGE_LOOP('',(#108,#109,#110,#111,#112,#113,#114,#115,#116,#117,#118,
#119,#120,#121,#122,#123));
#301=EDGE_LOOP('',(#124,#125,#126,#127,#128,#129,#130,#131,#132,#133,#134,
#135,#136,#137,#138,#139));
#302=FACE_BOUND('',#284,.T.);
#303=FACE_BOUND('',#285,.T.);
#304=FACE_BOUND('',#286,.T.);
#305=FACE_BOUND('',#287,.T.);
#306=FACE_BOUND('',#288,.T.);
#307=FACE_BOUND('',#289,.T.);
#308=FACE_BOUND('',#290,.T.);
#309=FACE_BOUND('',#291,.T.);
#310=FACE_BOUND('',#292,.T.);
#311=FACE_BOUND('',#293,.T.);
#312=FACE_BOUND('',#294,.T.);
#313=FACE_BOUND('',#295,.T.);
#314=FACE_BOUND('',#296,.T.);
#315=FACE_BOUND('',#297,.T.);
#316=FACE_BOUND('',#298,.T.);
#317=FACE_BOUND('',#299,.T.);
#318=FACE_BOUND('',#300,.T.);
#319=FACE_BOUND('',#301,.T.);
#320=PLANE('',#361);
#321=PLANE('',#365);
#322=PLANE('',#369);
#323=PLANE('',#373);
#324=PLANE('',#377);
#325=PLANE('',#381);
#326=PLANE('',#385);
#327=PLANE('',#389);
#328=PLANE('',#393);
#329=PLANE('',#394);
#330=ADVANCED_FACE('',(#302),#320,.T.);
#331=ADVANCED_FACE('',(#303),#36,.T.);
#332=ADVANCED_FACE('',(#304),#321,.T.);
#333=ADVANCED_FACE('',(#305),#37,.T.);
#334=ADVANCED_FACE('',(#306),#322,.T.);
#335=ADVANCED_FACE('',(#307),#38,.T.);
#336=ADVANCED_FACE('',(#308),#323,.T.);
#337=ADVANCED_FACE('',(#309),#39,.T.);
#338=ADVANCED_FACE('',(#310),#324,.T.);
#339=ADVANCED_FACE('',(#311),#40,.F.);
#340=ADVANCED_FACE('',(#312),#325,.T.);
#341=ADVANCED_FACE('',(#313),#41,.T.);
#342=ADVANCED_FACE('',(#314),#326,.T.);
#343=ADVANCED_FACE('',(#315),#42,.T.);
#344=ADVANCED_FACE('',(#316),#327,.T.);
#345=ADVANCED_FACE('',(#317),#43,.T.);
#346=ADVANCED_FACE('',(#318),#328,.F.);
#347=ADVANCED_FACE('',(#319),#329,.T.);
#348=CLOSED_SHELL('',(#330,#331,#332,#333,#334,#335,#336,#337,#338,#339,
#340,#341,#342,#343,#344,#345,#346,#347));
#349=STYLED_ITEM('',(#350),#357);
#350=PRESENTATION_STYLE_ASSIGNMENT((#351));
#351=SURFACE_STYLE_USAGE(.BOTH.,#352);
#352=SURFACE_SIDE_STYLE('',(#353));
#353=SURFACE_STYLE_FILL_AREA(#354);
#354=FILL_AREA_STYLE('',(#355));
#355=FILL_AREA_STYLE_COLOUR('',#356);
#356=COLOUR_RGB('',0.689999997615814,0.689999997615814,0.689999997615814);
#357=MANIFOLD_SOLID_BREP('534255 SMBK-10',#348);
#358=SHAPE_DEFINITION_REPRESENTATION(#602,#359);
#359=SHAPE_REPRESENTATION('534255 SMBK-10',(#360),#597);
#360=AXIS2_PLACEMENT_3D('',#497,#395,#396);
#361=AXIS2_PLACEMENT_3D('',#498,#397,#398);
#362=AXIS2_PLACEMENT_3D('',#507,#403,#404);
#363=AXIS2_PLACEMENT_3D('',#508,#405,#406);
#364=AXIS2_PLACEMENT_3D('',#510,#407,#408);
#365=AXIS2_PLACEMENT_3D('',#513,#410,#411);
#366=AXIS2_PLACEMENT_3D('',#519,#415,#416);
#367=AXIS2_PLACEMENT_3D('',#520,#417,#418);
#368=AXIS2_PLACEMENT_3D('',#522,#419,#420);
#369=AXIS2_PLACEMENT_3D('',#525,#422,#423);
#370=AXIS2_PLACEMENT_3D('',#531,#427,#428);
#371=AXIS2_PLACEMENT_3D('',#532,#429,#430);
#372=AXIS2_PLACEMENT_3D('',#534,#431,#432);
#373=AXIS2_PLACEMENT_3D('',#537,#434,#435);
#374=AXIS2_PLACEMENT_3D('',#543,#439,#440);
#375=AXIS2_PLACEMENT_3D('',#544,#441,#442);
#376=AXIS2_PLACEMENT_3D('',#546,#443,#444);
#377=AXIS2_PLACEMENT_3D('',#549,#446,#447);
#378=AXIS2_PLACEMENT_3D('',#555,#451,#452);
#379=AXIS2_PLACEMENT_3D('',#556,#453,#454);
#380=AXIS2_PLACEMENT_3D('',#558,#455,#456);
#381=AXIS2_PLACEMENT_3D('',#561,#458,#459);
#382=AXIS2_PLACEMENT_3D('',#567,#463,#464);
#383=AXIS2_PLACEMENT_3D('',#568,#465,#466);
#384=AXIS2_PLACEMENT_3D('',#570,#467,#468);
#385=AXIS2_PLACEMENT_3D('',#573,#470,#471);
#386=AXIS2_PLACEMENT_3D('',#579,#475,#476);
#387=AXIS2_PLACEMENT_3D('',#580,#477,#478);
#388=AXIS2_PLACEMENT_3D('',#582,#479,#480);
#389=AXIS2_PLACEMENT_3D('',#585,#482,#483);
#390=AXIS2_PLACEMENT_3D('',#591,#487,#488);
#391=AXIS2_PLACEMENT_3D('',#592,#489,#490);
#392=AXIS2_PLACEMENT_3D('',#593,#491,#492);
#393=AXIS2_PLACEMENT_3D('',#594,#493,#494);
#394=AXIS2_PLACEMENT_3D('',#595,#495,#496);
#395=DIRECTION('',(0.,0.,1.));
#396=DIRECTION('',(1.,0.,0.));
#397=DIRECTION('',(-1.,0.,0.));
#398=DIRECTION('',(0.,0.,1.));
#399=DIRECTION('',(0.,-1.,0.));
#400=DIRECTION('',(0.,0.,1.));
#401=DIRECTION('',(0.,-1.,0.));
#402=DIRECTION('',(0.,0.,1.));
#403=DIRECTION('',(0.,0.,1.));
#404=DIRECTION('',(1.,0.,0.));
#405=DIRECTION('',(0.,0.,1.));
#406=DIRECTION('',(1.,0.,0.));
#407=DIRECTION('',(0.,0.,1.));
#408=DIRECTION('',(1.,0.,0.));
#409=DIRECTION('',(0.,0.,1.));
#410=DIRECTION('',(1.,0.,0.));
#411=DIRECTION('',(0.,0.,-1.));
#412=DIRECTION('',(0.,1.,0.));
#413=DIRECTION('',(0.,1.,0.));
#414=DIRECTION('',(0.,0.,1.));
#415=DIRECTION('',(0.,0.,1.));
#416=DIRECTION('',(1.,0.,0.));
#417=DIRECTION('',(0.,0.,1.));
#418=DIRECTION('',(1.,0.,0.));
#419=DIRECTION('',(0.,0.,1.));
#420=DIRECTION('',(1.,0.,0.));
#421=DIRECTION('',(0.,0.,1.));
#422=DIRECTION('',(0.,1.,0.));
#423=DIRECTION('',(0.,0.,1.));
#424=DIRECTION('',(-1.,0.,0.));
#425=DIRECTION('',(-1.,0.,0.));
#426=DIRECTION('',(0.,0.,1.));
#427=DIRECTION('',(0.,0.,1.));
#428=DIRECTION('',(1.,0.,0.));
#429=DIRECTION('',(0.,0.,1.));
#430=DIRECTION('',(1.,0.,0.));
#431=DIRECTION('',(0.,0.,1.));
#432=DIRECTION('',(1.,0.,0.));
#433=DIRECTION('',(0.,0.,1.));
#434=DIRECTION('',(-1.,0.,0.));
#435=DIRECTION('',(0.,0.,1.));
#436=DIRECTION('',(0.,-1.,0.));
#437=DIRECTION('',(0.,-1.,0.));
#438=DIRECTION('',(0.,0.,1.));
#439=DIRECTION('',(0.,0.,1.));
#440=DIRECTION('',(1.,0.,0.));
#441=DIRECTION('',(0.,0.,1.));
#442=DIRECTION('',(1.,0.,0.));
#443=DIRECTION('',(0.,0.,1.));
#444=DIRECTION('',(1.,0.,0.));
#445=DIRECTION('',(0.,0.,1.));
#446=DIRECTION('',(-0.898794046299167,-0.438371146789078,0.));
#447=DIRECTION('',(0.438371146789078,-0.898794046299167,0.));
#448=DIRECTION('',(0.438371146789077,-0.898794046299167,0.));
#449=DIRECTION('',(0.438371146789077,-0.898794046299167,0.));
#450=DIRECTION('',(0.,0.,1.));
#451=DIRECTION('',(0.,0.,1.));
#452=DIRECTION('',(1.,0.,0.));
#453=DIRECTION('',(0.,0.,1.));
#454=DIRECTION('',(1.,0.,0.));
#455=DIRECTION('',(0.,0.,1.));
#456=DIRECTION('',(1.,0.,0.));
#457=DIRECTION('',(0.,0.,1.));
#458=DIRECTION('',(0.898794046299167,-0.438371146789078,0.));
#459=DIRECTION('',(0.438371146789078,0.898794046299167,0.));
#460=DIRECTION('',(0.438371146789078,0.898794046299167,0.));
#461=DIRECTION('',(0.438371146789078,0.898794046299167,0.));
#462=DIRECTION('',(0.,0.,1.));
#463=DIRECTION('',(0.,0.,1.));
#464=DIRECTION('',(1.,0.,0.));
#465=DIRECTION('',(0.,0.,1.));
#466=DIRECTION('',(1.,0.,0.));
#467=DIRECTION('',(0.,0.,1.));
#468=DIRECTION('',(1.,0.,0.));
#469=DIRECTION('',(0.,0.,1.));
#470=DIRECTION('',(1.,0.,0.));
#471=DIRECTION('',(0.,0.,-1.));
#472=DIRECTION('',(0.,1.,0.));
#473=DIRECTION('',(0.,1.,0.));
#474=DIRECTION('',(0.,0.,1.));
#475=DIRECTION('',(0.,0.,1.));
#476=DIRECTION('',(1.,0.,0.));
#477=DIRECTION('',(0.,0.,1.));
#478=DIRECTION('',(1.,0.,0.));
#479=DIRECTION('',(0.,0.,1.));
#480=DIRECTION('',(1.,0.,0.));
#481=DIRECTION('',(0.,0.,1.));
#482=DIRECTION('',(0.,1.,0.));
#483=DIRECTION('',(0.,0.,1.));
#484=DIRECTION('',(-1.,0.,0.));
#485=DIRECTION('',(-1.,0.,0.));
#486=DIRECTION('',(0.,0.,1.));
#487=DIRECTION('',(0.,0.,1.));
#488=DIRECTION('',(1.,0.,0.));
#489=DIRECTION('',(0.,0.,1.));
#490=DIRECTION('',(1.,0.,0.));
#491=DIRECTION('',(0.,0.,1.));
#492=DIRECTION('',(1.,0.,0.));
#493=DIRECTION('',(0.,0.,1.));
#494=DIRECTION('',(1.,0.,0.));
#495=DIRECTION('',(0.,0.,1.));
#496=DIRECTION('',(1.,0.,0.));
#497=CARTESIAN_POINT('',(0.,0.,0.));
#498=CARTESIAN_POINT('',(-1.5,2.4,-5.));
#499=CARTESIAN_POINT('',(-1.5,2.4,0.));
#500=CARTESIAN_POINT('',(-1.5,2.4,0.));
#501=CARTESIAN_POINT('',(-1.5,0.99498743710662,0.));
#502=CARTESIAN_POINT('',(-1.5,2.4,-5.));
#503=CARTESIAN_POINT('',(-1.5,2.4,-5.));
#504=CARTESIAN_POINT('',(-1.5,2.4,-5.));
#505=CARTESIAN_POINT('',(-1.5,0.99498743710662,-5.));
#506=CARTESIAN_POINT('',(-1.5,0.99498743710662,-5.));
#507=CARTESIAN_POINT('',(-1.0842021724855E-16,-2.16840434497101E-16,-5.));
#508=CARTESIAN_POINT('',(-1.0842021724855E-16,-2.16840434497101E-16,0.));
#509=CARTESIAN_POINT('',(1.5,0.994987437106621,0.));
#510=CARTESIAN_POINT('',(-1.0842021724855E-16,-2.16840434497101E-16,-5.));
#511=CARTESIAN_POINT('',(1.5,0.994987437106621,-5.));
#512=CARTESIAN_POINT('',(1.5,0.994987437106621,-5.));
#513=CARTESIAN_POINT('',(1.5,0.99498743710662,-5.));
#514=CARTESIAN_POINT('',(1.5,0.99498743710662,0.));
#515=CARTESIAN_POINT('',(1.5,2.4,0.));
#516=CARTESIAN_POINT('',(1.5,0.99498743710662,-5.));
#517=CARTESIAN_POINT('',(1.5,2.4,-5.));
#518=CARTESIAN_POINT('',(1.5,2.4,-5.));
#519=CARTESIAN_POINT('',(1.3,2.4,-5.));
#520=CARTESIAN_POINT('',(1.3,2.4,0.));
#521=CARTESIAN_POINT('',(1.3,2.6,0.));
#522=CARTESIAN_POINT('',(1.3,2.4,-5.));
#523=CARTESIAN_POINT('',(1.3,2.6,-5.));
#524=CARTESIAN_POINT('',(1.3,2.6,-5.));
#525=CARTESIAN_POINT('',(1.3,2.6,-5.));
#526=CARTESIAN_POINT('',(1.3,2.6,0.));
#527=CARTESIAN_POINT('',(0.442714601130956,2.6,0.));
#528=CARTESIAN_POINT('',(1.3,2.6,-5.));
#529=CARTESIAN_POINT('',(0.442714601130956,2.6,-5.));
#530=CARTESIAN_POINT('',(0.442714601130956,2.6,-5.));
#531=CARTESIAN_POINT('',(0.442714601130957,2.4,-5.));
#532=CARTESIAN_POINT('',(0.442714601130957,2.4,0.));
#533=CARTESIAN_POINT('',(0.25,2.45348908777439,0.));
#534=CARTESIAN_POINT('',(0.442714601130957,2.4,-5.));
#535=CARTESIAN_POINT('',(0.25,2.45348908777439,-5.));
#536=CARTESIAN_POINT('',(0.25,2.45348908777439,-5.));
#537=CARTESIAN_POINT('',(0.25,2.45348908777439,-5.));
#538=CARTESIAN_POINT('',(0.25,2.45348908777439,0.));
#539=CARTESIAN_POINT('',(0.25,2.34651091222561,0.));
#540=CARTESIAN_POINT('',(0.25,2.45348908777439,-5.));
#541=CARTESIAN_POINT('',(0.25,2.34651091222561,-5.));
#542=CARTESIAN_POINT('',(0.25,2.34651091222561,-5.));
#543=CARTESIAN_POINT('',(0.442714601130934,2.39999999999999,-5.));
#544=CARTESIAN_POINT('',(0.442714601130934,2.39999999999999,0.));
#545=CARTESIAN_POINT('',(0.262955791871123,2.31232577064218,0.));
#546=CARTESIAN_POINT('',(0.442714601130934,2.39999999999999,-5.));
#547=CARTESIAN_POINT('',(0.262955791871123,2.31232577064218,-5.));
#548=CARTESIAN_POINT('',(0.262955791871123,2.31232577064218,-5.));
#549=CARTESIAN_POINT('',(0.262955791871123,2.31232577064218,-5.));
#550=CARTESIAN_POINT('',(0.262955791871123,2.31232577064218,0.));
#551=CARTESIAN_POINT('',(1.12349255787396,0.547963933486347,0.));
#552=CARTESIAN_POINT('',(0.262955791871123,2.31232577064218,-5.));
#553=CARTESIAN_POINT('',(1.12349255787396,0.547963933486347,-5.));
#554=CARTESIAN_POINT('',(1.12349255787396,0.547963933486347,-5.));
#555=CARTESIAN_POINT('',(-3.25260651745651E-16,2.16840434497101E-16,-5.));
#556=CARTESIAN_POINT('',(-3.25260651745651E-16,2.16840434497101E-16,0.));
#557=CARTESIAN_POINT('',(-1.12349255787396,0.547963933486346,0.));
#558=CARTESIAN_POINT('',(-3.25260651745651E-16,2.16840434497101E-16,-5.));
#559=CARTESIAN_POINT('',(-1.12349255787396,0.547963933486346,-5.));
#560=CARTESIAN_POINT('',(-1.12349255787396,0.547963933486346,-5.));
#561=CARTESIAN_POINT('',(-1.12349255787396,0.547963933486347,-5.));
#562=CARTESIAN_POINT('',(-1.12349255787396,0.547963933486347,0.));
#563=CARTESIAN_POINT('',(-0.262955791871123,2.31232577064218,0.));
#564=CARTESIAN_POINT('',(-1.12349255787396,0.547963933486347,-5.));
#565=CARTESIAN_POINT('',(-0.262955791871123,2.31232577064218,-5.));
#566=CARTESIAN_POINT('',(-0.262955791871123,2.31232577064218,-5.));
#567=CARTESIAN_POINT('',(-0.442714601130934,2.39999999999999,-5.));
#568=CARTESIAN_POINT('',(-0.442714601130934,2.39999999999999,0.));
#569=CARTESIAN_POINT('',(-0.25,2.34651091222561,0.));
#570=CARTESIAN_POINT('',(-0.442714601130934,2.39999999999999,-5.));
#571=CARTESIAN_POINT('',(-0.25,2.34651091222561,-5.));
#572=CARTESIAN_POINT('',(-0.25,2.34651091222561,-5.));
#573=CARTESIAN_POINT('',(-0.25,2.34651091222561,-5.));
#574=CARTESIAN_POINT('',(-0.25,2.34651091222561,0.));
#575=CARTESIAN_POINT('',(-0.25,2.45348908777439,0.));
#576=CARTESIAN_POINT('',(-0.25,2.34651091222561,-5.));
#577=CARTESIAN_POINT('',(-0.25,2.45348908777439,-5.));
#578=CARTESIAN_POINT('',(-0.25,2.45348908777439,-5.));
#579=CARTESIAN_POINT('',(-0.442714601130957,2.4,-5.));
#580=CARTESIAN_POINT('',(-0.442714601130957,2.4,0.));
#581=CARTESIAN_POINT('',(-0.442714601130956,2.6,0.));
#582=CARTESIAN_POINT('',(-0.442714601130957,2.4,-5.));
#583=CARTESIAN_POINT('',(-0.442714601130956,2.6,-5.));
#584=CARTESIAN_POINT('',(-0.442714601130956,2.6,-5.));
#585=CARTESIAN_POINT('',(-0.442714601130956,2.6,-5.));
#586=CARTESIAN_POINT('',(-0.442714601130956,2.6,0.));
#587=CARTESIAN_POINT('',(-1.3,2.6,0.));
#588=CARTESIAN_POINT('',(-0.442714601130956,2.6,-5.));
#589=CARTESIAN_POINT('',(-1.3,2.6,-5.));
#590=CARTESIAN_POINT('',(-1.3,2.6,-5.));
#591=CARTESIAN_POINT('',(-1.3,2.4,-5.));
#592=CARTESIAN_POINT('',(-1.3,2.4,0.));
#593=CARTESIAN_POINT('',(-1.3,2.4,-5.));
#594=CARTESIAN_POINT('',(-1.0842021724855E-16,-2.16840434497101E-16,-5.));
#595=CARTESIAN_POINT('',(-1.0842021724855E-16,-2.16840434497101E-16,0.));
#596=MECHANICAL_DESIGN_GEOMETRIC_PRESENTATION_REPRESENTATION('',(#349),
#597);
#597=(
GEOMETRIC_REPRESENTATION_CONTEXT(3)
GLOBAL_UNCERTAINTY_ASSIGNED_CONTEXT((#598))
GLOBAL_UNIT_ASSIGNED_CONTEXT((#601,#600,#599))
REPRESENTATION_CONTEXT('534255 SMBK-10','TOP_LEVEL_ASSEMBLY_PART')
);
#598=UNCERTAINTY_MEASURE_WITH_UNIT(LENGTH_MEASURE(0.005),#601,
'DISTANCE_ACCURACY_VALUE','Maximum Tolerance applied to model');
#599=(
NAMED_UNIT(*)
SI_UNIT($,.STERADIAN.)
SOLID_ANGLE_UNIT()
);
#600=(
NAMED_UNIT(*)
PLANE_ANGLE_UNIT()
SI_UNIT($,.RADIAN.)
);
#601=(
LENGTH_UNIT()
NAMED_UNIT(*)
SI_UNIT(.MILLI.,.METRE.)
);
#602=PRODUCT_DEFINITION_SHAPE('','',#603);
#603=PRODUCT_DEFINITION('','',#605,#604);
#604=PRODUCT_DEFINITION_CONTEXT('',#611,'design');
#605=PRODUCT_DEFINITION_FORMATION_WITH_SPECIFIED_SOURCE('','',#607,
 .NOT_KNOWN.);
#606=PRODUCT_RELATED_PRODUCT_CATEGORY('','',(#607));
#607=PRODUCT('534255 SMBK-10','534255 SMBK-10','534255 SMBK-10',(#609));
#608=PRODUCT_CATEGORY('','');
#609=PRODUCT_CONTEXT('',#611,'mechanical');
#610=APPLICATION_PROTOCOL_DEFINITION('international standard',
'automotive_design',2010,#611);
#611=APPLICATION_CONTEXT(
'core data for automotive mechanical design processes');
ENDSEC;
END-ISO-10303-21;
