ISO-10303-21;
HEADER;
/* Generated by software containing ST-Developer
 * from STEP Tools, Inc. (www.steptools.com) 
 */
/* OPTION: using custom renumber hook */

FILE_DESCRIPTION(
/* description */ ('STEP AP214'),
/* implementation_level */ '2;1');

FILE_NAME(
/* name */ '537811_VAM-63-V1_0-R1_4-EN',
/* time_stamp */ '2024-09-11T10:32:10+02:00',
/* author */ ('License CC BY-ND 4.0'),
/* organization */ ('CADENAS'),
/* preprocessor_version */ 'ST-DEVELOPER v19.3',
/* originating_system */ 'PARTsolutions',
/* authorisation */ '  ');

FILE_SCHEMA (('AUTOMOTIVE_DESIGN {1 0 10303 214 3 1 1}'));
ENDSEC;

DATA;
#10=PROPERTY_DEFINITION_REPRESENTATION(#14,#12);
#11=PROPERTY_DEFINITION_REPRESENTATION(#15,#13);
#12=REPRESENTATION('',(#16),#441);
#13=REPRESENTATION('',(#17),#441);
#14=PROPERTY_DEFINITION('pmi validation property','',#446);
#15=PROPERTY_DEFINITION('pmi validation property','',#446);
#16=VALUE_REPRESENTATION_ITEM('number of annotations',COUNT_MEASURE(0.));
#17=VALUE_REPRESENTATION_ITEM('number of views',COUNT_MEASURE(0.));
#18=SHAPE_REPRESENTATION_RELATIONSHIP('','',#248,#19);
#19=ADVANCED_BREP_SHAPE_REPRESENTATION('',(#246),#441);
#20=CONICAL_SURFACE('',#273,5.53518274871162,0.785398163397444);
#21=CONICAL_SURFACE('',#275,6.41876787145694,0.0312094049979787);
#22=DEGENERATE_TOROIDAL_SURFACE('',#263,6.02008064647253,8.00000000000006,
 .T.);
#23=DEGENERATE_TOROIDAL_SURFACE('',#265,6.02008064647253,8.00000000000006,
 .T.);
#24=DEGENERATE_TOROIDAL_SURFACE('',#267,6.02008064647253,8.00000000000006,
 .T.);
#25=DEGENERATE_TOROIDAL_SURFACE('',#269,6.02008064647253,8.00000000000006,
 .T.);
#26=CYLINDRICAL_SURFACE('',#258,31.);
#27=TOROIDAL_SURFACE('',#256,29.,2.);
#28=TOROIDAL_SURFACE('',#260,30.5,0.499999999999994);
#29=CIRCLE('',#255,29.);
#30=CIRCLE('',#257,31.);
#31=CIRCLE('',#259,31.);
#32=CIRCLE('',#261,30.5);
#33=CIRCLE('',#264,7.);
#34=CIRCLE('',#266,7.);
#35=CIRCLE('',#268,7.00000000000001);
#36=CIRCLE('',#270,7.);
#37=CIRCLE('',#272,5.53518274871162);
#38=CIRCLE('',#274,6.41876787145694);
#39=CIRCLE('',#276,6.79703679316978);
#40=LINE('',#353,#48);
#41=LINE('',#355,#49);
#42=LINE('',#357,#50);
#43=LINE('',#371,#51);
#44=LINE('',#373,#52);
#45=LINE('',#387,#53);
#46=LINE('',#389,#54);
#47=LINE('',#403,#55);
#48=VECTOR('',#282,1000.);
#49=VECTOR('',#283,1000.);
#50=VECTOR('',#284,1000.);
#51=VECTOR('',#287,1000.);
#52=VECTOR('',#288,1000.);
#53=VECTOR('',#291,1000.);
#54=VECTOR('',#292,1000.);
#55=VECTOR('',#295,1000.);
#56=ORIENTED_EDGE('',*,*,#110,.F.);
#57=ORIENTED_EDGE('',*,*,#111,.F.);
#58=ORIENTED_EDGE('',*,*,#112,.F.);
#59=ORIENTED_EDGE('',*,*,#113,.T.);
#60=ORIENTED_EDGE('',*,*,#114,.F.);
#61=ORIENTED_EDGE('',*,*,#115,.F.);
#62=ORIENTED_EDGE('',*,*,#113,.F.);
#63=ORIENTED_EDGE('',*,*,#116,.F.);
#64=ORIENTED_EDGE('',*,*,#117,.T.);
#65=ORIENTED_EDGE('',*,*,#118,.F.);
#66=ORIENTED_EDGE('',*,*,#119,.F.);
#67=ORIENTED_EDGE('',*,*,#117,.F.);
#68=ORIENTED_EDGE('',*,*,#120,.F.);
#69=ORIENTED_EDGE('',*,*,#121,.T.);
#70=ORIENTED_EDGE('',*,*,#122,.F.);
#71=ORIENTED_EDGE('',*,*,#123,.F.);
#72=ORIENTED_EDGE('',*,*,#121,.F.);
#73=ORIENTED_EDGE('',*,*,#124,.F.);
#74=ORIENTED_EDGE('',*,*,#111,.T.);
#75=ORIENTED_EDGE('',*,*,#125,.F.);
#76=ORIENTED_EDGE('',*,*,#126,.F.);
#77=ORIENTED_EDGE('',*,*,#112,.T.);
#78=ORIENTED_EDGE('',*,*,#124,.T.);
#79=ORIENTED_EDGE('',*,*,#120,.T.);
#80=ORIENTED_EDGE('',*,*,#116,.T.);
#81=ORIENTED_EDGE('',*,*,#126,.T.);
#82=ORIENTED_EDGE('',*,*,#127,.F.);
#83=ORIENTED_EDGE('',*,*,#128,.F.);
#84=ORIENTED_EDGE('',*,*,#127,.T.);
#85=ORIENTED_EDGE('',*,*,#128,.T.);
#86=ORIENTED_EDGE('',*,*,#129,.F.);
#87=ORIENTED_EDGE('',*,*,#129,.T.);
#88=ORIENTED_EDGE('',*,*,#122,.T.);
#89=ORIENTED_EDGE('',*,*,#123,.T.);
#90=ORIENTED_EDGE('',*,*,#130,.T.);
#91=ORIENTED_EDGE('',*,*,#110,.T.);
#92=ORIENTED_EDGE('',*,*,#131,.T.);
#93=ORIENTED_EDGE('',*,*,#125,.T.);
#94=ORIENTED_EDGE('',*,*,#114,.T.);
#95=ORIENTED_EDGE('',*,*,#115,.T.);
#96=ORIENTED_EDGE('',*,*,#132,.T.);
#97=ORIENTED_EDGE('',*,*,#118,.T.);
#98=ORIENTED_EDGE('',*,*,#119,.T.);
#99=ORIENTED_EDGE('',*,*,#133,.T.);
#100=ORIENTED_EDGE('',*,*,#134,.F.);
#101=ORIENTED_EDGE('',*,*,#135,.F.);
#102=ORIENTED_EDGE('',*,*,#134,.T.);
#103=ORIENTED_EDGE('',*,*,#136,.F.);
#104=ORIENTED_EDGE('',*,*,#135,.T.);
#105=ORIENTED_EDGE('',*,*,#132,.F.);
#106=ORIENTED_EDGE('',*,*,#133,.F.);
#107=ORIENTED_EDGE('',*,*,#130,.F.);
#108=ORIENTED_EDGE('',*,*,#131,.F.);
#109=ORIENTED_EDGE('',*,*,#136,.T.);
#110=EDGE_CURVE('',#137,#138,#156,.T.);
#111=EDGE_CURVE('',#139,#137,#40,.T.);
#112=EDGE_CURVE('',#140,#139,#41,.T.);
#113=EDGE_CURVE('',#140,#141,#42,.T.);
#114=EDGE_CURVE('',#138,#141,#157,.T.);
#115=EDGE_CURVE('',#141,#142,#158,.T.);
#116=EDGE_CURVE('',#143,#140,#43,.T.);
#117=EDGE_CURVE('',#143,#144,#44,.T.);
#118=EDGE_CURVE('',#142,#144,#159,.T.);
#119=EDGE_CURVE('',#144,#145,#160,.T.);
#120=EDGE_CURVE('',#146,#143,#45,.T.);
#121=EDGE_CURVE('',#146,#147,#46,.T.);
#122=EDGE_CURVE('',#145,#147,#161,.T.);
#123=EDGE_CURVE('',#147,#148,#162,.T.);
#124=EDGE_CURVE('',#139,#146,#47,.T.);
#125=EDGE_CURVE('',#148,#137,#163,.T.);
#126=EDGE_CURVE('',#149,#149,#29,.T.);
#127=EDGE_CURVE('',#150,#150,#30,.T.);
#128=EDGE_CURVE('',#151,#151,#31,.T.);
#129=EDGE_CURVE('',#152,#152,#32,.T.);
#130=EDGE_CURVE('',#148,#145,#33,.T.);
#131=EDGE_CURVE('',#138,#148,#34,.T.);
#132=EDGE_CURVE('',#142,#138,#35,.T.);
#133=EDGE_CURVE('',#145,#142,#36,.T.);
#134=EDGE_CURVE('',#153,#153,#37,.T.);
#135=EDGE_CURVE('',#154,#154,#38,.T.);
#136=EDGE_CURVE('',#155,#155,#39,.T.);
#137=VERTEX_POINT('',#351);
#138=VERTEX_POINT('',#352);
#139=VERTEX_POINT('',#354);
#140=VERTEX_POINT('',#356);
#141=VERTEX_POINT('',#358);
#142=VERTEX_POINT('',#370);
#143=VERTEX_POINT('',#372);
#144=VERTEX_POINT('',#374);
#145=VERTEX_POINT('',#386);
#146=VERTEX_POINT('',#388);
#147=VERTEX_POINT('',#390);
#148=VERTEX_POINT('',#402);
#149=VERTEX_POINT('',#411);
#150=VERTEX_POINT('',#414);
#151=VERTEX_POINT('',#417);
#152=VERTEX_POINT('',#420);
#153=VERTEX_POINT('',#432);
#154=VERTEX_POINT('',#435);
#155=VERTEX_POINT('',#438);
#156=B_SPLINE_CURVE_WITH_KNOTS('',3,(#346,#347,#348,#349,#350),
 .UNSPECIFIED.,.F.,.F.,(4,1,4),(0.0187214792545693,0.0222949005907436,0.0258683219269178),
 .UNSPECIFIED.);
#157=B_SPLINE_CURVE_WITH_KNOTS('',3,(#359,#360,#361,#362,#363),
 .UNSPECIFIED.,.F.,.F.,(4,1,4),(0.0258683219269178,0.0294388248359262,0.0330093277449347),
 .UNSPECIFIED.);
#158=B_SPLINE_CURVE_WITH_KNOTS('',3,(#365,#366,#367,#368,#369),
 .UNSPECIFIED.,.F.,.F.,(4,1,4),(0.0187214792545693,0.0222949005907436,0.0258683219269178),
 .UNSPECIFIED.);
#159=B_SPLINE_CURVE_WITH_KNOTS('',3,(#375,#376,#377,#378,#379),
 .UNSPECIFIED.,.F.,.F.,(4,1,4),(0.0258683219269178,0.0294388248359262,0.0330093277449347),
 .UNSPECIFIED.);
#160=B_SPLINE_CURVE_WITH_KNOTS('',3,(#381,#382,#383,#384,#385),
 .UNSPECIFIED.,.F.,.F.,(4,1,4),(0.0187214792545693,0.0222949005907436,0.0258683219269178),
 .UNSPECIFIED.);
#161=B_SPLINE_CURVE_WITH_KNOTS('',3,(#391,#392,#393,#394,#395),
 .UNSPECIFIED.,.F.,.F.,(4,1,4),(0.0258683219269178,0.0294388248359262,0.0330093277449347),
 .UNSPECIFIED.);
#162=B_SPLINE_CURVE_WITH_KNOTS('',3,(#397,#398,#399,#400,#401),
 .UNSPECIFIED.,.F.,.F.,(4,1,4),(0.0187214792545693,0.0222949005907435,0.0258683219269178),
 .UNSPECIFIED.);
#163=B_SPLINE_CURVE_WITH_KNOTS('',3,(#404,#405,#406,#407,#408),
 .UNSPECIFIED.,.F.,.F.,(4,1,4),(0.0258683219269178,0.0294388248359263,0.0330093277449348),
 .UNSPECIFIED.);
#164=EDGE_LOOP('',(#56,#57,#58,#59,#60));
#165=EDGE_LOOP('',(#61,#62,#63,#64,#65));
#166=EDGE_LOOP('',(#66,#67,#68,#69,#70));
#167=EDGE_LOOP('',(#71,#72,#73,#74,#75));
#168=EDGE_LOOP('',(#76));
#169=EDGE_LOOP('',(#77,#78,#79,#80));
#170=EDGE_LOOP('',(#81));
#171=EDGE_LOOP('',(#82));
#172=EDGE_LOOP('',(#83));
#173=EDGE_LOOP('',(#84));
#174=EDGE_LOOP('',(#85));
#175=EDGE_LOOP('',(#86));
#176=EDGE_LOOP('',(#87));
#177=EDGE_LOOP('',(#88,#89,#90));
#178=EDGE_LOOP('',(#91,#92,#93));
#179=EDGE_LOOP('',(#94,#95,#96));
#180=EDGE_LOOP('',(#97,#98,#99));
#181=EDGE_LOOP('',(#100));
#182=EDGE_LOOP('',(#101));
#183=EDGE_LOOP('',(#102));
#184=EDGE_LOOP('',(#103));
#185=EDGE_LOOP('',(#104));
#186=EDGE_LOOP('',(#105,#106,#107,#108));
#187=EDGE_LOOP('',(#109));
#188=FACE_BOUND('',#164,.T.);
#189=FACE_BOUND('',#165,.T.);
#190=FACE_BOUND('',#166,.T.);
#191=FACE_BOUND('',#167,.T.);
#192=FACE_BOUND('',#168,.T.);
#193=FACE_BOUND('',#169,.T.);
#194=FACE_BOUND('',#170,.T.);
#195=FACE_BOUND('',#171,.T.);
#196=FACE_BOUND('',#172,.T.);
#197=FACE_BOUND('',#173,.T.);
#198=FACE_BOUND('',#174,.T.);
#199=FACE_BOUND('',#175,.T.);
#200=FACE_BOUND('',#176,.T.);
#201=FACE_BOUND('',#177,.T.);
#202=FACE_BOUND('',#178,.T.);
#203=FACE_BOUND('',#179,.T.);
#204=FACE_BOUND('',#180,.T.);
#205=FACE_BOUND('',#181,.T.);
#206=FACE_BOUND('',#182,.T.);
#207=FACE_BOUND('',#183,.T.);
#208=FACE_BOUND('',#184,.T.);
#209=FACE_BOUND('',#185,.T.);
#210=FACE_BOUND('',#186,.T.);
#211=FACE_BOUND('',#187,.T.);
#212=PLANE('',#250);
#213=PLANE('',#251);
#214=PLANE('',#252);
#215=PLANE('',#253);
#216=PLANE('',#254);
#217=PLANE('',#262);
#218=PLANE('',#271);
#219=PLANE('',#277);
#220=ADVANCED_FACE('',(#188),#212,.F.);
#221=ADVANCED_FACE('',(#189),#213,.F.);
#222=ADVANCED_FACE('',(#190),#214,.F.);
#223=ADVANCED_FACE('',(#191),#215,.F.);
#224=ADVANCED_FACE('',(#192,#193),#216,.F.);
#225=ADVANCED_FACE('',(#194,#195),#27,.T.);
#226=ADVANCED_FACE('',(#196,#197),#26,.T.);
#227=ADVANCED_FACE('',(#198,#199),#28,.T.);
#228=ADVANCED_FACE('',(#200),#217,.F.);
#229=ADVANCED_FACE('',(#201),#22,.T.);
#230=ADVANCED_FACE('',(#202),#23,.T.);
#231=ADVANCED_FACE('',(#203),#24,.T.);
#232=ADVANCED_FACE('',(#204),#25,.T.);
#233=ADVANCED_FACE('',(#205),#218,.F.);
#234=ADVANCED_FACE('',(#206,#207),#20,.T.);
#235=ADVANCED_FACE('',(#208,#209),#21,.T.);
#236=ADVANCED_FACE('',(#210,#211),#219,.F.);
#237=CLOSED_SHELL('',(#220,#221,#222,#223,#224,#225,#226,#227,#228,#229,
#230,#231,#232,#233,#234,#235,#236));
#238=STYLED_ITEM('',(#239),#246);
#239=PRESENTATION_STYLE_ASSIGNMENT((#240));
#240=SURFACE_STYLE_USAGE(.BOTH.,#241);
#241=SURFACE_SIDE_STYLE('',(#242));
#242=SURFACE_STYLE_FILL_AREA(#243);
#243=FILL_AREA_STYLE('',(#244));
#244=FILL_AREA_STYLE_COLOUR('',#245);
#245=COLOUR_RGB('',0.689999997615814,0.689999997615814,0.689999997615814);
#246=MANIFOLD_SOLID_BREP('537811 VAM-63-V1/0-R1/4-EN',#237);
#247=SHAPE_DEFINITION_REPRESENTATION(#446,#248);
#248=SHAPE_REPRESENTATION('537811 VAM-63-V1/0-R1/4-EN',(#249),#441);
#249=AXIS2_PLACEMENT_3D('',#344,#278,#279);
#250=AXIS2_PLACEMENT_3D('',#345,#280,#281);
#251=AXIS2_PLACEMENT_3D('',#364,#285,#286);
#252=AXIS2_PLACEMENT_3D('',#380,#289,#290);
#253=AXIS2_PLACEMENT_3D('',#396,#293,#294);
#254=AXIS2_PLACEMENT_3D('',#409,#296,#297);
#255=AXIS2_PLACEMENT_3D('',#410,#298,#299);
#256=AXIS2_PLACEMENT_3D('',#412,#300,#301);
#257=AXIS2_PLACEMENT_3D('',#413,#302,#303);
#258=AXIS2_PLACEMENT_3D('',#415,#304,#305);
#259=AXIS2_PLACEMENT_3D('',#416,#306,#307);
#260=AXIS2_PLACEMENT_3D('',#418,#308,#309);
#261=AXIS2_PLACEMENT_3D('',#419,#310,#311);
#262=AXIS2_PLACEMENT_3D('',#421,#312,#313);
#263=AXIS2_PLACEMENT_3D('',#422,#314,#315);
#264=AXIS2_PLACEMENT_3D('',#423,#316,#317);
#265=AXIS2_PLACEMENT_3D('',#424,#318,#319);
#266=AXIS2_PLACEMENT_3D('',#425,#320,#321);
#267=AXIS2_PLACEMENT_3D('',#426,#322,#323);
#268=AXIS2_PLACEMENT_3D('',#427,#324,#325);
#269=AXIS2_PLACEMENT_3D('',#428,#326,#327);
#270=AXIS2_PLACEMENT_3D('',#429,#328,#329);
#271=AXIS2_PLACEMENT_3D('',#430,#330,#331);
#272=AXIS2_PLACEMENT_3D('',#431,#332,#333);
#273=AXIS2_PLACEMENT_3D('',#433,#334,#335);
#274=AXIS2_PLACEMENT_3D('',#434,#336,#337);
#275=AXIS2_PLACEMENT_3D('',#436,#338,#339);
#276=AXIS2_PLACEMENT_3D('',#437,#340,#341);
#277=AXIS2_PLACEMENT_3D('',#439,#342,#343);
#278=DIRECTION('',(0.,0.,1.));
#279=DIRECTION('',(1.,0.,0.));
#280=DIRECTION('',(0.,0.,-1.));
#281=DIRECTION('',(-1.,0.,0.));
#282=DIRECTION('',(-1.,0.,0.));
#283=DIRECTION('',(0.,-1.,0.));
#284=DIRECTION('',(-1.,0.,0.));
#285=DIRECTION('',(0.,-1.,0.));
#286=DIRECTION('',(0.,0.,-1.));
#287=DIRECTION('',(0.,0.,1.));
#288=DIRECTION('',(-1.,0.,0.));
#289=DIRECTION('',(0.,0.,1.));
#290=DIRECTION('',(1.,0.,0.));
#291=DIRECTION('',(0.,1.,0.));
#292=DIRECTION('',(-1.,0.,0.));
#293=DIRECTION('',(0.,1.,0.));
#294=DIRECTION('',(0.,0.,1.));
#295=DIRECTION('',(0.,0.,-1.));
#296=DIRECTION('',(1.,0.,0.));
#297=DIRECTION('',(0.,0.,-1.));
#298=DIRECTION('',(1.,0.,0.));
#299=DIRECTION('',(0.,0.,-1.));
#300=DIRECTION('',(1.,0.,0.));
#301=DIRECTION('',(0.,0.,-1.));
#302=DIRECTION('',(1.,0.,0.));
#303=DIRECTION('',(0.,0.,-1.));
#304=DIRECTION('',(1.,0.,0.));
#305=DIRECTION('',(0.,0.,-1.));
#306=DIRECTION('',(1.,0.,0.));
#307=DIRECTION('',(0.,0.,-1.));
#308=DIRECTION('',(1.,0.,0.));
#309=DIRECTION('',(0.,0.,-1.));
#310=DIRECTION('',(1.,0.,0.));
#311=DIRECTION('',(0.,0.,-1.));
#312=DIRECTION('',(-1.,0.,0.));
#313=DIRECTION('',(0.,0.,1.));
#314=DIRECTION('',(1.,0.,0.));
#315=DIRECTION('',(0.,0.,-1.));
#316=DIRECTION('',(1.,0.,0.));
#317=DIRECTION('',(0.,0.,-1.));
#318=DIRECTION('',(1.,0.,0.));
#319=DIRECTION('',(0.,0.,-1.));
#320=DIRECTION('',(1.,0.,0.));
#321=DIRECTION('',(0.,0.,-1.));
#322=DIRECTION('',(1.,0.,0.));
#323=DIRECTION('',(0.,0.,-1.));
#324=DIRECTION('',(1.,0.,0.));
#325=DIRECTION('',(0.,0.,-1.));
#326=DIRECTION('',(1.,0.,0.));
#327=DIRECTION('',(0.,0.,-1.));
#328=DIRECTION('',(1.,0.,0.));
#329=DIRECTION('',(0.,0.,-1.));
#330=DIRECTION('',(1.,0.,0.));
#331=DIRECTION('',(0.,0.,-1.));
#332=DIRECTION('',(1.,0.,0.));
#333=DIRECTION('',(0.,0.,-1.));
#334=DIRECTION('',(1.,0.,0.));
#335=DIRECTION('',(0.,0.,-1.));
#336=DIRECTION('',(1.,0.,0.));
#337=DIRECTION('',(0.,0.,-1.));
#338=DIRECTION('',(1.,0.,0.));
#339=DIRECTION('',(0.,0.,-1.));
#340=DIRECTION('',(1.,0.,0.));
#341=DIRECTION('',(0.,0.,-1.));
#342=DIRECTION('',(1.,0.,0.));
#343=DIRECTION('',(0.,0.,-1.));
#344=CARTESIAN_POINT('',(0.,0.,0.));
#345=CARTESIAN_POINT('',(8.,7.,7.));
#346=CARTESIAN_POINT('',(0.943320055035214,-7.00000000000002,7.));
#347=CARTESIAN_POINT('',(0.510229540196248,-5.89540137271764,7.));
#348=CARTESIAN_POINT('',(0.0439402821864375,-3.52549351447289,7.));
#349=CARTESIAN_POINT('',(-8.61988588109208E-16,-1.1767665876268,7.));
#350=CARTESIAN_POINT('',(-5.37027767826114E-16,1.56623039296234E-14,7.));
#351=CARTESIAN_POINT('',(0.943320055035259,-7.,7.00000000000013));
#352=CARTESIAN_POINT('',(1.73472347597681E-15,0.,7.00000000000001));
#353=CARTESIAN_POINT('',(8.,-7.,7.));
#354=CARTESIAN_POINT('',(8.,-7.,7.));
#355=CARTESIAN_POINT('',(8.,7.,7.));
#356=CARTESIAN_POINT('',(8.,7.,7.));
#357=CARTESIAN_POINT('',(8.,7.,7.));
#358=CARTESIAN_POINT('',(0.943320055035208,7.,7.));
#359=CARTESIAN_POINT('',(-1.08905163494692E-16,1.78325214438565E-15,7.));
#360=CARTESIAN_POINT('',(-7.19365404331662E-17,1.17580551775733,7.));
#361=CARTESIAN_POINT('',(0.0441087137602325,3.5207535297834,7.));
#362=CARTESIAN_POINT('',(0.508269782582125,5.89040300517968,7.));
#363=CARTESIAN_POINT('',(0.943320055035207,6.99999999999999,7.));
#364=CARTESIAN_POINT('',(8.,7.,-7.));
#365=CARTESIAN_POINT('',(0.943320055035208,7.,7.));
#366=CARTESIAN_POINT('',(0.510229540196245,7.,5.89540137271763));
#367=CARTESIAN_POINT('',(0.0439402821864381,7.,3.52549351447288));
#368=CARTESIAN_POINT('',(-1.06983671944631E-15,7.,1.1767665876268));
#369=CARTESIAN_POINT('',(-9.78788446570855E-16,7.,-4.38830047511709E-15));
#370=CARTESIAN_POINT('',(1.73472347597681E-15,7.00000000000001,0.));
#371=CARTESIAN_POINT('',(8.,7.,-7.));
#372=CARTESIAN_POINT('',(8.,7.,-7.));
#373=CARTESIAN_POINT('',(8.,7.,-7.));
#374=CARTESIAN_POINT('',(0.943320055035208,7.,-7.));
#375=CARTESIAN_POINT('',(1.07935271052896E-16,7.,-9.15466476333119E-16));
#376=CARTESIAN_POINT('',(1.26913818307458E-16,7.,-1.17580551775733));
#377=CARTESIAN_POINT('',(0.0441087137602288,7.,-3.5207535297834));
#378=CARTESIAN_POINT('',(0.508269782582124,7.,-5.89040300517968));
#379=CARTESIAN_POINT('',(0.943320055035206,7.,-6.99999999999999));
#380=CARTESIAN_POINT('',(8.,-7.,-7.));
#381=CARTESIAN_POINT('',(0.943320055035208,7.,-7.));
#382=CARTESIAN_POINT('',(0.510229540196246,5.89540137271763,-7.));
#383=CARTESIAN_POINT('',(0.0439402821864409,3.52549351447289,-7.));
#384=CARTESIAN_POINT('',(-3.8625992817626E-16,1.17676658762681,-7.));
#385=CARTESIAN_POINT('',(-3.55762717113694E-16,-1.46988978010228E-15,-7.));
#386=CARTESIAN_POINT('',(1.73472347597681E-15,0.,-7.00000000000001));
#387=CARTESIAN_POINT('',(8.,-7.,-7.));
#388=CARTESIAN_POINT('',(8.,-7.,-7.));
#389=CARTESIAN_POINT('',(8.,-7.,-7.));
#390=CARTESIAN_POINT('',(0.943320055035209,-7.,-7.));
#391=CARTESIAN_POINT('',(6.50069347938332E-16,2.00298875667345E-15,-7.));
#392=CARTESIAN_POINT('',(6.08545362351063E-16,-1.17580551775733,-7.));
#393=CARTESIAN_POINT('',(0.0441087137602311,-3.5207535297834,-7.));
#394=CARTESIAN_POINT('',(0.508269782582123,-5.89040300517968,-7.));
#395=CARTESIAN_POINT('',(0.943320055035204,-6.99999999999999,-7.));
#396=CARTESIAN_POINT('',(8.,-7.,7.));
#397=CARTESIAN_POINT('',(0.943320055035209,-7.,-7.));
#398=CARTESIAN_POINT('',(0.510229540196245,-7.,-5.89540137271763));
#399=CARTESIAN_POINT('',(0.0439402821864368,-7.,-3.52549351447289));
#400=CARTESIAN_POINT('',(-1.40849278214851E-15,-7.,-1.1767665876268));
#401=CARTESIAN_POINT('',(-1.26847371453183E-15,-7.,6.74857107710577E-15));
#402=CARTESIAN_POINT('',(0.,-7.,0.));
#403=CARTESIAN_POINT('',(8.,-7.,7.));
#404=CARTESIAN_POINT('',(-4.84946195654639E-19,-7.,-1.94669462561644E-16));
#405=CARTESIAN_POINT('',(-4.52064131913407E-18,-7.,1.17580551775736));
#406=CARTESIAN_POINT('',(0.0441087137602317,-7.,3.52075352978349));
#407=CARTESIAN_POINT('',(0.508269782582153,-7.,5.8904030051798));
#408=CARTESIAN_POINT('',(0.943320055035259,-7.,7.00000000000013));
#409=CARTESIAN_POINT('',(8.,10.,0.));
#410=CARTESIAN_POINT('',(8.,0.,0.));
#411=CARTESIAN_POINT('',(8.,0.,-29.));
#412=CARTESIAN_POINT('',(10.,0.,0.));
#413=CARTESIAN_POINT('',(10.,0.,0.));
#414=CARTESIAN_POINT('',(10.,0.,-31.));
#415=CARTESIAN_POINT('',(37.,0.,0.));
#416=CARTESIAN_POINT('',(36.5,0.,0.));
#417=CARTESIAN_POINT('',(36.5,0.,-31.));
#418=CARTESIAN_POINT('',(36.5,0.,0.));
#419=CARTESIAN_POINT('',(37.,0.,0.));
#420=CARTESIAN_POINT('',(37.,0.,-30.5));
#421=CARTESIAN_POINT('',(37.,30.5,0.));
#422=CARTESIAN_POINT('',(7.9397580605824,0.,0.));
#423=CARTESIAN_POINT('',(0.,0.,0.));
#424=CARTESIAN_POINT('',(7.9397580605824,0.,0.));
#425=CARTESIAN_POINT('',(0.,0.,0.));
#426=CARTESIAN_POINT('',(7.9397580605824,0.,0.));
#427=CARTESIAN_POINT('',(1.73472347597681E-15,0.,0.));
#428=CARTESIAN_POINT('',(7.9397580605824,0.,0.));
#429=CARTESIAN_POINT('',(0.,0.,0.));
#430=CARTESIAN_POINT('',(-13.,0.,0.));
#431=CARTESIAN_POINT('',(-13.,0.,0.));
#432=CARTESIAN_POINT('',(-13.,0.,-5.53518274871162));
#433=CARTESIAN_POINT('',(-13.,0.,0.));
#434=CARTESIAN_POINT('',(-12.1164148772547,0.,0.));
#435=CARTESIAN_POINT('',(-12.1164148772547,0.,-6.41876787145694));
#436=CARTESIAN_POINT('',(-12.1164148772547,0.,0.));
#437=CARTESIAN_POINT('',(0.,0.,0.));
#438=CARTESIAN_POINT('',(0.,0.,-6.79703679316978));
#439=CARTESIAN_POINT('',(8.67361737988404E-16,6.79703679316978,0.));
#440=MECHANICAL_DESIGN_GEOMETRIC_PRESENTATION_REPRESENTATION('',(#238),
#441);
#441=(
GEOMETRIC_REPRESENTATION_CONTEXT(3)
GLOBAL_UNCERTAINTY_ASSIGNED_CONTEXT((#442))
GLOBAL_UNIT_ASSIGNED_CONTEXT((#445,#444,#443))
REPRESENTATION_CONTEXT('537811 VAM-63-V1/0-R1/4-EN',
'TOP_LEVEL_ASSEMBLY_PART')
);
#442=UNCERTAINTY_MEASURE_WITH_UNIT(LENGTH_MEASURE(0.005),#445,
'DISTANCE_ACCURACY_VALUE','Maximum Tolerance applied to model');
#443=(
NAMED_UNIT(*)
SI_UNIT($,.STERADIAN.)
SOLID_ANGLE_UNIT()
);
#444=(
NAMED_UNIT(*)
PLANE_ANGLE_UNIT()
SI_UNIT($,.RADIAN.)
);
#445=(
LENGTH_UNIT()
NAMED_UNIT(*)
SI_UNIT(.MILLI.,.METRE.)
);
#446=PRODUCT_DEFINITION_SHAPE('','',#447);
#447=PRODUCT_DEFINITION('','',#449,#448);
#448=PRODUCT_DEFINITION_CONTEXT('',#455,'design');
#449=PRODUCT_DEFINITION_FORMATION_WITH_SPECIFIED_SOURCE('','',#451,
 .NOT_KNOWN.);
#450=PRODUCT_RELATED_PRODUCT_CATEGORY('','',(#451));
#451=PRODUCT('537811 VAM-63-V1/0-R1/4-EN','537811 VAM-63-V1/0-R1/4-EN',
'537811 VAM-63-V1/0-R1/4-EN',(#453));
#452=PRODUCT_CATEGORY('','');
#453=PRODUCT_CONTEXT('',#455,'mechanical');
#454=APPLICATION_PROTOCOL_DEFINITION('international standard',
'automotive_design',2010,#455);
#455=APPLICATION_CONTEXT(
'core data for automotive mechanical design processes');
ENDSEC;
END-ISO-10303-21;
