ISO-10303-21;
HEADER;
/* Generated by software containing ST-Developer
 * from STEP Tools, Inc. (www.steptools.com) 
 */
/* OPTION: using custom renumber hook */

FILE_DESCRIPTION(
/* description */ ('STEP AP214'),
/* implementation_level */ '2;1');

FILE_NAME(
/* name */ '538252_SIEH-M12B-PS-K-L-CR',
/* time_stamp */ '2024-09-15T05:13:03+02:00',
/* author */ ('License CC BY-ND 4.0'),
/* organization */ ('CADENAS'),
/* preprocessor_version */ 'ST-DEVELOPER v19.3',
/* originating_system */ 'PARTsolutions',
/* authorisation */ '  ');

FILE_SCHEMA (('AUTOMOTIVE_DESIGN {1 0 10303 214 3 1 1}'));
ENDSEC;

DATA;
#10=PROPERTY_DEFINITION_REPRESENTATION(#14,#12);
#11=PROPERTY_DEFINITION_REPRESENTATION(#15,#13);
#12=REPRESENTATION('',(#16),#575);
#13=REPRESENTATION('',(#17),#575);
#14=PROPERTY_DEFINITION('pmi validation property','',#584);
#15=PROPERTY_DEFINITION('pmi validation property','',#584);
#16=VALUE_REPRESENTATION_ITEM('number of annotations',COUNT_MEASURE(0.));
#17=VALUE_REPRESENTATION_ITEM('number of views',COUNT_MEASURE(0.));
#18=LINE('',#561,#24);
#19=LINE('',#562,#25);
#20=LINE('',#564,#26);
#21=LINE('',#566,#27);
#22=LINE('',#568,#28);
#23=LINE('',#570,#29);
#24=VECTOR('',#425,1000.);
#25=VECTOR('',#426,1000.);
#26=VECTOR('',#429,1000.);
#27=VECTOR('',#432,1000.);
#28=VECTOR('',#435,1000.);
#29=VECTOR('',#438,1000.);
#30=B_SPLINE_CURVE_WITH_KNOTS('',3,(#475,#476,#477,#478,#479),
 .UNSPECIFIED.,.F.,.F.,(4,1,4),(2.30940107676387E-7,0.00461903309362468,
0.00923783524714169),.UNSPECIFIED.);
#31=B_SPLINE_CURVE_WITH_KNOTS('',3,(#482,#483,#484,#485,#486),
 .UNSPECIFIED.,.F.,.F.,(4,1,4),(2.30940107675961E-7,0.00461903309362468,
0.00923783524714169),.UNSPECIFIED.);
#32=B_SPLINE_CURVE_WITH_KNOTS('',3,(#488,#489,#490,#491,#492),
 .UNSPECIFIED.,.F.,.F.,(4,1,4),(0.00932380520170843,0.0139313313675228,
0.0185388575333371),.UNSPECIFIED.);
#33=B_SPLINE_CURVE_WITH_KNOTS('',3,(#494,#495,#496,#497,#498),
 .UNSPECIFIED.,.F.,.F.,(4,1,4),(2.30940107676387E-7,0.00461903309362468,
0.00923783524714169),.UNSPECIFIED.);
#34=B_SPLINE_CURVE_WITH_KNOTS('',3,(#500,#501,#502,#503,#504),
 .UNSPECIFIED.,.F.,.F.,(4,1,4),(2.30940107675961E-7,0.00461903309362468,
0.00923783524714169),.UNSPECIFIED.);
#35=B_SPLINE_CURVE_WITH_KNOTS('',3,(#506,#507,#508,#509,#510),
 .UNSPECIFIED.,.F.,.F.,(4,1,4),(0.00932380520170843,0.0139313313675228,
0.0185388575333371),.UNSPECIFIED.);
#36=B_SPLINE_CURVE_WITH_KNOTS('',3,(#514,#515,#516,#517,#518),
 .UNSPECIFIED.,.F.,.F.,(4,1,4),(2.30940107675995E-7,0.00461903309362468,
0.00923783524714169),.UNSPECIFIED.);
#37=B_SPLINE_CURVE_WITH_KNOTS('',3,(#521,#522,#523,#524,#525),
 .UNSPECIFIED.,.F.,.F.,(4,1,4),(0.00932380520170843,0.0139313313675228,
0.0185388575333371),.UNSPECIFIED.);
#38=B_SPLINE_CURVE_WITH_KNOTS('',3,(#527,#528,#529,#530,#531),
 .UNSPECIFIED.,.F.,.F.,(4,1,4),(2.30940107676387E-7,0.00461903309362468,
0.00923783524714169),.UNSPECIFIED.);
#39=B_SPLINE_CURVE_WITH_KNOTS('',3,(#533,#534,#535,#536,#537),
 .UNSPECIFIED.,.F.,.F.,(4,1,4),(2.30940107676194E-7,0.00461903309362468,
0.00923783524714169),.UNSPECIFIED.);
#40=B_SPLINE_CURVE_WITH_KNOTS('',3,(#539,#540,#541,#542,#543),
 .UNSPECIFIED.,.F.,.F.,(4,1,4),(0.00932380520170843,0.0139313313675228,
0.0185388575333371),.UNSPECIFIED.);
#41=B_SPLINE_CURVE_WITH_KNOTS('',3,(#545,#546,#547,#548,#549),
 .UNSPECIFIED.,.F.,.F.,(4,1,4),(2.30940107676387E-7,0.00461903309362468,
0.00923783524714169),.UNSPECIFIED.);
#42=CONTEXT_DEPENDENT_SHAPE_REPRESENTATION(#48,#586);
#43=CONTEXT_DEPENDENT_SHAPE_REPRESENTATION(#49,#588);
#44=CONTEXT_DEPENDENT_SHAPE_REPRESENTATION(#50,#589);
#45=NEXT_ASSEMBLY_USAGE_OCCURRENCE('NAUO1',
'538252 SIEH-M12B-PS-K-L-CR---(SP)','538252 SIEH-M12B-PS-K-L-CR---(SP)',
#590,#591,'');
#46=NEXT_ASSEMBLY_USAGE_OCCURRENCE('NAUO2','Flachmutter M12x1-5-16',
'Flachmutter M12x1-5-16',#590,#592,'');
#47=NEXT_ASSEMBLY_USAGE_OCCURRENCE('NAUO3','Flachmutter M12x1-5-16',
'Flachmutter M12x1-5-16',#590,#592,'');
#48=(
REPRESENTATION_RELATIONSHIP(' ',' ',#323,#322)
REPRESENTATION_RELATIONSHIP_WITH_TRANSFORMATION(#51)
SHAPE_REPRESENTATION_RELATIONSHIP()
);
#49=(
REPRESENTATION_RELATIONSHIP(' ',' ',#324,#322)
REPRESENTATION_RELATIONSHIP_WITH_TRANSFORMATION(#52)
SHAPE_REPRESENTATION_RELATIONSHIP()
);
#50=(
REPRESENTATION_RELATIONSHIP(' ',' ',#324,#322)
REPRESENTATION_RELATIONSHIP_WITH_TRANSFORMATION(#53)
SHAPE_REPRESENTATION_RELATIONSHIP()
);
#51=ITEM_DEFINED_TRANSFORMATION(' ',' ',#325,#341);
#52=ITEM_DEFINED_TRANSFORMATION(' ',' ',#325,#361);
#53=ITEM_DEFINED_TRANSFORMATION(' ',' ',#325,#362);
#54=SHAPE_REPRESENTATION_RELATIONSHIP('','',#323,#56);
#55=SHAPE_REPRESENTATION_RELATIONSHIP('','',#324,#57);
#56=ADVANCED_BREP_SHAPE_REPRESENTATION('',(#317),#576);
#57=ADVANCED_BREP_SHAPE_REPRESENTATION('',(#318),#577);
#58=CONICAL_SURFACE('',#335,6.,0.785398163397446);
#59=CONICAL_SURFACE('',#345,7.9,1.39626340159546);
#60=CONICAL_SURFACE('',#346,11.2,1.39626340159546);
#61=CONICAL_SURFACE('',#350,6.,0.785398163397448);
#62=CONICAL_SURFACE('',#354,5.4585,0.785398163397448);
#63=CYLINDRICAL_SURFACE('',#329,5.3865);
#64=CYLINDRICAL_SURFACE('',#333,6.);
#65=CYLINDRICAL_SURFACE('',#340,2.5);
#66=CYLINDRICAL_SURFACE('',#352,5.4585);
#67=ORIENTED_EDGE('',*,*,#129,.F.);
#68=ORIENTED_EDGE('',*,*,#130,.T.);
#69=ORIENTED_EDGE('',*,*,#131,.F.);
#70=ORIENTED_EDGE('',*,*,#129,.T.);
#71=ORIENTED_EDGE('',*,*,#132,.F.);
#72=ORIENTED_EDGE('',*,*,#131,.T.);
#73=ORIENTED_EDGE('',*,*,#133,.F.);
#74=ORIENTED_EDGE('',*,*,#132,.T.);
#75=ORIENTED_EDGE('',*,*,#134,.F.);
#76=ORIENTED_EDGE('',*,*,#133,.T.);
#77=ORIENTED_EDGE('',*,*,#134,.T.);
#78=ORIENTED_EDGE('',*,*,#135,.F.);
#79=ORIENTED_EDGE('',*,*,#130,.F.);
#80=ORIENTED_EDGE('',*,*,#135,.T.);
#81=ORIENTED_EDGE('',*,*,#136,.F.);
#82=ORIENTED_EDGE('',*,*,#137,.T.);
#83=ORIENTED_EDGE('',*,*,#138,.T.);
#84=ORIENTED_EDGE('',*,*,#139,.T.);
#85=ORIENTED_EDGE('',*,*,#140,.T.);
#86=ORIENTED_EDGE('',*,*,#141,.T.);
#87=ORIENTED_EDGE('',*,*,#142,.T.);
#88=ORIENTED_EDGE('',*,*,#143,.T.);
#89=ORIENTED_EDGE('',*,*,#136,.T.);
#90=ORIENTED_EDGE('',*,*,#144,.F.);
#91=ORIENTED_EDGE('',*,*,#145,.T.);
#92=ORIENTED_EDGE('',*,*,#146,.T.);
#93=ORIENTED_EDGE('',*,*,#147,.T.);
#94=ORIENTED_EDGE('',*,*,#148,.T.);
#95=ORIENTED_EDGE('',*,*,#149,.T.);
#96=ORIENTED_EDGE('',*,*,#150,.T.);
#97=ORIENTED_EDGE('',*,*,#151,.F.);
#98=ORIENTED_EDGE('',*,*,#144,.T.);
#99=ORIENTED_EDGE('',*,*,#152,.T.);
#100=ORIENTED_EDGE('',*,*,#137,.F.);
#101=ORIENTED_EDGE('',*,*,#153,.T.);
#102=ORIENTED_EDGE('',*,*,#152,.F.);
#103=ORIENTED_EDGE('',*,*,#151,.T.);
#104=ORIENTED_EDGE('',*,*,#153,.F.);
#105=ORIENTED_EDGE('',*,*,#154,.F.);
#106=ORIENTED_EDGE('',*,*,#146,.F.);
#107=ORIENTED_EDGE('',*,*,#155,.T.);
#108=ORIENTED_EDGE('',*,*,#143,.F.);
#109=ORIENTED_EDGE('',*,*,#155,.F.);
#110=ORIENTED_EDGE('',*,*,#145,.F.);
#111=ORIENTED_EDGE('',*,*,#156,.T.);
#112=ORIENTED_EDGE('',*,*,#138,.F.);
#113=ORIENTED_EDGE('',*,*,#156,.F.);
#114=ORIENTED_EDGE('',*,*,#150,.F.);
#115=ORIENTED_EDGE('',*,*,#157,.T.);
#116=ORIENTED_EDGE('',*,*,#139,.F.);
#117=ORIENTED_EDGE('',*,*,#157,.F.);
#118=ORIENTED_EDGE('',*,*,#149,.F.);
#119=ORIENTED_EDGE('',*,*,#158,.T.);
#120=ORIENTED_EDGE('',*,*,#140,.F.);
#121=ORIENTED_EDGE('',*,*,#158,.F.);
#122=ORIENTED_EDGE('',*,*,#148,.F.);
#123=ORIENTED_EDGE('',*,*,#159,.T.);
#124=ORIENTED_EDGE('',*,*,#141,.F.);
#125=ORIENTED_EDGE('',*,*,#159,.F.);
#126=ORIENTED_EDGE('',*,*,#147,.F.);
#127=ORIENTED_EDGE('',*,*,#154,.T.);
#128=ORIENTED_EDGE('',*,*,#142,.F.);
#129=EDGE_CURVE('',#160,#160,#185,.T.);
#130=EDGE_CURVE('',#161,#161,#186,.T.);
#131=EDGE_CURVE('',#162,#162,#187,.T.);
#132=EDGE_CURVE('',#163,#163,#188,.T.);
#133=EDGE_CURVE('',#164,#164,#189,.T.);
#134=EDGE_CURVE('',#165,#165,#190,.T.);
#135=EDGE_CURVE('',#166,#166,#191,.T.);
#136=EDGE_CURVE('',#167,#167,#192,.T.);
#137=EDGE_CURVE('',#168,#168,#193,.T.);
#138=EDGE_CURVE('',#169,#170,#30,.T.);
#139=EDGE_CURVE('',#170,#171,#31,.T.);
#140=EDGE_CURVE('',#171,#172,#32,.T.);
#141=EDGE_CURVE('',#172,#173,#33,.T.);
#142=EDGE_CURVE('',#173,#174,#34,.T.);
#143=EDGE_CURVE('',#174,#169,#35,.T.);
#144=EDGE_CURVE('',#175,#175,#194,.T.);
#145=EDGE_CURVE('',#176,#177,#36,.T.);
#146=EDGE_CURVE('',#177,#178,#37,.T.);
#147=EDGE_CURVE('',#178,#179,#38,.T.);
#148=EDGE_CURVE('',#179,#180,#39,.T.);
#149=EDGE_CURVE('',#180,#181,#40,.T.);
#150=EDGE_CURVE('',#181,#176,#41,.T.);
#151=EDGE_CURVE('',#182,#182,#195,.T.);
#152=EDGE_CURVE('',#183,#183,#196,.T.);
#153=EDGE_CURVE('',#184,#184,#197,.T.);
#154=EDGE_CURVE('',#178,#174,#18,.T.);
#155=EDGE_CURVE('',#177,#169,#19,.T.);
#156=EDGE_CURVE('',#176,#170,#20,.T.);
#157=EDGE_CURVE('',#181,#171,#21,.T.);
#158=EDGE_CURVE('',#180,#172,#22,.T.);
#159=EDGE_CURVE('',#179,#173,#23,.T.);
#160=VERTEX_POINT('',#448);
#161=VERTEX_POINT('',#450);
#162=VERTEX_POINT('',#453);
#163=VERTEX_POINT('',#456);
#164=VERTEX_POINT('',#459);
#165=VERTEX_POINT('',#462);
#166=VERTEX_POINT('',#466);
#167=VERTEX_POINT('',#471);
#168=VERTEX_POINT('',#473);
#169=VERTEX_POINT('',#480);
#170=VERTEX_POINT('',#481);
#171=VERTEX_POINT('',#487);
#172=VERTEX_POINT('',#493);
#173=VERTEX_POINT('',#499);
#174=VERTEX_POINT('',#505);
#175=VERTEX_POINT('',#513);
#176=VERTEX_POINT('',#519);
#177=VERTEX_POINT('',#520);
#178=VERTEX_POINT('',#526);
#179=VERTEX_POINT('',#532);
#180=VERTEX_POINT('',#538);
#181=VERTEX_POINT('',#544);
#182=VERTEX_POINT('',#552);
#183=VERTEX_POINT('',#555);
#184=VERTEX_POINT('',#558);
#185=CIRCLE('',#327,5.3865);
#186=CIRCLE('',#328,2.5);
#187=CIRCLE('',#330,5.3865);
#188=CIRCLE('',#332,6.);
#189=CIRCLE('',#334,6.);
#190=CIRCLE('',#336,5.3865);
#191=CIRCLE('',#339,2.5);
#192=CIRCLE('',#343,7.9);
#193=CIRCLE('',#344,6.);
#194=CIRCLE('',#347,7.9);
#195=CIRCLE('',#349,6.);
#196=CIRCLE('',#351,5.4585);
#197=CIRCLE('',#353,5.4585);
#198=EDGE_LOOP('',(#67));
#199=EDGE_LOOP('',(#68));
#200=EDGE_LOOP('',(#69));
#201=EDGE_LOOP('',(#70));
#202=EDGE_LOOP('',(#71));
#203=EDGE_LOOP('',(#72));
#204=EDGE_LOOP('',(#73));
#205=EDGE_LOOP('',(#74));
#206=EDGE_LOOP('',(#75));
#207=EDGE_LOOP('',(#76));
#208=EDGE_LOOP('',(#77));
#209=EDGE_LOOP('',(#78));
#210=EDGE_LOOP('',(#79));
#211=EDGE_LOOP('',(#80));
#212=EDGE_LOOP('',(#81));
#213=EDGE_LOOP('',(#82));
#214=EDGE_LOOP('',(#83,#84,#85,#86,#87,#88));
#215=EDGE_LOOP('',(#89));
#216=EDGE_LOOP('',(#90));
#217=EDGE_LOOP('',(#91,#92,#93,#94,#95,#96));
#218=EDGE_LOOP('',(#97));
#219=EDGE_LOOP('',(#98));
#220=EDGE_LOOP('',(#99));
#221=EDGE_LOOP('',(#100));
#222=EDGE_LOOP('',(#101));
#223=EDGE_LOOP('',(#102));
#224=EDGE_LOOP('',(#103));
#225=EDGE_LOOP('',(#104));
#226=EDGE_LOOP('',(#105,#106,#107,#108));
#227=EDGE_LOOP('',(#109,#110,#111,#112));
#228=EDGE_LOOP('',(#113,#114,#115,#116));
#229=EDGE_LOOP('',(#117,#118,#119,#120));
#230=EDGE_LOOP('',(#121,#122,#123,#124));
#231=EDGE_LOOP('',(#125,#126,#127,#128));
#232=FACE_BOUND('',#198,.T.);
#233=FACE_BOUND('',#199,.T.);
#234=FACE_BOUND('',#200,.T.);
#235=FACE_BOUND('',#201,.T.);
#236=FACE_BOUND('',#202,.T.);
#237=FACE_BOUND('',#203,.T.);
#238=FACE_BOUND('',#204,.T.);
#239=FACE_BOUND('',#205,.T.);
#240=FACE_BOUND('',#206,.T.);
#241=FACE_BOUND('',#207,.T.);
#242=FACE_BOUND('',#208,.T.);
#243=FACE_BOUND('',#209,.T.);
#244=FACE_BOUND('',#210,.T.);
#245=FACE_BOUND('',#211,.T.);
#246=FACE_BOUND('',#212,.T.);
#247=FACE_BOUND('',#213,.T.);
#248=FACE_BOUND('',#214,.T.);
#249=FACE_BOUND('',#215,.T.);
#250=FACE_BOUND('',#216,.T.);
#251=FACE_BOUND('',#217,.T.);
#252=FACE_BOUND('',#218,.T.);
#253=FACE_BOUND('',#219,.T.);
#254=FACE_BOUND('',#220,.T.);
#255=FACE_BOUND('',#221,.T.);
#256=FACE_BOUND('',#222,.T.);
#257=FACE_BOUND('',#223,.T.);
#258=FACE_BOUND('',#224,.T.);
#259=FACE_BOUND('',#225,.T.);
#260=FACE_BOUND('',#226,.T.);
#261=FACE_BOUND('',#227,.T.);
#262=FACE_BOUND('',#228,.T.);
#263=FACE_BOUND('',#229,.T.);
#264=FACE_BOUND('',#230,.T.);
#265=FACE_BOUND('',#231,.T.);
#266=PLANE('',#326);
#267=PLANE('',#331);
#268=PLANE('',#337);
#269=PLANE('',#338);
#270=PLANE('',#342);
#271=PLANE('',#348);
#272=PLANE('',#355);
#273=PLANE('',#356);
#274=PLANE('',#357);
#275=PLANE('',#358);
#276=PLANE('',#359);
#277=PLANE('',#360);
#278=ADVANCED_FACE('',(#232,#233),#266,.F.);
#279=ADVANCED_FACE('',(#234,#235),#63,.T.);
#280=ADVANCED_FACE('',(#236,#237),#267,.F.);
#281=ADVANCED_FACE('',(#238,#239),#64,.T.);
#282=ADVANCED_FACE('',(#240,#241),#58,.T.);
#283=ADVANCED_FACE('',(#242),#268,.F.);
#284=ADVANCED_FACE('',(#243),#269,.F.);
#285=ADVANCED_FACE('',(#244,#245),#65,.T.);
#286=ADVANCED_FACE('',(#246,#247),#270,.F.);
#287=ADVANCED_FACE('',(#248,#249),#59,.T.);
#288=ADVANCED_FACE('',(#250,#251),#60,.T.);
#289=ADVANCED_FACE('',(#252,#253),#271,.F.);
#290=ADVANCED_FACE('',(#254,#255),#61,.F.);
#291=ADVANCED_FACE('',(#256,#257),#66,.F.);
#292=ADVANCED_FACE('',(#258,#259),#62,.F.);
#293=ADVANCED_FACE('',(#260),#272,.F.);
#294=ADVANCED_FACE('',(#261),#273,.F.);
#295=ADVANCED_FACE('',(#262),#274,.F.);
#296=ADVANCED_FACE('',(#263),#275,.F.);
#297=ADVANCED_FACE('',(#264),#276,.F.);
#298=ADVANCED_FACE('',(#265),#277,.F.);
#299=CLOSED_SHELL('',(#278,#279,#280,#281,#282,#283,#284,#285));
#300=CLOSED_SHELL('',(#286,#287,#288,#289,#290,#291,#292,#293,#294,#295,
#296,#297,#298));
#301=STYLED_ITEM('',(#303),#317);
#302=STYLED_ITEM('',(#304),#318);
#303=PRESENTATION_STYLE_ASSIGNMENT((#305));
#304=PRESENTATION_STYLE_ASSIGNMENT((#306));
#305=SURFACE_STYLE_USAGE(.BOTH.,#307);
#306=SURFACE_STYLE_USAGE(.BOTH.,#308);
#307=SURFACE_SIDE_STYLE('',(#309));
#308=SURFACE_SIDE_STYLE('',(#310));
#309=SURFACE_STYLE_FILL_AREA(#311);
#310=SURFACE_STYLE_FILL_AREA(#312);
#311=FILL_AREA_STYLE('',(#313));
#312=FILL_AREA_STYLE('',(#314));
#313=FILL_AREA_STYLE_COLOUR('',#315);
#314=FILL_AREA_STYLE_COLOUR('',#316);
#315=COLOUR_RGB('',0.501960813999176,0.501960813999176,0.501960813999176);
#316=COLOUR_RGB('',0.176470592617989,0.200000002980232,0.200000002980232);
#317=MANIFOLD_SOLID_BREP('538252 SIEH-M12B-PS-K-L-CR---(SP)',#299);
#318=MANIFOLD_SOLID_BREP('Flachmutter M12x1-5-16',#300);
#319=SHAPE_DEFINITION_REPRESENTATION(#584,#322);
#320=SHAPE_DEFINITION_REPRESENTATION(#585,#323);
#321=SHAPE_DEFINITION_REPRESENTATION(#587,#324);
#322=SHAPE_REPRESENTATION('538252 SIEH-M12B-PS-K-L-CR',(#325,#341,#361,
#362),#575);
#323=SHAPE_REPRESENTATION('538252 SIEH-M12B-PS-K-L-CR---(SP)',(#325),#576);
#324=SHAPE_REPRESENTATION('Flachmutter M12x1-5-16',(#325),#577);
#325=AXIS2_PLACEMENT_3D('',#445,#363,#364);
#326=AXIS2_PLACEMENT_3D('',#446,#365,#366);
#327=AXIS2_PLACEMENT_3D('',#447,#367,#368);
#328=AXIS2_PLACEMENT_3D('',#449,#369,#370);
#329=AXIS2_PLACEMENT_3D('',#451,#371,#372);
#330=AXIS2_PLACEMENT_3D('',#452,#373,#374);
#331=AXIS2_PLACEMENT_3D('',#454,#375,#376);
#332=AXIS2_PLACEMENT_3D('',#455,#377,#378);
#333=AXIS2_PLACEMENT_3D('',#457,#379,#380);
#334=AXIS2_PLACEMENT_3D('',#458,#381,#382);
#335=AXIS2_PLACEMENT_3D('',#460,#383,#384);
#336=AXIS2_PLACEMENT_3D('',#461,#385,#386);
#337=AXIS2_PLACEMENT_3D('',#463,#387,#388);
#338=AXIS2_PLACEMENT_3D('',#464,#389,#390);
#339=AXIS2_PLACEMENT_3D('',#465,#391,#392);
#340=AXIS2_PLACEMENT_3D('',#467,#393,#394);
#341=AXIS2_PLACEMENT_3D('',#468,#395,#396);
#342=AXIS2_PLACEMENT_3D('',#469,#397,#398);
#343=AXIS2_PLACEMENT_3D('',#470,#399,#400);
#344=AXIS2_PLACEMENT_3D('',#472,#401,#402);
#345=AXIS2_PLACEMENT_3D('',#474,#403,#404);
#346=AXIS2_PLACEMENT_3D('',#511,#405,#406);
#347=AXIS2_PLACEMENT_3D('',#512,#407,#408);
#348=AXIS2_PLACEMENT_3D('',#550,#409,#410);
#349=AXIS2_PLACEMENT_3D('',#551,#411,#412);
#350=AXIS2_PLACEMENT_3D('',#553,#413,#414);
#351=AXIS2_PLACEMENT_3D('',#554,#415,#416);
#352=AXIS2_PLACEMENT_3D('',#556,#417,#418);
#353=AXIS2_PLACEMENT_3D('',#557,#419,#420);
#354=AXIS2_PLACEMENT_3D('',#559,#421,#422);
#355=AXIS2_PLACEMENT_3D('',#560,#423,#424);
#356=AXIS2_PLACEMENT_3D('',#563,#427,#428);
#357=AXIS2_PLACEMENT_3D('',#565,#430,#431);
#358=AXIS2_PLACEMENT_3D('',#567,#433,#434);
#359=AXIS2_PLACEMENT_3D('',#569,#436,#437);
#360=AXIS2_PLACEMENT_3D('',#571,#439,#440);
#361=AXIS2_PLACEMENT_3D('',#572,#441,#442);
#362=AXIS2_PLACEMENT_3D('',#573,#443,#444);
#363=DIRECTION('',(0.,0.,1.));
#364=DIRECTION('',(1.,0.,0.));
#365=DIRECTION('',(1.,0.,0.));
#366=DIRECTION('',(0.,0.,-1.));
#367=DIRECTION('',(1.,0.,0.));
#368=DIRECTION('',(0.,0.,-1.));
#369=DIRECTION('',(1.,0.,0.));
#370=DIRECTION('',(0.,0.,-1.));
#371=DIRECTION('',(1.,0.,0.));
#372=DIRECTION('',(0.,0.,-1.));
#373=DIRECTION('',(1.,0.,0.));
#374=DIRECTION('',(0.,0.,-1.));
#375=DIRECTION('',(1.,0.,0.));
#376=DIRECTION('',(0.,0.,-1.));
#377=DIRECTION('',(1.,0.,0.));
#378=DIRECTION('',(0.,0.,-1.));
#379=DIRECTION('',(1.,0.,0.));
#380=DIRECTION('',(0.,0.,-1.));
#381=DIRECTION('',(1.,0.,0.));
#382=DIRECTION('',(0.,0.,-1.));
#383=DIRECTION('',(-1.,0.,0.));
#384=DIRECTION('',(0.,0.,1.));
#385=DIRECTION('',(1.,0.,0.));
#386=DIRECTION('',(0.,0.,-1.));
#387=DIRECTION('',(-1.,0.,0.));
#388=DIRECTION('',(0.,0.,1.));
#389=DIRECTION('',(1.,0.,0.));
#390=DIRECTION('',(0.,0.,-1.));
#391=DIRECTION('',(1.,0.,0.));
#392=DIRECTION('',(0.,0.,-1.));
#393=DIRECTION('',(1.,0.,0.));
#394=DIRECTION('',(0.,0.,-1.));
#395=DIRECTION('',(0.,0.,1.));
#396=DIRECTION('',(1.,0.,0.));
#397=DIRECTION('',(1.,0.,0.));
#398=DIRECTION('',(0.,0.,-1.));
#399=DIRECTION('',(1.,0.,0.));
#400=DIRECTION('',(0.,0.,-1.));
#401=DIRECTION('',(1.,0.,0.));
#402=DIRECTION('',(0.,0.,-1.));
#403=DIRECTION('',(1.,0.,0.));
#404=DIRECTION('',(0.,0.,-1.));
#405=DIRECTION('',(-1.,0.,0.));
#406=DIRECTION('',(0.,0.,1.));
#407=DIRECTION('',(1.,0.,0.));
#408=DIRECTION('',(0.,0.,-1.));
#409=DIRECTION('',(-1.,0.,0.));
#410=DIRECTION('',(0.,0.,1.));
#411=DIRECTION('',(1.,0.,0.));
#412=DIRECTION('',(0.,0.,-1.));
#413=DIRECTION('',(-1.,0.,0.));
#414=DIRECTION('',(0.,0.,1.));
#415=DIRECTION('',(1.,0.,0.));
#416=DIRECTION('',(0.,0.,-1.));
#417=DIRECTION('',(1.,0.,0.));
#418=DIRECTION('',(0.,0.,-1.));
#419=DIRECTION('',(1.,0.,0.));
#420=DIRECTION('',(0.,0.,-1.));
#421=DIRECTION('',(1.,0.,0.));
#422=DIRECTION('',(0.,0.,-1.));
#423=DIRECTION('',(0.,0.,-1.));
#424=DIRECTION('',(-1.,0.,0.));
#425=DIRECTION('',(-1.,0.,0.));
#426=DIRECTION('',(-1.,0.,0.));
#427=DIRECTION('',(0.,-0.866025403784439,-0.5));
#428=DIRECTION('',(0.,0.5,-0.866025403784439));
#429=DIRECTION('',(-1.,0.,0.));
#430=DIRECTION('',(0.,-0.866025403784439,0.5));
#431=DIRECTION('',(0.,-0.5,-0.866025403784439));
#432=DIRECTION('',(-1.,0.,0.));
#433=DIRECTION('',(0.,0.,1.));
#434=DIRECTION('',(1.,0.,0.));
#435=DIRECTION('',(-1.,0.,0.));
#436=DIRECTION('',(0.,0.866025403784439,0.5));
#437=DIRECTION('',(0.,-0.5,0.866025403784439));
#438=DIRECTION('',(-1.,0.,0.));
#439=DIRECTION('',(0.,0.866025403784439,-0.5));
#440=DIRECTION('',(0.,0.5,0.866025403784439));
#441=DIRECTION('',(0.,0.,1.));
#442=DIRECTION('',(-1.,0.,0.));
#443=DIRECTION('',(0.,0.,1.));
#444=DIRECTION('',(-1.,0.,0.));
#445=CARTESIAN_POINT('',(0.,0.,0.));
#446=CARTESIAN_POINT('',(0.,0.,0.));
#447=CARTESIAN_POINT('',(0.,0.,0.));
#448=CARTESIAN_POINT('',(0.,0.,-5.3865));
#449=CARTESIAN_POINT('',(0.,0.,0.));
#450=CARTESIAN_POINT('',(0.,0.,-2.5));
#451=CARTESIAN_POINT('',(50.,0.,0.));
#452=CARTESIAN_POINT('',(1.,0.,0.));
#453=CARTESIAN_POINT('',(1.,0.,-5.3865));
#454=CARTESIAN_POINT('',(1.,5.3865,0.));
#455=CARTESIAN_POINT('',(1.,0.,0.));
#456=CARTESIAN_POINT('',(1.,0.,-6.));
#457=CARTESIAN_POINT('',(50.,0.,0.));
#458=CARTESIAN_POINT('',(49.3865,0.,0.));
#459=CARTESIAN_POINT('',(49.3865,0.,-6.));
#460=CARTESIAN_POINT('',(49.3865,0.,0.));
#461=CARTESIAN_POINT('',(50.,0.,0.));
#462=CARTESIAN_POINT('',(50.,0.,-5.3865));
#463=CARTESIAN_POINT('',(50.,5.3865,0.));
#464=CARTESIAN_POINT('',(-15.,0.,0.));
#465=CARTESIAN_POINT('',(-15.,0.,0.));
#466=CARTESIAN_POINT('',(-15.,0.,-2.5));
#467=CARTESIAN_POINT('',(0.,0.,0.));
#468=CARTESIAN_POINT('',(0.,0.,0.));
#469=CARTESIAN_POINT('',(0.,0.,0.));
#470=CARTESIAN_POINT('',(0.,0.,0.));
#471=CARTESIAN_POINT('',(0.,0.,-7.9));
#472=CARTESIAN_POINT('',(0.,0.,0.));
#473=CARTESIAN_POINT('',(0.,0.,-6.));
#474=CARTESIAN_POINT('',(0.,0.,0.));
#475=CARTESIAN_POINT('',(0.235855728841923,4.61880215351701,8.));
#476=CARTESIAN_POINT('',(0.100119155805355,5.38860251243651,6.66666666666667));
#477=CARTESIAN_POINT('',(-0.0648537596636618,6.92820323027551,4.));
#478=CARTESIAN_POINT('',(0.100119155805355,8.46780394811451,1.33333333333333));
#479=CARTESIAN_POINT('',(0.235855728841923,9.23760430703401,-2.06795153138257E-22));
#480=CARTESIAN_POINT('',(0.235855728841946,4.61880215351701,8.));
#481=CARTESIAN_POINT('',(0.235855728841946,9.23760430703401,0.));
#482=CARTESIAN_POINT('',(0.235855728841923,9.23760430703401,1.51446016810496E-16));
#483=CARTESIAN_POINT('',(0.100119155805355,8.46780394811451,-1.33333333333333));
#484=CARTESIAN_POINT('',(-0.064853759663662,6.92820323027551,-4.));
#485=CARTESIAN_POINT('',(0.100119155805355,5.38860251243651,-6.66666666666667));
#486=CARTESIAN_POINT('',(0.235855728841923,4.61880215351701,-8.));
#487=CARTESIAN_POINT('',(0.235855728841946,4.61880215351701,-8.));
#488=CARTESIAN_POINT('',(0.235855728841946,4.61880215351701,-8.));
#489=CARTESIAN_POINT('',(0.10097274000102,3.08888326873852,-8.));
#490=CARTESIAN_POINT('',(-0.0652482080406105,0.0214897333684003,-8.));
#491=CARTESIAN_POINT('',(0.100062297147664,-3.07855651273445,-8.));
#492=CARTESIAN_POINT('',(0.235855728841946,-4.61880215351701,-8.));
#493=CARTESIAN_POINT('',(0.235855728841946,-4.61880215351701,-8.));
#494=CARTESIAN_POINT('',(0.235855728841923,-4.61880215351701,-8.));
#495=CARTESIAN_POINT('',(0.100119155805355,-5.38860251243651,-6.66666666666667));
#496=CARTESIAN_POINT('',(-0.0648537596636618,-6.92820323027551,-4.));
#497=CARTESIAN_POINT('',(0.100119155805355,-8.46780394811451,-1.33333333333333));
#498=CARTESIAN_POINT('',(0.235855728841923,-9.23760430703401,2.06795153138257E-22));
#499=CARTESIAN_POINT('',(0.235855728841946,-9.23760430703401,0.));
#500=CARTESIAN_POINT('',(0.235855728841923,-9.23760430703401,-1.51446016810496E-16));
#501=CARTESIAN_POINT('',(0.100119155805355,-8.46780394811451,1.33333333333333));
#502=CARTESIAN_POINT('',(-0.064853759663662,-6.92820323027551,4.));
#503=CARTESIAN_POINT('',(0.100119155805355,-5.38860251243651,6.66666666666667));
#504=CARTESIAN_POINT('',(0.235855728841923,-4.61880215351701,8.));
#505=CARTESIAN_POINT('',(0.235855728841946,-4.61880215351701,8.));
#506=CARTESIAN_POINT('',(0.235855728841946,-4.61880215351701,8.));
#507=CARTESIAN_POINT('',(0.10097274000102,-3.08888326873852,8.));
#508=CARTESIAN_POINT('',(-0.0652482080406105,-0.0214897333684003,8.));
#509=CARTESIAN_POINT('',(0.100062297147664,3.07855651273445,8.));
#510=CARTESIAN_POINT('',(0.235855728841946,4.61880215351701,8.));
#511=CARTESIAN_POINT('',(4.41812096366207,0.,0.));
#512=CARTESIAN_POINT('',(5.,0.,0.));
#513=CARTESIAN_POINT('',(5.,0.,-7.9));
#514=CARTESIAN_POINT('',(4.76414427115808,9.23760430703402,5.48122961102138E-17));
#515=CARTESIAN_POINT('',(4.89988084419465,8.46780394811451,1.33333333333333));
#516=CARTESIAN_POINT('',(5.06485375966366,6.92820323027551,4.));
#517=CARTESIAN_POINT('',(4.89988084419465,5.38860251243651,6.66666666666667));
#518=CARTESIAN_POINT('',(4.76414427115808,4.61880215351701,8.));
#519=CARTESIAN_POINT('',(4.76414427115805,9.23760430703401,0.));
#520=CARTESIAN_POINT('',(4.76414427115805,4.61880215351701,8.));
#521=CARTESIAN_POINT('',(4.76414427115805,4.61880215351701,8.));
#522=CARTESIAN_POINT('',(4.89902725999898,3.08888326873852,8.));
#523=CARTESIAN_POINT('',(5.06524820804061,0.021489733368394,8.));
#524=CARTESIAN_POINT('',(4.89993770285234,-3.07855651273444,8.));
#525=CARTESIAN_POINT('',(4.76414427115806,-4.618802153517,8.));
#526=CARTESIAN_POINT('',(4.76414427115805,-4.61880215351701,8.));
#527=CARTESIAN_POINT('',(4.76414427115808,-4.61880215351701,8.));
#528=CARTESIAN_POINT('',(4.89988084419465,-5.38860251243651,6.66666666666667));
#529=CARTESIAN_POINT('',(5.06485375966366,-6.92820323027551,4.));
#530=CARTESIAN_POINT('',(4.89988084419465,-8.46780394811451,1.33333333333333));
#531=CARTESIAN_POINT('',(4.76414427115808,-9.23760430703401,-3.1358003431579E-16));
#532=CARTESIAN_POINT('',(4.76414427115805,-9.23760430703401,-3.06635810007913E-16));
#533=CARTESIAN_POINT('',(4.76414427115808,-9.23760430703402,-1.84189961358408E-16));
#534=CARTESIAN_POINT('',(4.89988084419465,-8.46780394811451,-1.33333333333333));
#535=CARTESIAN_POINT('',(5.06485375966366,-6.92820323027551,-4.));
#536=CARTESIAN_POINT('',(4.89988084419465,-5.38860251243651,-6.66666666666667));
#537=CARTESIAN_POINT('',(4.76414427115808,-4.61880215351701,-8.));
#538=CARTESIAN_POINT('',(4.76414427115805,-4.61880215351701,-8.));
#539=CARTESIAN_POINT('',(4.76414427115805,-4.61880215351701,-8.));
#540=CARTESIAN_POINT('',(4.89902725999898,-3.08888326873852,-8.));
#541=CARTESIAN_POINT('',(5.06524820804061,-0.021489733368394,-8.));
#542=CARTESIAN_POINT('',(4.89993770285234,3.07855651273444,-8.));
#543=CARTESIAN_POINT('',(4.76414427115806,4.618802153517,-8.));
#544=CARTESIAN_POINT('',(4.76414427115805,4.61880215351701,-8.));
#545=CARTESIAN_POINT('',(4.76414427115808,4.61880215351701,-8.));
#546=CARTESIAN_POINT('',(4.89988084419465,5.38860251243651,-6.66666666666667));
#547=CARTESIAN_POINT('',(5.06485375966366,6.92820323027551,-4.));
#548=CARTESIAN_POINT('',(4.89988084419465,8.46780394811451,-1.33333333333333));
#549=CARTESIAN_POINT('',(4.76414427115808,9.23760430703401,3.1358003431579E-16));
#550=CARTESIAN_POINT('',(5.,7.9,0.));
#551=CARTESIAN_POINT('',(5.,0.,0.));
#552=CARTESIAN_POINT('',(5.,0.,-6.));
#553=CARTESIAN_POINT('',(0.,0.,0.));
#554=CARTESIAN_POINT('',(0.5415,0.,0.));
#555=CARTESIAN_POINT('',(0.5415,0.,-5.4585));
#556=CARTESIAN_POINT('',(5.,0.,0.));
#557=CARTESIAN_POINT('',(4.4585,0.,0.));
#558=CARTESIAN_POINT('',(4.4585,0.,-5.4585));
#559=CARTESIAN_POINT('',(4.4585,0.,0.));
#560=CARTESIAN_POINT('',(5.,4.61880215351701,8.));
#561=CARTESIAN_POINT('',(5.,-4.61880215351701,8.));
#562=CARTESIAN_POINT('',(5.,4.61880215351701,8.));
#563=CARTESIAN_POINT('',(5.,9.23760430703401,0.));
#564=CARTESIAN_POINT('',(5.,9.23760430703401,0.));
#565=CARTESIAN_POINT('',(5.,4.61880215351701,-8.));
#566=CARTESIAN_POINT('',(5.,4.61880215351701,-8.));
#567=CARTESIAN_POINT('',(5.,-4.61880215351701,-8.));
#568=CARTESIAN_POINT('',(5.,-4.61880215351701,-8.));
#569=CARTESIAN_POINT('',(5.,-9.23760430703401,0.));
#570=CARTESIAN_POINT('',(5.,-9.23760430703401,0.));
#571=CARTESIAN_POINT('',(5.,-4.61880215351701,8.));
#572=CARTESIAN_POINT('',(30.,0.,0.));
#573=CARTESIAN_POINT('',(40.,0.,0.));
#574=MECHANICAL_DESIGN_GEOMETRIC_PRESENTATION_REPRESENTATION('',(#301,#302),
#575);
#575=(
GEOMETRIC_REPRESENTATION_CONTEXT(3)
GLOBAL_UNCERTAINTY_ASSIGNED_CONTEXT((#578))
GLOBAL_UNIT_ASSIGNED_CONTEXT((#583,#582,#581))
REPRESENTATION_CONTEXT('538252 SIEH-M12B-PS-K-L-CR',
'TOP_LEVEL_ASSEMBLY_PART')
);
#576=(
GEOMETRIC_REPRESENTATION_CONTEXT(3)
GLOBAL_UNCERTAINTY_ASSIGNED_CONTEXT((#579))
GLOBAL_UNIT_ASSIGNED_CONTEXT((#583,#582,#581))
REPRESENTATION_CONTEXT('538252 SIEH-M12B-PS-K-L-CR---(SP)',
'COMPONENT_PART')
);
#577=(
GEOMETRIC_REPRESENTATION_CONTEXT(3)
GLOBAL_UNCERTAINTY_ASSIGNED_CONTEXT((#580))
GLOBAL_UNIT_ASSIGNED_CONTEXT((#583,#582,#581))
REPRESENTATION_CONTEXT('Flachmutter M12x1-5-16','COMPONENT_PART')
);
#578=UNCERTAINTY_MEASURE_WITH_UNIT(LENGTH_MEASURE(0.005),#583,
'DISTANCE_ACCURACY_VALUE','Maximum Tolerance applied to model');
#579=UNCERTAINTY_MEASURE_WITH_UNIT(LENGTH_MEASURE(0.005),#583,
'DISTANCE_ACCURACY_VALUE','Maximum Tolerance applied to model');
#580=UNCERTAINTY_MEASURE_WITH_UNIT(LENGTH_MEASURE(0.005),#583,
'DISTANCE_ACCURACY_VALUE','Maximum Tolerance applied to model');
#581=(
NAMED_UNIT(*)
SI_UNIT($,.STERADIAN.)
SOLID_ANGLE_UNIT()
);
#582=(
NAMED_UNIT(*)
PLANE_ANGLE_UNIT()
SI_UNIT($,.RADIAN.)
);
#583=(
LENGTH_UNIT()
NAMED_UNIT(*)
SI_UNIT(.MILLI.,.METRE.)
);
#584=PRODUCT_DEFINITION_SHAPE('','',#590);
#585=PRODUCT_DEFINITION_SHAPE('','',#591);
#586=PRODUCT_DEFINITION_SHAPE(' ','NAUO PRDDFN',#45);
#587=PRODUCT_DEFINITION_SHAPE('','',#592);
#588=PRODUCT_DEFINITION_SHAPE(' ','NAUO PRDDFN',#46);
#589=PRODUCT_DEFINITION_SHAPE(' ','NAUO PRDDFN',#47);
#590=PRODUCT_DEFINITION('','',#596,#593);
#591=PRODUCT_DEFINITION('','',#597,#594);
#592=PRODUCT_DEFINITION('','',#598,#595);
#593=PRODUCT_DEFINITION_CONTEXT('',#612,'design');
#594=PRODUCT_DEFINITION_CONTEXT('',#612,'design');
#595=PRODUCT_DEFINITION_CONTEXT('',#612,'design');
#596=PRODUCT_DEFINITION_FORMATION_WITH_SPECIFIED_SOURCE('','',#602,
 .NOT_KNOWN.);
#597=PRODUCT_DEFINITION_FORMATION_WITH_SPECIFIED_SOURCE('','',#603,
 .NOT_KNOWN.);
#598=PRODUCT_DEFINITION_FORMATION_WITH_SPECIFIED_SOURCE('','',#604,
 .NOT_KNOWN.);
#599=PRODUCT_RELATED_PRODUCT_CATEGORY('','',(#602));
#600=PRODUCT_RELATED_PRODUCT_CATEGORY('','',(#603));
#601=PRODUCT_RELATED_PRODUCT_CATEGORY('','',(#604));
#602=PRODUCT('538252 SIEH-M12B-PS-K-L-CR','538252 SIEH-M12B-PS-K-L-CR',
'538252 SIEH-M12B-PS-K-L-CR',(#608));
#603=PRODUCT('538252 SIEH-M12B-PS-K-L-CR---(SP)',
'538252 SIEH-M12B-PS-K-L-CR---(SP)','538252 SIEH-M12B-PS-K-L-CR---(SP)',
(#609));
#604=PRODUCT('Flachmutter M12x1-5-16','Flachmutter M12x1-5-16',
'Flachmutter M12x1-5-16',(#610));
#605=PRODUCT_CATEGORY('','');
#606=PRODUCT_CATEGORY('','');
#607=PRODUCT_CATEGORY('','');
#608=PRODUCT_CONTEXT('',#612,'mechanical');
#609=PRODUCT_CONTEXT('',#612,'mechanical');
#610=PRODUCT_CONTEXT('',#612,'mechanical');
#611=APPLICATION_PROTOCOL_DEFINITION('international standard',
'automotive_design',2010,#612);
#612=APPLICATION_CONTEXT(
'core data for automotive mechanical design processes');
ENDSEC;
END-ISO-10303-21;
