ISO-10303-21;
HEADER;
/* Generated by software containing ST-Developer
 * from STEP Tools, Inc. (www.steptools.com) 
 */
/* OPTION: using custom renumber hook */

FILE_DESCRIPTION(
/* description */ ('STEP AP214'),
/* implementation_level */ '2;1');

FILE_NAME(
/* name */ '538265_SIEH-3B-NS-S-L',
/* time_stamp */ '2024-09-15T04:41:02+02:00',
/* author */ ('License CC BY-ND 4.0'),
/* organization */ ('CADENAS'),
/* preprocessor_version */ 'ST-DEVELOPER v19.3',
/* originating_system */ 'PARTsolutions',
/* authorisation */ '  ');

FILE_SCHEMA (('AUTOMOTIVE_DESIGN {1 0 10303 214 3 1 1}'));
ENDSEC;

DATA;
#10=PROPERTY_DEFINITION_REPRESENTATION(#14,#12);
#11=PROPERTY_DEFINITION_REPRESENTATION(#15,#13);
#12=REPRESENTATION('',(#16),#440);
#13=REPRESENTATION('',(#17),#440);
#14=PROPERTY_DEFINITION('pmi validation property','',#447);
#15=PROPERTY_DEFINITION('pmi validation property','',#447);
#16=VALUE_REPRESENTATION_ITEM('number of annotations',COUNT_MEASURE(0.));
#17=VALUE_REPRESENTATION_ITEM('number of views',COUNT_MEASURE(0.));
#18=CONTEXT_DEPENDENT_SHAPE_REPRESENTATION(#20,#449);
#19=NEXT_ASSEMBLY_USAGE_OCCURRENCE('NAUO1',
'538265 SIEH-3B-NS-S-L---(SP)','538265 SIEH-3B-NS-S-L---(SP)',#450,#451,
'');
#20=(
REPRESENTATION_RELATIONSHIP(' ',' ',#248,#247)
REPRESENTATION_RELATIONSHIP_WITH_TRANSFORMATION(#21)
SHAPE_REPRESENTATION_RELATIONSHIP()
);
#21=ITEM_DEFINED_TRANSFORMATION(' ',' ',#249,#288);
#22=SHAPE_REPRESENTATION_RELATIONSHIP('','',#248,#23);
#23=ADVANCED_BREP_SHAPE_REPRESENTATION('',(#244),#441);
#24=B_SPLINE_CURVE_WITH_KNOTS('',3,(#421,#422,#423,#424,#425,#426,#427,
#428,#429,#430,#431),.UNSPECIFIED.,.T.,.F.,(1,1,1,1,1,1,1,1,1,1,1,1,1,1,
1),(-0.00118078361495709,-0.000787189076638061,-0.00039359453831903,0.,
0.00039359453831903,0.000787189076638061,0.00118078361495709,0.00157437815327612,
0.00196797269159515,0.00236156722991418,0.00275516176823321,0.00314875630655224,
0.00354235084487127,0.0039359453831903,0.00432953992150933),
 .UNSPECIFIED.);
#25=CYLINDRICAL_SURFACE('',#256,3.);
#26=CYLINDRICAL_SURFACE('',#262,4.);
#27=CYLINDRICAL_SURFACE('',#268,3.);
#28=CYLINDRICAL_SURFACE('',#272,3.5);
#29=CYLINDRICAL_SURFACE('',#278,1.3);
#30=CYLINDRICAL_SURFACE('',#282,1.5);
#31=CYLINDRICAL_SURFACE('',#285,0.5);
#32=CONICAL_SURFACE('',#252,3.,0.174532925199433);
#33=CONICAL_SURFACE('',#260,3.3865,0.785398163397457);
#34=CONICAL_SURFACE('',#264,4.,0.785398163397435);
#35=CONICAL_SURFACE('',#274,3.5,0.174532925199433);
#36=ORIENTED_EDGE('',*,*,#74,.F.);
#37=ORIENTED_EDGE('',*,*,#75,.F.);
#38=ORIENTED_EDGE('',*,*,#74,.T.);
#39=ORIENTED_EDGE('',*,*,#76,.F.);
#40=ORIENTED_EDGE('',*,*,#75,.T.);
#41=ORIENTED_EDGE('',*,*,#77,.F.);
#42=ORIENTED_EDGE('',*,*,#76,.T.);
#43=ORIENTED_EDGE('',*,*,#78,.F.);
#44=ORIENTED_EDGE('',*,*,#77,.T.);
#45=ORIENTED_EDGE('',*,*,#79,.F.);
#46=ORIENTED_EDGE('',*,*,#78,.T.);
#47=ORIENTED_EDGE('',*,*,#80,.F.);
#48=ORIENTED_EDGE('',*,*,#79,.T.);
#49=ORIENTED_EDGE('',*,*,#81,.F.);
#50=ORIENTED_EDGE('',*,*,#80,.T.);
#51=ORIENTED_EDGE('',*,*,#82,.F.);
#52=ORIENTED_EDGE('',*,*,#81,.T.);
#53=ORIENTED_EDGE('',*,*,#83,.F.);
#54=ORIENTED_EDGE('',*,*,#82,.T.);
#55=ORIENTED_EDGE('',*,*,#84,.F.);
#56=ORIENTED_EDGE('',*,*,#83,.T.);
#57=ORIENTED_EDGE('',*,*,#85,.F.);
#58=ORIENTED_EDGE('',*,*,#84,.T.);
#59=ORIENTED_EDGE('',*,*,#86,.F.);
#60=ORIENTED_EDGE('',*,*,#85,.T.);
#61=ORIENTED_EDGE('',*,*,#87,.F.);
#62=ORIENTED_EDGE('',*,*,#86,.T.);
#63=ORIENTED_EDGE('',*,*,#88,.F.);
#64=ORIENTED_EDGE('',*,*,#87,.T.);
#65=ORIENTED_EDGE('',*,*,#89,.F.);
#66=ORIENTED_EDGE('',*,*,#88,.T.);
#67=ORIENTED_EDGE('',*,*,#90,.F.);
#68=ORIENTED_EDGE('',*,*,#91,.T.);
#69=ORIENTED_EDGE('',*,*,#89,.T.);
#70=ORIENTED_EDGE('',*,*,#90,.T.);
#71=ORIENTED_EDGE('',*,*,#92,.F.);
#72=ORIENTED_EDGE('',*,*,#91,.F.);
#73=ORIENTED_EDGE('',*,*,#92,.T.);
#74=EDGE_CURVE('',#93,#93,#112,.T.);
#75=EDGE_CURVE('',#94,#94,#113,.T.);
#76=EDGE_CURVE('',#95,#95,#114,.T.);
#77=EDGE_CURVE('',#96,#96,#115,.T.);
#78=EDGE_CURVE('',#97,#97,#116,.T.);
#79=EDGE_CURVE('',#98,#98,#117,.T.);
#80=EDGE_CURVE('',#99,#99,#118,.T.);
#81=EDGE_CURVE('',#100,#100,#119,.T.);
#82=EDGE_CURVE('',#101,#101,#120,.T.);
#83=EDGE_CURVE('',#102,#102,#121,.T.);
#84=EDGE_CURVE('',#103,#103,#122,.T.);
#85=EDGE_CURVE('',#104,#104,#123,.T.);
#86=EDGE_CURVE('',#105,#105,#124,.T.);
#87=EDGE_CURVE('',#106,#106,#125,.T.);
#88=EDGE_CURVE('',#107,#107,#126,.T.);
#89=EDGE_CURVE('',#108,#108,#127,.T.);
#90=EDGE_CURVE('',#109,#109,#128,.T.);
#91=EDGE_CURVE('',#110,#110,#24,.T.);
#92=EDGE_CURVE('',#111,#111,#129,.T.);
#93=VERTEX_POINT('',#372);
#94=VERTEX_POINT('',#375);
#95=VERTEX_POINT('',#378);
#96=VERTEX_POINT('',#381);
#97=VERTEX_POINT('',#384);
#98=VERTEX_POINT('',#387);
#99=VERTEX_POINT('',#390);
#100=VERTEX_POINT('',#393);
#101=VERTEX_POINT('',#396);
#102=VERTEX_POINT('',#399);
#103=VERTEX_POINT('',#402);
#104=VERTEX_POINT('',#405);
#105=VERTEX_POINT('',#408);
#106=VERTEX_POINT('',#411);
#107=VERTEX_POINT('',#414);
#108=VERTEX_POINT('',#417);
#109=VERTEX_POINT('',#420);
#110=VERTEX_POINT('',#432);
#111=VERTEX_POINT('',#436);
#112=CIRCLE('',#251,3.);
#113=CIRCLE('',#253,3.17632698070847);
#114=CIRCLE('',#255,3.);
#115=CIRCLE('',#257,3.);
#116=CIRCLE('',#259,3.3865);
#117=CIRCLE('',#261,4.);
#118=CIRCLE('',#263,4.);
#119=CIRCLE('',#265,3.3865);
#120=CIRCLE('',#267,3.);
#121=CIRCLE('',#269,3.);
#122=CIRCLE('',#271,3.5);
#123=CIRCLE('',#273,3.5);
#124=CIRCLE('',#275,1.73673019291535);
#125=CIRCLE('',#277,1.3);
#126=CIRCLE('',#279,1.3);
#127=CIRCLE('',#281,1.5);
#128=CIRCLE('',#283,1.5);
#129=CIRCLE('',#286,0.5);
#130=EDGE_LOOP('',(#36));
#131=EDGE_LOOP('',(#37));
#132=EDGE_LOOP('',(#38));
#133=EDGE_LOOP('',(#39));
#134=EDGE_LOOP('',(#40));
#135=EDGE_LOOP('',(#41));
#136=EDGE_LOOP('',(#42));
#137=EDGE_LOOP('',(#43));
#138=EDGE_LOOP('',(#44));
#139=EDGE_LOOP('',(#45));
#140=EDGE_LOOP('',(#46));
#141=EDGE_LOOP('',(#47));
#142=EDGE_LOOP('',(#48));
#143=EDGE_LOOP('',(#49));
#144=EDGE_LOOP('',(#50));
#145=EDGE_LOOP('',(#51));
#146=EDGE_LOOP('',(#52));
#147=EDGE_LOOP('',(#53));
#148=EDGE_LOOP('',(#54));
#149=EDGE_LOOP('',(#55));
#150=EDGE_LOOP('',(#56));
#151=EDGE_LOOP('',(#57));
#152=EDGE_LOOP('',(#58));
#153=EDGE_LOOP('',(#59));
#154=EDGE_LOOP('',(#60));
#155=EDGE_LOOP('',(#61));
#156=EDGE_LOOP('',(#62));
#157=EDGE_LOOP('',(#63));
#158=EDGE_LOOP('',(#64));
#159=EDGE_LOOP('',(#65));
#160=EDGE_LOOP('',(#66));
#161=EDGE_LOOP('',(#67));
#162=EDGE_LOOP('',(#68));
#163=EDGE_LOOP('',(#69));
#164=EDGE_LOOP('',(#70));
#165=EDGE_LOOP('',(#71));
#166=EDGE_LOOP('',(#72));
#167=EDGE_LOOP('',(#73));
#168=FACE_BOUND('',#130,.T.);
#169=FACE_BOUND('',#131,.T.);
#170=FACE_BOUND('',#132,.T.);
#171=FACE_BOUND('',#133,.T.);
#172=FACE_BOUND('',#134,.T.);
#173=FACE_BOUND('',#135,.T.);
#174=FACE_BOUND('',#136,.T.);
#175=FACE_BOUND('',#137,.T.);
#176=FACE_BOUND('',#138,.T.);
#177=FACE_BOUND('',#139,.T.);
#178=FACE_BOUND('',#140,.T.);
#179=FACE_BOUND('',#141,.T.);
#180=FACE_BOUND('',#142,.T.);
#181=FACE_BOUND('',#143,.T.);
#182=FACE_BOUND('',#144,.T.);
#183=FACE_BOUND('',#145,.T.);
#184=FACE_BOUND('',#146,.T.);
#185=FACE_BOUND('',#147,.T.);
#186=FACE_BOUND('',#148,.T.);
#187=FACE_BOUND('',#149,.T.);
#188=FACE_BOUND('',#150,.T.);
#189=FACE_BOUND('',#151,.T.);
#190=FACE_BOUND('',#152,.T.);
#191=FACE_BOUND('',#153,.T.);
#192=FACE_BOUND('',#154,.T.);
#193=FACE_BOUND('',#155,.T.);
#194=FACE_BOUND('',#156,.T.);
#195=FACE_BOUND('',#157,.T.);
#196=FACE_BOUND('',#158,.T.);
#197=FACE_BOUND('',#159,.T.);
#198=FACE_BOUND('',#160,.T.);
#199=FACE_BOUND('',#161,.T.);
#200=FACE_BOUND('',#162,.T.);
#201=FACE_BOUND('',#163,.T.);
#202=FACE_BOUND('',#164,.T.);
#203=FACE_BOUND('',#165,.T.);
#204=FACE_BOUND('',#166,.T.);
#205=FACE_BOUND('',#167,.T.);
#206=PLANE('',#250);
#207=PLANE('',#254);
#208=PLANE('',#258);
#209=PLANE('',#266);
#210=PLANE('',#270);
#211=PLANE('',#276);
#212=PLANE('',#280);
#213=PLANE('',#284);
#214=PLANE('',#287);
#215=ADVANCED_FACE('',(#168),#206,.F.);
#216=ADVANCED_FACE('',(#169,#170),#32,.T.);
#217=ADVANCED_FACE('',(#171,#172),#207,.F.);
#218=ADVANCED_FACE('',(#173,#174),#25,.T.);
#219=ADVANCED_FACE('',(#175,#176),#208,.F.);
#220=ADVANCED_FACE('',(#177,#178),#33,.T.);
#221=ADVANCED_FACE('',(#179,#180),#26,.T.);
#222=ADVANCED_FACE('',(#181,#182),#34,.T.);
#223=ADVANCED_FACE('',(#183,#184),#209,.F.);
#224=ADVANCED_FACE('',(#185,#186),#27,.T.);
#225=ADVANCED_FACE('',(#187,#188),#210,.F.);
#226=ADVANCED_FACE('',(#189,#190),#28,.T.);
#227=ADVANCED_FACE('',(#191,#192),#35,.T.);
#228=ADVANCED_FACE('',(#193,#194),#211,.F.);
#229=ADVANCED_FACE('',(#195,#196),#29,.T.);
#230=ADVANCED_FACE('',(#197,#198),#212,.F.);
#231=ADVANCED_FACE('',(#199,#200,#201),#30,.T.);
#232=ADVANCED_FACE('',(#202),#213,.F.);
#233=ADVANCED_FACE('',(#203,#204),#31,.F.);
#234=ADVANCED_FACE('',(#205),#214,.T.);
#235=CLOSED_SHELL('',(#215,#216,#217,#218,#219,#220,#221,#222,#223,#224,
#225,#226,#227,#228,#229,#230,#231,#232,#233,#234));
#236=STYLED_ITEM('',(#237),#244);
#237=PRESENTATION_STYLE_ASSIGNMENT((#238));
#238=SURFACE_STYLE_USAGE(.BOTH.,#239);
#239=SURFACE_SIDE_STYLE('',(#240));
#240=SURFACE_STYLE_FILL_AREA(#241);
#241=FILL_AREA_STYLE('',(#242));
#242=FILL_AREA_STYLE_COLOUR('',#243);
#243=COLOUR_RGB('',0.501960813999176,0.501960813999176,0.501960813999176);
#244=MANIFOLD_SOLID_BREP('538265 SIEH-3B-NS-S-L---(SP)',#235);
#245=SHAPE_DEFINITION_REPRESENTATION(#447,#247);
#246=SHAPE_DEFINITION_REPRESENTATION(#448,#248);
#247=SHAPE_REPRESENTATION('538265 SIEH-3B-NS-S-L',(#249,#288),#440);
#248=SHAPE_REPRESENTATION('538265 SIEH-3B-NS-S-L---(SP)',(#249),#441);
#249=AXIS2_PLACEMENT_3D('',#369,#289,#290);
#250=AXIS2_PLACEMENT_3D('',#370,#291,#292);
#251=AXIS2_PLACEMENT_3D('',#371,#293,#294);
#252=AXIS2_PLACEMENT_3D('',#373,#295,#296);
#253=AXIS2_PLACEMENT_3D('',#374,#297,#298);
#254=AXIS2_PLACEMENT_3D('',#376,#299,#300);
#255=AXIS2_PLACEMENT_3D('',#377,#301,#302);
#256=AXIS2_PLACEMENT_3D('',#379,#303,#304);
#257=AXIS2_PLACEMENT_3D('',#380,#305,#306);
#258=AXIS2_PLACEMENT_3D('',#382,#307,#308);
#259=AXIS2_PLACEMENT_3D('',#383,#309,#310);
#260=AXIS2_PLACEMENT_3D('',#385,#311,#312);
#261=AXIS2_PLACEMENT_3D('',#386,#313,#314);
#262=AXIS2_PLACEMENT_3D('',#388,#315,#316);
#263=AXIS2_PLACEMENT_3D('',#389,#317,#318);
#264=AXIS2_PLACEMENT_3D('',#391,#319,#320);
#265=AXIS2_PLACEMENT_3D('',#392,#321,#322);
#266=AXIS2_PLACEMENT_3D('',#394,#323,#324);
#267=AXIS2_PLACEMENT_3D('',#395,#325,#326);
#268=AXIS2_PLACEMENT_3D('',#397,#327,#328);
#269=AXIS2_PLACEMENT_3D('',#398,#329,#330);
#270=AXIS2_PLACEMENT_3D('',#400,#331,#332);
#271=AXIS2_PLACEMENT_3D('',#401,#333,#334);
#272=AXIS2_PLACEMENT_3D('',#403,#335,#336);
#273=AXIS2_PLACEMENT_3D('',#404,#337,#338);
#274=AXIS2_PLACEMENT_3D('',#406,#339,#340);
#275=AXIS2_PLACEMENT_3D('',#407,#341,#342);
#276=AXIS2_PLACEMENT_3D('',#409,#343,#344);
#277=AXIS2_PLACEMENT_3D('',#410,#345,#346);
#278=AXIS2_PLACEMENT_3D('',#412,#347,#348);
#279=AXIS2_PLACEMENT_3D('',#413,#349,#350);
#280=AXIS2_PLACEMENT_3D('',#415,#351,#352);
#281=AXIS2_PLACEMENT_3D('',#416,#353,#354);
#282=AXIS2_PLACEMENT_3D('',#418,#355,#356);
#283=AXIS2_PLACEMENT_3D('',#419,#357,#358);
#284=AXIS2_PLACEMENT_3D('',#433,#359,#360);
#285=AXIS2_PLACEMENT_3D('',#434,#361,#362);
#286=AXIS2_PLACEMENT_3D('',#435,#363,#364);
#287=AXIS2_PLACEMENT_3D('',#437,#365,#366);
#288=AXIS2_PLACEMENT_3D('',#438,#367,#368);
#289=DIRECTION('',(0.,0.,1.));
#290=DIRECTION('',(1.,0.,0.));
#291=DIRECTION('',(0.,0.,-1.));
#292=DIRECTION('',(-1.,0.,0.));
#293=DIRECTION('',(0.,0.,-1.));
#294=DIRECTION('',(-1.,0.,0.));
#295=DIRECTION('',(0.,0.,-1.));
#296=DIRECTION('',(-1.,0.,0.));
#297=DIRECTION('',(0.,0.,-1.));
#298=DIRECTION('',(-1.,0.,0.));
#299=DIRECTION('',(0.,0.,1.));
#300=DIRECTION('',(1.,0.,0.));
#301=DIRECTION('',(0.,0.,-1.));
#302=DIRECTION('',(-1.,0.,0.));
#303=DIRECTION('',(0.,0.,-1.));
#304=DIRECTION('',(-1.,0.,0.));
#305=DIRECTION('',(0.,0.,-1.));
#306=DIRECTION('',(-1.,0.,0.));
#307=DIRECTION('',(0.,0.,-1.));
#308=DIRECTION('',(-1.,0.,0.));
#309=DIRECTION('',(0.,0.,-1.));
#310=DIRECTION('',(-1.,0.,0.));
#311=DIRECTION('',(0.,0.,-1.));
#312=DIRECTION('',(-1.,0.,0.));
#313=DIRECTION('',(0.,0.,-1.));
#314=DIRECTION('',(-1.,0.,0.));
#315=DIRECTION('',(0.,0.,-1.));
#316=DIRECTION('',(-1.,0.,0.));
#317=DIRECTION('',(0.,0.,-1.));
#318=DIRECTION('',(-1.,0.,0.));
#319=DIRECTION('',(0.,0.,1.));
#320=DIRECTION('',(1.,0.,0.));
#321=DIRECTION('',(0.,0.,-1.));
#322=DIRECTION('',(-1.,0.,0.));
#323=DIRECTION('',(0.,0.,1.));
#324=DIRECTION('',(1.,0.,0.));
#325=DIRECTION('',(0.,0.,-1.));
#326=DIRECTION('',(-1.,0.,0.));
#327=DIRECTION('',(0.,0.,-1.));
#328=DIRECTION('',(-1.,0.,0.));
#329=DIRECTION('',(0.,0.,-1.));
#330=DIRECTION('',(-1.,0.,0.));
#331=DIRECTION('',(0.,0.,-1.));
#332=DIRECTION('',(-1.,0.,0.));
#333=DIRECTION('',(0.,0.,-1.));
#334=DIRECTION('',(-1.,0.,0.));
#335=DIRECTION('',(0.,0.,-1.));
#336=DIRECTION('',(-1.,0.,0.));
#337=DIRECTION('',(0.,0.,-1.));
#338=DIRECTION('',(-1.,0.,0.));
#339=DIRECTION('',(0.,0.,1.));
#340=DIRECTION('',(1.,0.,0.));
#341=DIRECTION('',(0.,0.,-1.));
#342=DIRECTION('',(-1.,0.,0.));
#343=DIRECTION('',(0.,0.,1.));
#344=DIRECTION('',(1.,0.,0.));
#345=DIRECTION('',(0.,0.,-1.));
#346=DIRECTION('',(-1.,0.,0.));
#347=DIRECTION('',(0.,0.,-1.));
#348=DIRECTION('',(-1.,0.,0.));
#349=DIRECTION('',(0.,0.,-1.));
#350=DIRECTION('',(-1.,0.,0.));
#351=DIRECTION('',(0.,0.,-1.));
#352=DIRECTION('',(-1.,0.,0.));
#353=DIRECTION('',(0.,0.,-1.));
#354=DIRECTION('',(-1.,0.,0.));
#355=DIRECTION('',(0.,0.,-1.));
#356=DIRECTION('',(-1.,0.,0.));
#357=DIRECTION('',(0.,0.,-1.));
#358=DIRECTION('',(-1.,0.,0.));
#359=DIRECTION('',(0.,0.,1.));
#360=DIRECTION('',(1.,0.,0.));
#361=DIRECTION('',(1.,0.,0.));
#362=DIRECTION('',(0.,0.,-1.));
#363=DIRECTION('',(1.,0.,0.));
#364=DIRECTION('',(0.,0.,-1.));
#365=DIRECTION('',(1.,0.,0.));
#366=DIRECTION('',(0.,0.,-1.));
#367=DIRECTION('',(0.,0.,1.));
#368=DIRECTION('',(1.,0.,0.));
#369=CARTESIAN_POINT('',(0.,0.,0.));
#370=CARTESIAN_POINT('',(0.,0.,0.));
#371=CARTESIAN_POINT('',(0.,0.,0.));
#372=CARTESIAN_POINT('',(-3.,0.,0.));
#373=CARTESIAN_POINT('',(0.,0.,0.));
#374=CARTESIAN_POINT('',(0.,0.,-1.));
#375=CARTESIAN_POINT('',(-3.17632698070847,0.,-1.));
#376=CARTESIAN_POINT('',(0.,3.17632698070847,-1.));
#377=CARTESIAN_POINT('',(0.,0.,-1.));
#378=CARTESIAN_POINT('',(-3.,0.,-1.));
#379=CARTESIAN_POINT('',(0.,0.,-202.));
#380=CARTESIAN_POINT('',(0.,0.,-2.));
#381=CARTESIAN_POINT('',(-3.,0.,-2.));
#382=CARTESIAN_POINT('',(0.,3.,-2.));
#383=CARTESIAN_POINT('',(0.,0.,-2.));
#384=CARTESIAN_POINT('',(-3.3865,0.,-2.));
#385=CARTESIAN_POINT('',(0.,0.,-2.));
#386=CARTESIAN_POINT('',(0.,0.,-2.61349999999999));
#387=CARTESIAN_POINT('',(-4.,0.,-2.61349999999999));
#388=CARTESIAN_POINT('',(0.,0.,-202.));
#389=CARTESIAN_POINT('',(0.,0.,-6.38649999999999));
#390=CARTESIAN_POINT('',(-4.,0.,-6.38649999999999));
#391=CARTESIAN_POINT('',(0.,0.,-6.38649999999999));
#392=CARTESIAN_POINT('',(0.,0.,-7.00000000000001));
#393=CARTESIAN_POINT('',(-3.3865,0.,-7.00000000000001));
#394=CARTESIAN_POINT('',(0.,3.3865,-7.));
#395=CARTESIAN_POINT('',(0.,0.,-7.00000000000001));
#396=CARTESIAN_POINT('',(-3.,0.,-7.00000000000001));
#397=CARTESIAN_POINT('',(0.,0.,-202.));
#398=CARTESIAN_POINT('',(0.,0.,-8.00000000000001));
#399=CARTESIAN_POINT('',(-3.,0.,-8.00000000000001));
#400=CARTESIAN_POINT('',(0.,3.,-8.));
#401=CARTESIAN_POINT('',(0.,0.,-8.00000000000001));
#402=CARTESIAN_POINT('',(-3.5,0.,-8.00000000000001));
#403=CARTESIAN_POINT('',(0.,0.,-202.));
#404=CARTESIAN_POINT('',(0.,0.,-20.));
#405=CARTESIAN_POINT('',(-3.5,0.,-20.));
#406=CARTESIAN_POINT('',(0.,0.,-20.));
#407=CARTESIAN_POINT('',(0.,0.,-30.));
#408=CARTESIAN_POINT('',(-1.73673019291535,0.,-30.));
#409=CARTESIAN_POINT('',(0.,1.73673019291535,-30.));
#410=CARTESIAN_POINT('',(0.,0.,-30.));
#411=CARTESIAN_POINT('',(-1.3,0.,-30.));
#412=CARTESIAN_POINT('',(0.,0.,-202.));
#413=CARTESIAN_POINT('',(0.,0.,-180.));
#414=CARTESIAN_POINT('',(-1.3,0.,-180.));
#415=CARTESIAN_POINT('',(0.,1.3,-180.));
#416=CARTESIAN_POINT('',(0.,0.,-180.));
#417=CARTESIAN_POINT('',(-1.5,0.,-180.));
#418=CARTESIAN_POINT('',(0.,0.,-202.));
#419=CARTESIAN_POINT('',(0.,0.,-202.));
#420=CARTESIAN_POINT('',(-1.5,0.,-202.));
#421=CARTESIAN_POINT('',(1.45832584011967,0.391961844265982,-186.391622327752));
#422=CARTESIAN_POINT('',(1.52083964166965,8.68561283204843E-6,-186.55424034272));
#423=CARTESIAN_POINT('',(1.45831559320173,-0.391996586717311,-186.391416301366));
#424=CARTESIAN_POINT('',(1.39214706134117,-0.554079619722904,-186.000677601857));
#425=CARTESIAN_POINT('',(1.45837779324709,-0.391684205859005,-185.607964030761));
#426=CARTESIAN_POINT('',(1.52080949312789,-0.000339442801897024,-185.445981486688));
#427=CARTESIAN_POINT('',(1.45838415391558,0.391839536252987,-185.608110263466));
#428=CARTESIAN_POINT('',(1.39214284594799,0.55404965233271,-186.000005156804));
#429=CARTESIAN_POINT('',(1.45832584011967,0.391961844265982,-186.391622327752));
#430=CARTESIAN_POINT('',(1.52083964166965,8.68561283204843E-6,-186.55424034272));
#431=CARTESIAN_POINT('',(1.45831559320173,-0.391996586717311,-186.391416301366));
#432=CARTESIAN_POINT('',(1.5,0.,-186.5));
#433=CARTESIAN_POINT('',(0.,1.5,-202.));
#434=CARTESIAN_POINT('',(1.,0.,-186.));
#435=CARTESIAN_POINT('',(1.,0.,-186.));
#436=CARTESIAN_POINT('',(1.,0.,-186.5));
#437=CARTESIAN_POINT('',(1.,0.,-186.));
#438=CARTESIAN_POINT('',(0.,0.,0.));
#439=MECHANICAL_DESIGN_GEOMETRIC_PRESENTATION_REPRESENTATION('',(#236),
#440);
#440=(
GEOMETRIC_REPRESENTATION_CONTEXT(3)
GLOBAL_UNCERTAINTY_ASSIGNED_CONTEXT((#442))
GLOBAL_UNIT_ASSIGNED_CONTEXT((#446,#445,#444))
REPRESENTATION_CONTEXT('538265 SIEH-3B-NS-S-L',
'TOP_LEVEL_ASSEMBLY_PART')
);
#441=(
GEOMETRIC_REPRESENTATION_CONTEXT(3)
GLOBAL_UNCERTAINTY_ASSIGNED_CONTEXT((#443))
GLOBAL_UNIT_ASSIGNED_CONTEXT((#446,#445,#444))
REPRESENTATION_CONTEXT('538265 SIEH-3B-NS-S-L---(SP)','COMPONENT_PART')
);
#442=UNCERTAINTY_MEASURE_WITH_UNIT(LENGTH_MEASURE(0.005),#446,
'DISTANCE_ACCURACY_VALUE','Maximum Tolerance applied to model');
#443=UNCERTAINTY_MEASURE_WITH_UNIT(LENGTH_MEASURE(0.005),#446,
'DISTANCE_ACCURACY_VALUE','Maximum Tolerance applied to model');
#444=(
NAMED_UNIT(*)
SI_UNIT($,.STERADIAN.)
SOLID_ANGLE_UNIT()
);
#445=(
NAMED_UNIT(*)
PLANE_ANGLE_UNIT()
SI_UNIT($,.RADIAN.)
);
#446=(
LENGTH_UNIT()
NAMED_UNIT(*)
SI_UNIT(.MILLI.,.METRE.)
);
#447=PRODUCT_DEFINITION_SHAPE('','',#450);
#448=PRODUCT_DEFINITION_SHAPE('','',#451);
#449=PRODUCT_DEFINITION_SHAPE(' ','NAUO PRDDFN',#19);
#450=PRODUCT_DEFINITION('','',#454,#452);
#451=PRODUCT_DEFINITION('','',#455,#453);
#452=PRODUCT_DEFINITION_CONTEXT('',#465,'design');
#453=PRODUCT_DEFINITION_CONTEXT('',#465,'design');
#454=PRODUCT_DEFINITION_FORMATION_WITH_SPECIFIED_SOURCE('','',#458,
 .NOT_KNOWN.);
#455=PRODUCT_DEFINITION_FORMATION_WITH_SPECIFIED_SOURCE('','',#459,
 .NOT_KNOWN.);
#456=PRODUCT_RELATED_PRODUCT_CATEGORY('','',(#458));
#457=PRODUCT_RELATED_PRODUCT_CATEGORY('','',(#459));
#458=PRODUCT('538265 SIEH-3B-NS-S-L','538265 SIEH-3B-NS-S-L',
'538265 SIEH-3B-NS-S-L',(#462));
#459=PRODUCT('538265 SIEH-3B-NS-S-L---(SP)',
'538265 SIEH-3B-NS-S-L---(SP)','538265 SIEH-3B-NS-S-L---(SP)',(#463));
#460=PRODUCT_CATEGORY('','');
#461=PRODUCT_CATEGORY('','');
#462=PRODUCT_CONTEXT('',#465,'mechanical');
#463=PRODUCT_CONTEXT('',#465,'mechanical');
#464=APPLICATION_PROTOCOL_DEFINITION('international standard',
'automotive_design',2010,#465);
#465=APPLICATION_CONTEXT(
'core data for automotive mechanical design processes');
ENDSEC;
END-ISO-10303-21;
