ISO-10303-21;
HEADER;
/* Generated by software containing ST-Developer
 * from STEP Tools, Inc. (www.steptools.com) 
 */
/* OPTION: using custom renumber hook */

FILE_DESCRIPTION(
/* description */ ('STEP AP214'),
/* implementation_level */ '2;1');

FILE_NAME(
/* name */ '538266_SIEH-3B-NS-K-L',
/* time_stamp */ '2024-09-15T04:40:43+02:00',
/* author */ ('License CC BY-ND 4.0'),
/* organization */ ('CADENAS'),
/* preprocessor_version */ 'ST-DEVELOPER v19.3',
/* originating_system */ 'PARTsolutions',
/* authorisation */ '  ');

FILE_SCHEMA (('AUTOMOTIVE_DESIGN {1 0 10303 214 3 1 1}'));
ENDSEC;

DATA;
#10=PROPERTY_DEFINITION_REPRESENTATION(#14,#12);
#11=PROPERTY_DEFINITION_REPRESENTATION(#15,#13);
#12=REPRESENTATION('',(#16),#180);
#13=REPRESENTATION('',(#17),#180);
#14=PROPERTY_DEFINITION('pmi validation property','',#187);
#15=PROPERTY_DEFINITION('pmi validation property','',#187);
#16=VALUE_REPRESENTATION_ITEM('number of annotations',COUNT_MEASURE(0.));
#17=VALUE_REPRESENTATION_ITEM('number of views',COUNT_MEASURE(0.));
#18=CONTEXT_DEPENDENT_SHAPE_REPRESENTATION(#20,#189);
#19=NEXT_ASSEMBLY_USAGE_OCCURRENCE('NAUO1',
'538266 SIEH-3B-NS-K-L---(SP)','538266 SIEH-3B-NS-K-L---(SP)',#190,#191,
'');
#20=(
REPRESENTATION_RELATIONSHIP(' ',' ',#105,#104)
REPRESENTATION_RELATIONSHIP_WITH_TRANSFORMATION(#21)
SHAPE_REPRESENTATION_RELATIONSHIP()
);
#21=ITEM_DEFINED_TRANSFORMATION(' ',' ',#106,#119);
#22=SHAPE_REPRESENTATION_RELATIONSHIP('','',#105,#23);
#23=ADVANCED_BREP_SHAPE_REPRESENTATION('',(#101),#181);
#24=PLANE('',#113);
#25=PLANE('',#114);
#26=PLANE('',#115);
#27=PLANE('',#118);
#28=ELLIPSE('',#111,1.50111069989303,1.3);
#29=B_SPLINE_CURVE_WITH_KNOTS('',3,(#154,#155,#156,#157,#158,#159,#160,
#161,#162,#163,#164),.UNSPECIFIED.,.T.,.F.,(1,1,1,1,1,1,1,1,1,1,1,1,1,1,
1),(-0.00118078361495709,-0.000787189076638058,-0.000393594538319029,0.,
0.000393594538319029,0.000787189076638058,0.00118078361495709,0.00157437815327612,
0.00196797269159515,0.00236156722991417,0.0027551617682332,0.00314875630655223,
0.00354235084487126,0.00393594538319029,0.00432953992150932),
 .UNSPECIFIED.);
#30=ORIENTED_EDGE('',*,*,#42,.F.);
#31=ORIENTED_EDGE('',*,*,#43,.T.);
#32=ORIENTED_EDGE('',*,*,#44,.F.);
#33=ORIENTED_EDGE('',*,*,#45,.F.);
#34=ORIENTED_EDGE('',*,*,#46,.T.);
#35=ORIENTED_EDGE('',*,*,#43,.F.);
#36=ORIENTED_EDGE('',*,*,#46,.F.);
#37=ORIENTED_EDGE('',*,*,#42,.T.);
#38=ORIENTED_EDGE('',*,*,#45,.T.);
#39=ORIENTED_EDGE('',*,*,#47,.F.);
#40=ORIENTED_EDGE('',*,*,#44,.T.);
#41=ORIENTED_EDGE('',*,*,#47,.T.);
#42=EDGE_CURVE('',#48,#48,#54,.T.);
#43=EDGE_CURVE('',#49,#49,#55,.T.);
#44=EDGE_CURVE('',#50,#50,#29,.T.);
#45=EDGE_CURVE('',#51,#51,#28,.T.);
#46=EDGE_CURVE('',#52,#52,#56,.T.);
#47=EDGE_CURVE('',#53,#53,#57,.T.);
#48=VERTEX_POINT('',#151);
#49=VERTEX_POINT('',#153);
#50=VERTEX_POINT('',#165);
#51=VERTEX_POINT('',#168);
#52=VERTEX_POINT('',#170);
#53=VERTEX_POINT('',#176);
#54=CIRCLE('',#108,1.5);
#55=CIRCLE('',#109,1.5);
#56=CIRCLE('',#112,1.3);
#57=CIRCLE('',#117,0.5);
#58=EDGE_LOOP('',(#30));
#59=EDGE_LOOP('',(#31));
#60=EDGE_LOOP('',(#32));
#61=EDGE_LOOP('',(#33));
#62=EDGE_LOOP('',(#34));
#63=EDGE_LOOP('',(#35));
#64=EDGE_LOOP('',(#36));
#65=EDGE_LOOP('',(#37));
#66=EDGE_LOOP('',(#38));
#67=EDGE_LOOP('',(#39));
#68=EDGE_LOOP('',(#40));
#69=EDGE_LOOP('',(#41));
#70=FACE_BOUND('',#58,.T.);
#71=FACE_BOUND('',#59,.T.);
#72=FACE_BOUND('',#60,.T.);
#73=FACE_BOUND('',#61,.T.);
#74=FACE_BOUND('',#62,.T.);
#75=FACE_BOUND('',#63,.T.);
#76=FACE_BOUND('',#64,.T.);
#77=FACE_BOUND('',#65,.T.);
#78=FACE_BOUND('',#66,.T.);
#79=FACE_BOUND('',#67,.T.);
#80=FACE_BOUND('',#68,.T.);
#81=FACE_BOUND('',#69,.T.);
#82=CYLINDRICAL_SURFACE('',#107,1.5);
#83=CYLINDRICAL_SURFACE('',#110,1.3);
#84=CYLINDRICAL_SURFACE('',#116,0.5);
#85=ADVANCED_FACE('',(#70,#71,#72),#82,.T.);
#86=ADVANCED_FACE('',(#73,#74),#83,.T.);
#87=ADVANCED_FACE('',(#75),#24,.F.);
#88=ADVANCED_FACE('',(#76,#77),#25,.F.);
#89=ADVANCED_FACE('',(#78),#26,.T.);
#90=ADVANCED_FACE('',(#79,#80),#84,.F.);
#91=ADVANCED_FACE('',(#81),#27,.T.);
#92=CLOSED_SHELL('',(#85,#86,#87,#88,#89,#90,#91));
#93=STYLED_ITEM('',(#94),#101);
#94=PRESENTATION_STYLE_ASSIGNMENT((#95));
#95=SURFACE_STYLE_USAGE(.BOTH.,#96);
#96=SURFACE_SIDE_STYLE('',(#97));
#97=SURFACE_STYLE_FILL_AREA(#98);
#98=FILL_AREA_STYLE('',(#99));
#99=FILL_AREA_STYLE_COLOUR('',#100);
#100=COLOUR_RGB('',0.501960813999176,0.501960813999176,0.501960813999176);
#101=MANIFOLD_SOLID_BREP('538266 SIEH-3B-NS-K-L---(SP)',#92);
#102=SHAPE_DEFINITION_REPRESENTATION(#187,#104);
#103=SHAPE_DEFINITION_REPRESENTATION(#188,#105);
#104=SHAPE_REPRESENTATION('538266 SIEH-3B-NS-K-L',(#106,#119),#180);
#105=SHAPE_REPRESENTATION('538266 SIEH-3B-NS-K-L---(SP)',(#106),#181);
#106=AXIS2_PLACEMENT_3D('',#148,#120,#121);
#107=AXIS2_PLACEMENT_3D('',#149,#122,#123);
#108=AXIS2_PLACEMENT_3D('',#150,#124,#125);
#109=AXIS2_PLACEMENT_3D('',#152,#126,#127);
#110=AXIS2_PLACEMENT_3D('',#166,#128,#129);
#111=AXIS2_PLACEMENT_3D('',#167,#130,#131);
#112=AXIS2_PLACEMENT_3D('',#169,#132,#133);
#113=AXIS2_PLACEMENT_3D('',#171,#134,#135);
#114=AXIS2_PLACEMENT_3D('',#172,#136,#137);
#115=AXIS2_PLACEMENT_3D('',#173,#138,#139);
#116=AXIS2_PLACEMENT_3D('',#174,#140,#141);
#117=AXIS2_PLACEMENT_3D('',#175,#142,#143);
#118=AXIS2_PLACEMENT_3D('',#177,#144,#145);
#119=AXIS2_PLACEMENT_3D('',#178,#146,#147);
#120=DIRECTION('',(0.,0.,1.));
#121=DIRECTION('',(1.,0.,0.));
#122=DIRECTION('',(0.,0.,-1.));
#123=DIRECTION('',(-1.,0.,0.));
#124=DIRECTION('',(0.,0.,-1.));
#125=DIRECTION('',(-1.,0.,0.));
#126=DIRECTION('',(0.,0.,-1.));
#127=DIRECTION('',(-1.,0.,0.));
#128=DIRECTION('',(0.,0.,-1.));
#129=DIRECTION('',(-1.,0.,0.));
#130=DIRECTION('',(0.,0.5,-0.866025403784439));
#131=DIRECTION('',(0.,-0.866025403784439,-0.5));
#132=DIRECTION('',(0.,0.,-1.));
#133=DIRECTION('',(-1.,0.,0.));
#134=DIRECTION('',(0.,0.,-1.));
#135=DIRECTION('',(-1.,0.,0.));
#136=DIRECTION('',(0.,0.,1.));
#137=DIRECTION('',(1.,0.,0.));
#138=DIRECTION('',(0.,0.5,-0.866025403784439));
#139=DIRECTION('',(0.,0.866025403784439,0.5));
#140=DIRECTION('',(-1.,0.,0.));
#141=DIRECTION('',(0.,0.,1.));
#142=DIRECTION('',(1.,0.,0.));
#143=DIRECTION('',(0.,0.,-1.));
#144=DIRECTION('',(1.,0.,0.));
#145=DIRECTION('',(0.,0.,-1.));
#146=DIRECTION('',(0.,0.,1.));
#147=DIRECTION('',(1.,0.,0.));
#148=CARTESIAN_POINT('',(0.,0.,0.));
#149=CARTESIAN_POINT('',(0.,0.,-50.));
#150=CARTESIAN_POINT('',(0.,0.,-22.));
#151=CARTESIAN_POINT('',(-1.5,0.,-22.));
#152=CARTESIAN_POINT('',(0.,0.,0.));
#153=CARTESIAN_POINT('',(-1.5,0.,0.));
#154=CARTESIAN_POINT('',(1.45832584011968,0.391961844265959,-15.6083776722475));
#155=CARTESIAN_POINT('',(1.52083964166965,8.68561283952942E-6,-15.4457596572797));
#156=CARTESIAN_POINT('',(1.45831559320173,-0.391996586717317,-15.6085836986337));
#157=CARTESIAN_POINT('',(1.39214706134118,-0.554079619722903,-15.9993223981435));
#158=CARTESIAN_POINT('',(1.45837779324709,-0.391684205859001,-16.3920359692386));
#159=CARTESIAN_POINT('',(1.52080949312789,-0.000339442801895966,-16.5540185133124));
#160=CARTESIAN_POINT('',(1.45838415391558,0.391839536252993,-16.3918897365344));
#161=CARTESIAN_POINT('',(1.39214284594799,0.554049652332714,-15.9999948431965));
#162=CARTESIAN_POINT('',(1.45832584011968,0.391961844265959,-15.6083776722475));
#163=CARTESIAN_POINT('',(1.52083964166965,8.68561283952942E-6,-15.4457596572797));
#164=CARTESIAN_POINT('',(1.45831559320173,-0.391996586717317,-15.6085836986337));
#165=CARTESIAN_POINT('',(1.5,0.,-15.5));
#166=CARTESIAN_POINT('',(0.,0.,-50.));
#167=CARTESIAN_POINT('',(0.,0.,-37.1132486540519));
#168=CARTESIAN_POINT('',(0.,-1.3,-37.8638040039984));
#169=CARTESIAN_POINT('',(0.,0.,-22.));
#170=CARTESIAN_POINT('',(-1.3,0.,-22.));
#171=CARTESIAN_POINT('',(0.,0.,0.));
#172=CARTESIAN_POINT('',(0.,1.5,-22.));
#173=CARTESIAN_POINT('',(5.,5.,-34.2264973081037));
#174=CARTESIAN_POINT('',(2.,0.,-16.));
#175=CARTESIAN_POINT('',(1.,0.,-16.));
#176=CARTESIAN_POINT('',(1.,0.,-16.5));
#177=CARTESIAN_POINT('',(1.,0.,-16.));
#178=CARTESIAN_POINT('',(0.,0.,0.));
#179=MECHANICAL_DESIGN_GEOMETRIC_PRESENTATION_REPRESENTATION('',(#93),#180);
#180=(
GEOMETRIC_REPRESENTATION_CONTEXT(3)
GLOBAL_UNCERTAINTY_ASSIGNED_CONTEXT((#182))
GLOBAL_UNIT_ASSIGNED_CONTEXT((#186,#185,#184))
REPRESENTATION_CONTEXT('538266 SIEH-3B-NS-K-L',
'TOP_LEVEL_ASSEMBLY_PART')
);
#181=(
GEOMETRIC_REPRESENTATION_CONTEXT(3)
GLOBAL_UNCERTAINTY_ASSIGNED_CONTEXT((#183))
GLOBAL_UNIT_ASSIGNED_CONTEXT((#186,#185,#184))
REPRESENTATION_CONTEXT('538266 SIEH-3B-NS-K-L---(SP)','COMPONENT_PART')
);
#182=UNCERTAINTY_MEASURE_WITH_UNIT(LENGTH_MEASURE(0.005),#186,
'DISTANCE_ACCURACY_VALUE','Maximum Tolerance applied to model');
#183=UNCERTAINTY_MEASURE_WITH_UNIT(LENGTH_MEASURE(0.005),#186,
'DISTANCE_ACCURACY_VALUE','Maximum Tolerance applied to model');
#184=(
NAMED_UNIT(*)
SI_UNIT($,.STERADIAN.)
SOLID_ANGLE_UNIT()
);
#185=(
NAMED_UNIT(*)
PLANE_ANGLE_UNIT()
SI_UNIT($,.RADIAN.)
);
#186=(
LENGTH_UNIT()
NAMED_UNIT(*)
SI_UNIT(.MILLI.,.METRE.)
);
#187=PRODUCT_DEFINITION_SHAPE('','',#190);
#188=PRODUCT_DEFINITION_SHAPE('','',#191);
#189=PRODUCT_DEFINITION_SHAPE(' ','NAUO PRDDFN',#19);
#190=PRODUCT_DEFINITION('','',#194,#192);
#191=PRODUCT_DEFINITION('','',#195,#193);
#192=PRODUCT_DEFINITION_CONTEXT('',#205,'design');
#193=PRODUCT_DEFINITION_CONTEXT('',#205,'design');
#194=PRODUCT_DEFINITION_FORMATION_WITH_SPECIFIED_SOURCE('','',#198,
 .NOT_KNOWN.);
#195=PRODUCT_DEFINITION_FORMATION_WITH_SPECIFIED_SOURCE('','',#199,
 .NOT_KNOWN.);
#196=PRODUCT_RELATED_PRODUCT_CATEGORY('','',(#198));
#197=PRODUCT_RELATED_PRODUCT_CATEGORY('','',(#199));
#198=PRODUCT('538266 SIEH-3B-NS-K-L','538266 SIEH-3B-NS-K-L',
'538266 SIEH-3B-NS-K-L',(#202));
#199=PRODUCT('538266 SIEH-3B-NS-K-L---(SP)',
'538266 SIEH-3B-NS-K-L---(SP)','538266 SIEH-3B-NS-K-L---(SP)',(#203));
#200=PRODUCT_CATEGORY('','');
#201=PRODUCT_CATEGORY('','');
#202=PRODUCT_CONTEXT('',#205,'mechanical');
#203=PRODUCT_CONTEXT('',#205,'mechanical');
#204=APPLICATION_PROTOCOL_DEFINITION('international standard',
'automotive_design',2010,#205);
#205=APPLICATION_CONTEXT(
'core data for automotive mechanical design processes');
ENDSEC;
END-ISO-10303-21;
