ISO-10303-21;
HEADER;
/* Generated by software containing ST-Developer
 * from STEP Tools, Inc. (www.steptools.com) 
 */
/* OPTION: using custom renumber hook */

FILE_DESCRIPTION(
/* description */ ('STEP AP214'),
/* implementation_level */ '2;1');

FILE_NAME(
/* name */ '539638_YSRP-8',
/* time_stamp */ '2024-09-18T14:13:49+02:00',
/* author */ ('License CC BY-ND 4.0'),
/* organization */ ('CADENAS'),
/* preprocessor_version */ 'ST-DEVELOPER v19.3',
/* originating_system */ 'PARTsolutions',
/* authorisation */ '  ');

FILE_SCHEMA (('AUTOMOTIVE_DESIGN {1 0 10303 214 3 1 1}'));
ENDSEC;

DATA;
#10=PROPERTY_DEFINITION_REPRESENTATION(#14,#12);
#11=PROPERTY_DEFINITION_REPRESENTATION(#15,#13);
#12=REPRESENTATION('',(#16),#572);
#13=REPRESENTATION('',(#17),#572);
#14=PROPERTY_DEFINITION('pmi validation property','',#577);
#15=PROPERTY_DEFINITION('pmi validation property','',#577);
#16=VALUE_REPRESENTATION_ITEM('number of annotations',COUNT_MEASURE(0.));
#17=VALUE_REPRESENTATION_ITEM('number of views',COUNT_MEASURE(0.));
#18=SHAPE_REPRESENTATION_RELATIONSHIP('','',#331,#19);
#19=ADVANCED_BREP_SHAPE_REPRESENTATION('',(#329),#572);
#20=VERTEX_LOOP('',#206);
#21=LINE('',#532,#39);
#22=LINE('',#535,#40);
#23=LINE('',#537,#41);
#24=LINE('',#539,#42);
#25=LINE('',#541,#43);
#26=LINE('',#543,#44);
#27=LINE('',#547,#45);
#28=LINE('',#549,#46);
#29=LINE('',#551,#47);
#30=LINE('',#553,#48);
#31=LINE('',#555,#49);
#32=LINE('',#557,#50);
#33=LINE('',#559,#51);
#34=LINE('',#561,#52);
#35=LINE('',#563,#53);
#36=LINE('',#565,#54);
#37=LINE('',#567,#55);
#38=LINE('',#569,#56);
#39=VECTOR('',#421,1000.);
#40=VECTOR('',#422,1000.);
#41=VECTOR('',#423,1000.);
#42=VECTOR('',#424,1000.);
#43=VECTOR('',#425,1000.);
#44=VECTOR('',#426,1000.);
#45=VECTOR('',#431,1000.);
#46=VECTOR('',#432,1000.);
#47=VECTOR('',#433,1000.);
#48=VECTOR('',#436,1000.);
#49=VECTOR('',#437,1000.);
#50=VECTOR('',#440,1000.);
#51=VECTOR('',#441,1000.);
#52=VECTOR('',#444,1000.);
#53=VECTOR('',#445,1000.);
#54=VECTOR('',#448,1000.);
#55=VECTOR('',#449,1000.);
#56=VECTOR('',#452,1000.);
#57=PLANE('',#345);
#58=PLANE('',#346);
#59=PLANE('',#351);
#60=PLANE('',#355);
#61=PLANE('',#358);
#62=PLANE('',#360);
#63=PLANE('',#361);
#64=PLANE('',#362);
#65=PLANE('',#363);
#66=PLANE('',#364);
#67=PLANE('',#365);
#68=PLANE('',#366);
#69=CONICAL_SURFACE('',#340,1.,0.785398163397449);
#70=CONICAL_SURFACE('',#348,3.75,0.785398163397448);
#71=CONICAL_SURFACE('',#349,4.,0.785398163397448);
#72=CONICAL_SURFACE('',#353,3.2,0.261799387799149);
#73=CONICAL_SURFACE('',#356,0.7545,0.785398163397448);
#74=CONICAL_SURFACE('',#359,1.,1.30899693899575);
#75=B_SPLINE_CURVE_WITH_KNOTS('',3,(#459,#460,#461,#462,#463),
 .UNSPECIFIED.,.F.,.F.,(4,1,4),(0.0017531128104342,0.0024740847040972,0.00319505659776021),
 .UNSPECIFIED.);
#76=B_SPLINE_CURVE_WITH_KNOTS('',3,(#466,#467,#468,#469,#470,#471,#472),
 .UNSPECIFIED.,.F.,.F.,(4,1,1,1,4),(0.00158350490259426,0.00190318627218473,
0.0022228676417752,0.00254254901136567,0.00286223038095615),
 .UNSPECIFIED.);
#77=B_SPLINE_CURVE_WITH_KNOTS('',3,(#474,#475,#476,#477,#478),
 .UNSPECIFIED.,.F.,.F.,(4,1,4),(0.00422646513121142,0.00494737331792579,
0.00566828150464016),.UNSPECIFIED.);
#78=B_SPLINE_CURVE_WITH_KNOTS('',3,(#480,#481,#482,#483,#484,#485,#486),
 .UNSPECIFIED.,.F.,.F.,(4,1,1,1,4),(0.00415413185488907,0.00447376299877853,
0.00479339414266799,0.00511302528655745,0.00543265643044691),
 .UNSPECIFIED.);
#79=B_SPLINE_CURVE_WITH_KNOTS('',3,(#496,#497,#498,#499,#500,#501,#502,
#503,#504,#505,#506),.UNSPECIFIED.,.T.,.F.,(1,1,1,1,1,1,1,1,1,1,1,1,1,1,
1),(-0.00223713770617217,-0.00149142513744812,-0.000745712568724058,0.,
0.000745712568724058,0.00149142513744812,0.00223713770617217,0.00298285027489623,
0.00372856284362029,0.00447427541234435,0.00521998798106841,0.00596570054979247,
0.00671141311851652,0.00745712568724058,0.00820283825596464),
 .UNSPECIFIED.);
#80=ORIENTED_EDGE('',*,*,#150,.F.);
#81=ORIENTED_EDGE('',*,*,#151,.F.);
#82=ORIENTED_EDGE('',*,*,#152,.F.);
#83=ORIENTED_EDGE('',*,*,#153,.F.);
#84=ORIENTED_EDGE('',*,*,#154,.F.);
#85=ORIENTED_EDGE('',*,*,#155,.T.);
#86=ORIENTED_EDGE('',*,*,#153,.T.);
#87=ORIENTED_EDGE('',*,*,#156,.T.);
#88=ORIENTED_EDGE('',*,*,#151,.T.);
#89=ORIENTED_EDGE('',*,*,#157,.T.);
#90=ORIENTED_EDGE('',*,*,#158,.T.);
#91=ORIENTED_EDGE('',*,*,#159,.T.);
#92=ORIENTED_EDGE('',*,*,#160,.F.);
#93=ORIENTED_EDGE('',*,*,#159,.F.);
#94=ORIENTED_EDGE('',*,*,#161,.T.);
#95=ORIENTED_EDGE('',*,*,#155,.F.);
#96=ORIENTED_EDGE('',*,*,#162,.F.);
#97=ORIENTED_EDGE('',*,*,#150,.T.);
#98=ORIENTED_EDGE('',*,*,#161,.F.);
#99=ORIENTED_EDGE('',*,*,#162,.T.);
#100=ORIENTED_EDGE('',*,*,#163,.F.);
#101=ORIENTED_EDGE('',*,*,#160,.T.);
#102=ORIENTED_EDGE('',*,*,#164,.F.);
#103=ORIENTED_EDGE('',*,*,#163,.T.);
#104=ORIENTED_EDGE('',*,*,#165,.F.);
#105=ORIENTED_EDGE('',*,*,#164,.T.);
#106=ORIENTED_EDGE('',*,*,#165,.T.);
#107=ORIENTED_EDGE('',*,*,#158,.F.);
#108=ORIENTED_EDGE('',*,*,#166,.T.);
#109=ORIENTED_EDGE('',*,*,#166,.F.);
#110=ORIENTED_EDGE('',*,*,#167,.F.);
#111=ORIENTED_EDGE('',*,*,#168,.F.);
#112=ORIENTED_EDGE('',*,*,#169,.F.);
#113=ORIENTED_EDGE('',*,*,#170,.F.);
#114=ORIENTED_EDGE('',*,*,#171,.F.);
#115=ORIENTED_EDGE('',*,*,#172,.T.);
#116=ORIENTED_EDGE('',*,*,#154,.T.);
#117=ORIENTED_EDGE('',*,*,#156,.F.);
#118=ORIENTED_EDGE('',*,*,#152,.T.);
#119=ORIENTED_EDGE('',*,*,#157,.F.);
#120=ORIENTED_EDGE('',*,*,#169,.T.);
#121=ORIENTED_EDGE('',*,*,#173,.F.);
#122=ORIENTED_EDGE('',*,*,#174,.F.);
#123=ORIENTED_EDGE('',*,*,#175,.T.);
#124=ORIENTED_EDGE('',*,*,#168,.T.);
#125=ORIENTED_EDGE('',*,*,#176,.F.);
#126=ORIENTED_EDGE('',*,*,#177,.F.);
#127=ORIENTED_EDGE('',*,*,#173,.T.);
#128=ORIENTED_EDGE('',*,*,#167,.T.);
#129=ORIENTED_EDGE('',*,*,#178,.F.);
#130=ORIENTED_EDGE('',*,*,#179,.F.);
#131=ORIENTED_EDGE('',*,*,#176,.T.);
#132=ORIENTED_EDGE('',*,*,#178,.T.);
#133=ORIENTED_EDGE('',*,*,#172,.F.);
#134=ORIENTED_EDGE('',*,*,#180,.F.);
#135=ORIENTED_EDGE('',*,*,#181,.F.);
#136=ORIENTED_EDGE('',*,*,#171,.T.);
#137=ORIENTED_EDGE('',*,*,#182,.F.);
#138=ORIENTED_EDGE('',*,*,#183,.F.);
#139=ORIENTED_EDGE('',*,*,#180,.T.);
#140=ORIENTED_EDGE('',*,*,#170,.T.);
#141=ORIENTED_EDGE('',*,*,#175,.F.);
#142=ORIENTED_EDGE('',*,*,#184,.F.);
#143=ORIENTED_EDGE('',*,*,#182,.T.);
#144=ORIENTED_EDGE('',*,*,#174,.T.);
#145=ORIENTED_EDGE('',*,*,#177,.T.);
#146=ORIENTED_EDGE('',*,*,#179,.T.);
#147=ORIENTED_EDGE('',*,*,#181,.T.);
#148=ORIENTED_EDGE('',*,*,#183,.T.);
#149=ORIENTED_EDGE('',*,*,#184,.T.);
#150=EDGE_CURVE('',#185,#185,#213,.T.);
#151=EDGE_CURVE('',#186,#187,#75,.T.);
#152=EDGE_CURVE('',#188,#186,#76,.T.);
#153=EDGE_CURVE('',#189,#188,#77,.T.);
#154=EDGE_CURVE('',#187,#189,#78,.T.);
#155=EDGE_CURVE('',#190,#190,#214,.T.);
#156=EDGE_CURVE('',#188,#189,#215,.T.);
#157=EDGE_CURVE('',#187,#186,#216,.T.);
#158=EDGE_CURVE('',#191,#191,#217,.T.);
#159=EDGE_CURVE('',#192,#192,#79,.T.);
#160=EDGE_CURVE('',#193,#193,#218,.T.);
#161=EDGE_CURVE('',#194,#194,#219,.T.);
#162=EDGE_CURVE('',#195,#195,#220,.T.);
#163=EDGE_CURVE('',#196,#196,#221,.T.);
#164=EDGE_CURVE('',#197,#197,#222,.T.);
#165=EDGE_CURVE('',#198,#198,#223,.T.);
#166=EDGE_CURVE('',#199,#199,#224,.T.);
#167=EDGE_CURVE('',#200,#201,#21,.T.);
#168=EDGE_CURVE('',#202,#200,#22,.T.);
#169=EDGE_CURVE('',#203,#202,#23,.T.);
#170=EDGE_CURVE('',#204,#203,#24,.T.);
#171=EDGE_CURVE('',#205,#204,#25,.T.);
#172=EDGE_CURVE('',#205,#201,#26,.T.);
#173=EDGE_CURVE('',#207,#202,#27,.T.);
#174=EDGE_CURVE('',#208,#207,#28,.T.);
#175=EDGE_CURVE('',#208,#203,#29,.T.);
#176=EDGE_CURVE('',#209,#200,#30,.T.);
#177=EDGE_CURVE('',#207,#209,#31,.T.);
#178=EDGE_CURVE('',#210,#201,#32,.T.);
#179=EDGE_CURVE('',#209,#210,#33,.T.);
#180=EDGE_CURVE('',#211,#205,#34,.T.);
#181=EDGE_CURVE('',#210,#211,#35,.T.);
#182=EDGE_CURVE('',#212,#204,#36,.T.);
#183=EDGE_CURVE('',#211,#212,#37,.T.);
#184=EDGE_CURVE('',#212,#208,#38,.T.);
#185=VERTEX_POINT('',#458);
#186=VERTEX_POINT('',#464);
#187=VERTEX_POINT('',#465);
#188=VERTEX_POINT('',#473);
#189=VERTEX_POINT('',#479);
#190=VERTEX_POINT('',#488);
#191=VERTEX_POINT('',#495);
#192=VERTEX_POINT('',#507);
#193=VERTEX_POINT('',#510);
#194=VERTEX_POINT('',#512);
#195=VERTEX_POINT('',#516);
#196=VERTEX_POINT('',#520);
#197=VERTEX_POINT('',#523);
#198=VERTEX_POINT('',#526);
#199=VERTEX_POINT('',#530);
#200=VERTEX_POINT('',#533);
#201=VERTEX_POINT('',#534);
#202=VERTEX_POINT('',#536);
#203=VERTEX_POINT('',#538);
#204=VERTEX_POINT('',#540);
#205=VERTEX_POINT('',#542);
#206=VERTEX_POINT('',#545);
#207=VERTEX_POINT('',#548);
#208=VERTEX_POINT('',#550);
#209=VERTEX_POINT('',#554);
#210=VERTEX_POINT('',#558);
#211=VERTEX_POINT('',#562);
#212=VERTEX_POINT('',#566);
#213=CIRCLE('',#334,2.);
#214=CIRCLE('',#335,2.);
#215=CIRCLE('',#337,0.7835);
#216=CIRCLE('',#339,0.7835);
#217=CIRCLE('',#341,0.87725);
#218=CIRCLE('',#343,4.);
#219=CIRCLE('',#344,4.);
#220=CIRCLE('',#347,3.75);
#221=CIRCLE('',#350,3.75);
#222=CIRCLE('',#352,3.2);
#223=CIRCLE('',#354,3.01243556529821);
#224=CIRCLE('',#357,0.7545);
#225=EDGE_LOOP('',(#80));
#226=EDGE_LOOP('',(#81,#82,#83,#84));
#227=EDGE_LOOP('',(#85));
#228=EDGE_LOOP('',(#86,#87));
#229=EDGE_LOOP('',(#88,#89));
#230=EDGE_LOOP('',(#90));
#231=EDGE_LOOP('',(#91));
#232=EDGE_LOOP('',(#92));
#233=EDGE_LOOP('',(#93));
#234=EDGE_LOOP('',(#94));
#235=EDGE_LOOP('',(#95));
#236=EDGE_LOOP('',(#96));
#237=EDGE_LOOP('',(#97));
#238=EDGE_LOOP('',(#98));
#239=EDGE_LOOP('',(#99));
#240=EDGE_LOOP('',(#100));
#241=EDGE_LOOP('',(#101));
#242=EDGE_LOOP('',(#102));
#243=EDGE_LOOP('',(#103));
#244=EDGE_LOOP('',(#104));
#245=EDGE_LOOP('',(#105));
#246=EDGE_LOOP('',(#106));
#247=EDGE_LOOP('',(#107));
#248=EDGE_LOOP('',(#108));
#249=EDGE_LOOP('',(#109));
#250=EDGE_LOOP('',(#110,#111,#112,#113,#114,#115));
#251=EDGE_LOOP('',(#116,#117,#118,#119));
#252=EDGE_LOOP('',(#120,#121,#122,#123));
#253=EDGE_LOOP('',(#124,#125,#126,#127));
#254=EDGE_LOOP('',(#128,#129,#130,#131));
#255=EDGE_LOOP('',(#132,#133,#134,#135));
#256=EDGE_LOOP('',(#136,#137,#138,#139));
#257=EDGE_LOOP('',(#140,#141,#142,#143));
#258=EDGE_LOOP('',(#144,#145,#146,#147,#148,#149));
#259=FACE_BOUND('',#225,.T.);
#260=FACE_BOUND('',#226,.T.);
#261=FACE_BOUND('',#227,.T.);
#262=FACE_BOUND('',#228,.T.);
#263=FACE_BOUND('',#229,.T.);
#264=FACE_BOUND('',#230,.T.);
#265=FACE_BOUND('',#231,.T.);
#266=FACE_BOUND('',#232,.T.);
#267=FACE_BOUND('',#233,.T.);
#268=FACE_BOUND('',#234,.T.);
#269=FACE_BOUND('',#235,.T.);
#270=FACE_BOUND('',#236,.T.);
#271=FACE_BOUND('',#237,.T.);
#272=FACE_BOUND('',#238,.T.);
#273=FACE_BOUND('',#239,.T.);
#274=FACE_BOUND('',#240,.T.);
#275=FACE_BOUND('',#241,.T.);
#276=FACE_BOUND('',#242,.T.);
#277=FACE_BOUND('',#243,.T.);
#278=FACE_BOUND('',#244,.T.);
#279=FACE_BOUND('',#245,.T.);
#280=FACE_BOUND('',#246,.T.);
#281=FACE_BOUND('',#247,.T.);
#282=FACE_BOUND('',#248,.T.);
#283=FACE_BOUND('',#249,.T.);
#284=FACE_BOUND('',#250,.T.);
#285=FACE_BOUND('',#20,.T.);
#286=FACE_BOUND('',#251,.T.);
#287=FACE_BOUND('',#252,.T.);
#288=FACE_BOUND('',#253,.T.);
#289=FACE_BOUND('',#254,.T.);
#290=FACE_BOUND('',#255,.T.);
#291=FACE_BOUND('',#256,.T.);
#292=FACE_BOUND('',#257,.T.);
#293=FACE_BOUND('',#258,.T.);
#294=CYLINDRICAL_SURFACE('',#333,2.);
#295=CYLINDRICAL_SURFACE('',#336,0.7835);
#296=CYLINDRICAL_SURFACE('',#338,0.7835);
#297=CYLINDRICAL_SURFACE('',#342,4.);
#298=ADVANCED_FACE('',(#259,#260,#261),#294,.F.);
#299=ADVANCED_FACE('',(#262),#295,.F.);
#300=ADVANCED_FACE('',(#263),#296,.F.);
#301=ADVANCED_FACE('',(#264,#265),#69,.F.);
#302=ADVANCED_FACE('',(#266,#267,#268),#297,.T.);
#303=ADVANCED_FACE('',(#269),#57,.F.);
#304=ADVANCED_FACE('',(#270,#271),#58,.F.);
#305=ADVANCED_FACE('',(#272,#273),#70,.T.);
#306=ADVANCED_FACE('',(#274,#275),#71,.T.);
#307=ADVANCED_FACE('',(#276,#277),#59,.F.);
#308=ADVANCED_FACE('',(#278,#279),#72,.T.);
#309=ADVANCED_FACE('',(#280),#60,.F.);
#310=ADVANCED_FACE('',(#281,#282),#73,.T.);
#311=ADVANCED_FACE('',(#283,#284),#61,.F.);
#312=ADVANCED_FACE('',(#285,#286),#74,.T.);
#313=ADVANCED_FACE('',(#287),#62,.F.);
#314=ADVANCED_FACE('',(#288),#63,.F.);
#315=ADVANCED_FACE('',(#289),#64,.F.);
#316=ADVANCED_FACE('',(#290),#65,.F.);
#317=ADVANCED_FACE('',(#291),#66,.F.);
#318=ADVANCED_FACE('',(#292),#67,.F.);
#319=ADVANCED_FACE('',(#293),#68,.T.);
#320=CLOSED_SHELL('',(#298,#299,#300,#301,#302,#303,#304,#305,#306,#307,
#308,#309,#310,#311,#312,#313,#314,#315,#316,#317,#318,#319));
#321=STYLED_ITEM('',(#322),#329);
#322=PRESENTATION_STYLE_ASSIGNMENT((#323));
#323=SURFACE_STYLE_USAGE(.BOTH.,#324);
#324=SURFACE_SIDE_STYLE('',(#325));
#325=SURFACE_STYLE_FILL_AREA(#326);
#326=FILL_AREA_STYLE('',(#327));
#327=FILL_AREA_STYLE_COLOUR('',#328);
#328=COLOUR_RGB('',0.689999997615814,0.689999997615814,0.689999997615814);
#329=MANIFOLD_SOLID_BREP('539638 YSRP-8',#320);
#330=SHAPE_DEFINITION_REPRESENTATION(#577,#331);
#331=SHAPE_REPRESENTATION('539638 YSRP-8',(#332),#572);
#332=AXIS2_PLACEMENT_3D('',#455,#367,#368);
#333=AXIS2_PLACEMENT_3D('',#456,#369,#370);
#334=AXIS2_PLACEMENT_3D('',#457,#371,#372);
#335=AXIS2_PLACEMENT_3D('',#487,#373,#374);
#336=AXIS2_PLACEMENT_3D('',#489,#375,#376);
#337=AXIS2_PLACEMENT_3D('',#490,#377,#378);
#338=AXIS2_PLACEMENT_3D('',#491,#379,#380);
#339=AXIS2_PLACEMENT_3D('',#492,#381,#382);
#340=AXIS2_PLACEMENT_3D('',#493,#383,#384);
#341=AXIS2_PLACEMENT_3D('',#494,#385,#386);
#342=AXIS2_PLACEMENT_3D('',#508,#387,#388);
#343=AXIS2_PLACEMENT_3D('',#509,#389,#390);
#344=AXIS2_PLACEMENT_3D('',#511,#391,#392);
#345=AXIS2_PLACEMENT_3D('',#513,#393,#394);
#346=AXIS2_PLACEMENT_3D('',#514,#395,#396);
#347=AXIS2_PLACEMENT_3D('',#515,#397,#398);
#348=AXIS2_PLACEMENT_3D('',#517,#399,#400);
#349=AXIS2_PLACEMENT_3D('',#518,#401,#402);
#350=AXIS2_PLACEMENT_3D('',#519,#403,#404);
#351=AXIS2_PLACEMENT_3D('',#521,#405,#406);
#352=AXIS2_PLACEMENT_3D('',#522,#407,#408);
#353=AXIS2_PLACEMENT_3D('',#524,#409,#410);
#354=AXIS2_PLACEMENT_3D('',#525,#411,#412);
#355=AXIS2_PLACEMENT_3D('',#527,#413,#414);
#356=AXIS2_PLACEMENT_3D('',#528,#415,#416);
#357=AXIS2_PLACEMENT_3D('',#529,#417,#418);
#358=AXIS2_PLACEMENT_3D('',#531,#419,#420);
#359=AXIS2_PLACEMENT_3D('',#544,#427,#428);
#360=AXIS2_PLACEMENT_3D('',#546,#429,#430);
#361=AXIS2_PLACEMENT_3D('',#552,#434,#435);
#362=AXIS2_PLACEMENT_3D('',#556,#438,#439);
#363=AXIS2_PLACEMENT_3D('',#560,#442,#443);
#364=AXIS2_PLACEMENT_3D('',#564,#446,#447);
#365=AXIS2_PLACEMENT_3D('',#568,#450,#451);
#366=AXIS2_PLACEMENT_3D('',#570,#453,#454);
#367=DIRECTION('',(0.,0.,1.));
#368=DIRECTION('',(1.,0.,0.));
#369=DIRECTION('',(1.,0.,0.));
#370=DIRECTION('',(0.,0.,-1.));
#371=DIRECTION('',(1.,0.,0.));
#372=DIRECTION('',(0.,0.,-1.));
#373=DIRECTION('',(1.,0.,0.));
#374=DIRECTION('',(0.,0.,-1.));
#375=DIRECTION('',(0.,-1.,0.));
#376=DIRECTION('',(0.,0.,-1.));
#377=DIRECTION('',(0.,1.,0.));
#378=DIRECTION('',(0.,0.,1.));
#379=DIRECTION('',(0.,-1.,0.));
#380=DIRECTION('',(0.,0.,-1.));
#381=DIRECTION('',(0.,1.,0.));
#382=DIRECTION('',(0.,0.,1.));
#383=DIRECTION('',(0.,1.,0.));
#384=DIRECTION('',(0.,0.,1.));
#385=DIRECTION('',(0.,-1.,0.));
#386=DIRECTION('',(0.,0.,-1.));
#387=DIRECTION('',(1.,0.,0.));
#388=DIRECTION('',(0.,0.,-1.));
#389=DIRECTION('',(1.,0.,0.));
#390=DIRECTION('',(0.,0.,-1.));
#391=DIRECTION('',(1.,0.,0.));
#392=DIRECTION('',(0.,0.,-1.));
#393=DIRECTION('',(1.,0.,0.));
#394=DIRECTION('',(0.,0.,-1.));
#395=DIRECTION('',(1.,0.,0.));
#396=DIRECTION('',(0.,0.,-1.));
#397=DIRECTION('',(1.,0.,0.));
#398=DIRECTION('',(0.,0.,-1.));
#399=DIRECTION('',(1.,0.,0.));
#400=DIRECTION('',(0.,0.,-1.));
#401=DIRECTION('',(-1.,0.,0.));
#402=DIRECTION('',(0.,0.,1.));
#403=DIRECTION('',(1.,0.,0.));
#404=DIRECTION('',(0.,0.,-1.));
#405=DIRECTION('',(-1.,0.,0.));
#406=DIRECTION('',(0.,0.,1.));
#407=DIRECTION('',(1.,0.,0.));
#408=DIRECTION('',(0.,0.,-1.));
#409=DIRECTION('',(-1.,0.,0.));
#410=DIRECTION('',(0.,0.,1.));
#411=DIRECTION('',(1.,0.,0.));
#412=DIRECTION('',(0.,0.,-1.));
#413=DIRECTION('',(-1.,0.,0.));
#414=DIRECTION('',(0.,0.,1.));
#415=DIRECTION('',(0.,-1.,0.));
#416=DIRECTION('',(0.,0.,-1.));
#417=DIRECTION('',(0.,-1.,0.));
#418=DIRECTION('',(0.,0.,-1.));
#419=DIRECTION('',(0.,-1.,0.));
#420=DIRECTION('',(0.,0.,-1.));
#421=DIRECTION('',(0.866025403784439,0.,-0.5));
#422=DIRECTION('',(0.866025403784439,0.,0.5));
#423=DIRECTION('',(0.,0.,1.));
#424=DIRECTION('',(-0.866025403784439,0.,0.5));
#425=DIRECTION('',(-0.866025403784439,0.,-0.5));
#426=DIRECTION('',(0.,0.,1.));
#427=DIRECTION('',(0.,1.,0.));
#428=DIRECTION('',(0.,0.,1.));
#429=DIRECTION('',(-1.,0.,0.));
#430=DIRECTION('',(0.,0.,1.));
#431=DIRECTION('',(0.,1.,0.));
#432=DIRECTION('',(0.,0.,1.));
#433=DIRECTION('',(0.,1.,0.));
#434=DIRECTION('',(-0.5,0.,0.866025403784439));
#435=DIRECTION('',(0.866025403784439,0.,0.5));
#436=DIRECTION('',(0.,1.,0.));
#437=DIRECTION('',(0.866025403784439,0.,0.5));
#438=DIRECTION('',(0.5,0.,0.866025403784439));
#439=DIRECTION('',(0.866025403784439,0.,-0.5));
#440=DIRECTION('',(0.,1.,0.));
#441=DIRECTION('',(0.866025403784439,0.,-0.5));
#442=DIRECTION('',(1.,0.,0.));
#443=DIRECTION('',(0.,0.,-1.));
#444=DIRECTION('',(0.,1.,0.));
#445=DIRECTION('',(0.,0.,-1.));
#446=DIRECTION('',(0.5,0.,-0.866025403784439));
#447=DIRECTION('',(-0.866025403784439,0.,-0.5));
#448=DIRECTION('',(0.,1.,0.));
#449=DIRECTION('',(-0.866025403784439,0.,-0.5));
#450=DIRECTION('',(-0.5,0.,-0.866025403784439));
#451=DIRECTION('',(-0.866025403784439,0.,0.5));
#452=DIRECTION('',(-0.866025403784439,0.,0.5));
#453=DIRECTION('',(0.,1.,0.));
#454=DIRECTION('',(0.,0.,1.));
#455=CARTESIAN_POINT('',(0.,0.,0.));
#456=CARTESIAN_POINT('',(6.7,0.,0.));
#457=CARTESIAN_POINT('',(0.,0.,0.));
#458=CARTESIAN_POINT('',(0.,0.,-2.));
#459=CARTESIAN_POINT('',(2.62063960999475,1.94198899983866,0.478203643342111));
#460=CARTESIAN_POINT('',(2.47562991821754,1.89564540131285,0.6664053850124));
#461=CARTESIAN_POINT('',(2.00130867454182,1.78449377616167,0.901194316455083));
#462=CARTESIAN_POINT('',(1.52344558795222,1.89594085998452,0.665205524872724));
#463=CARTESIAN_POINT('',(1.37936039000531,1.94198899983866,0.478203643342074));
#464=CARTESIAN_POINT('',(2.6206396099947,1.94198899983866,0.478203643342083));
#465=CARTESIAN_POINT('',(1.37936039000531,1.94198899983866,0.478203643342074));
#466=CARTESIAN_POINT('',(2.62063960999469,1.94198899983866,-0.478203643342076));
#467=CARTESIAN_POINT('',(2.71516199542728,1.95404484116679,-0.429244770759262));
#468=CARTESIAN_POINT('',(2.89420024290768,1.98122630667708,-0.310151530891864));
#469=CARTESIAN_POINT('',(3.05323428270086,2.009440442191,0.000487381033402291));
#470=CARTESIAN_POINT('',(2.89286029181095,1.98101151729145,0.311328413409274));
#471=CARTESIAN_POINT('',(2.71527769406615,1.9540595979297,0.429184843421497));
#472=CARTESIAN_POINT('',(2.62063960999469,1.94198899983866,0.478203643342074));
#473=CARTESIAN_POINT('',(2.62063960999469,1.94198899983866,-0.478203643342076));
#474=CARTESIAN_POINT('',(1.37936039000531,1.94198899983866,-0.478203643342074));
#475=CARTESIAN_POINT('',(1.52368131639935,1.89586552360954,-0.665511466522333));
#476=CARTESIAN_POINT('',(2.00112984423317,1.78451507124043,-0.9011078331476));
#477=CARTESIAN_POINT('',(2.47573236759679,1.89567814307525,-0.666272420440987));
#478=CARTESIAN_POINT('',(2.62063960999503,1.94198899983859,-0.478203643342382));
#479=CARTESIAN_POINT('',(1.37936039000531,1.94198899983866,-0.478203643342074));
#480=CARTESIAN_POINT('',(1.37936039000531,1.94198899983866,0.478203643342074));
#481=CARTESIAN_POINT('',(1.28524893899497,1.95399242860686,0.429457618604003));
#482=CARTESIAN_POINT('',(1.10589494369714,1.98120480580776,0.310195335280751));
#483=CARTESIAN_POINT('',(0.946760914347126,2.00944165304433,8.82402764398913E-5));
#484=CARTESIAN_POINT('',(1.10706154346878,1.98102855679629,-0.311326272542972));
#485=CARTESIAN_POINT('',(1.28441059663071,1.95409935483895,-0.429023390280187));
#486=CARTESIAN_POINT('',(1.37936039000529,1.94198899983867,-0.478203643342099));
#487=CARTESIAN_POINT('',(4.,0.,0.));
#488=CARTESIAN_POINT('',(4.,0.,-2.));
#489=CARTESIAN_POINT('',(2.,1.,0.));
#490=CARTESIAN_POINT('',(2.,1.94198899983866,0.));
#491=CARTESIAN_POINT('',(2.,1.,0.));
#492=CARTESIAN_POINT('',(2.,1.94198899983866,0.));
#493=CARTESIAN_POINT('',(2.,4.,0.));
#494=CARTESIAN_POINT('',(2.,3.87725,0.));
#495=CARTESIAN_POINT('',(2.,3.87725,-0.87725));
#496=CARTESIAN_POINT('',(2.01980651904016,3.87468841481507,-0.981206181911585));
#497=CARTESIAN_POINT('',(1.26628008657388,3.94148006467143,-0.743082132642912));
#498=CARTESIAN_POINT('',(0.875082772084308,4.02775057020073,-0.0224901196587106));
#499=CARTESIAN_POINT('',(1.23473755342786,3.94724793675075,0.71926044901944));
#500=CARTESIAN_POINT('',(1.98085492051625,3.87480232113298,0.980903009755517));
#501=CARTESIAN_POINT('',(2.7320296185482,3.94124688547156,0.74371238689651));
#502=CARTESIAN_POINT('',(3.12496080610958,4.02773591907052,0.025230154768302));
#503=CARTESIAN_POINT('',(2.76647341583269,3.94747873194564,-0.718641763941275));
#504=CARTESIAN_POINT('',(2.01980651904016,3.87468841481507,-0.981206181911585));
#505=CARTESIAN_POINT('',(1.26628008657388,3.94148006467143,-0.743082132642912));
#506=CARTESIAN_POINT('',(0.875082772084308,4.02775057020073,-0.0224901196587106));
#507=CARTESIAN_POINT('',(1.32666827290333,3.94472654061692,-0.662670805356991));
#508=CARTESIAN_POINT('',(6.7,0.,0.));
#509=CARTESIAN_POINT('',(5.75,0.,0.));
#510=CARTESIAN_POINT('',(5.75,0.,-4.));
#511=CARTESIAN_POINT('',(0.25,0.,0.));
#512=CARTESIAN_POINT('',(0.25,0.,-4.));
#513=CARTESIAN_POINT('',(4.,0.,0.));
#514=CARTESIAN_POINT('',(0.,2.,0.));
#515=CARTESIAN_POINT('',(0.,0.,0.));
#516=CARTESIAN_POINT('',(0.,0.,-3.75));
#517=CARTESIAN_POINT('',(0.,0.,0.));
#518=CARTESIAN_POINT('',(5.75,0.,0.));
#519=CARTESIAN_POINT('',(6.,0.,0.));
#520=CARTESIAN_POINT('',(6.,0.,-3.75));
#521=CARTESIAN_POINT('',(6.,3.75,0.));
#522=CARTESIAN_POINT('',(6.,0.,0.));
#523=CARTESIAN_POINT('',(6.,0.,-3.2));
#524=CARTESIAN_POINT('',(6.,0.,0.));
#525=CARTESIAN_POINT('',(6.7,0.,0.));
#526=CARTESIAN_POINT('',(6.7,0.,-3.01243556529821));
#527=CARTESIAN_POINT('',(6.7,3.01243556529821,0.));
#528=CARTESIAN_POINT('',(2.,4.,0.));
#529=CARTESIAN_POINT('',(2.,4.,0.));
#530=CARTESIAN_POINT('',(2.,4.,-0.7545));
#531=CARTESIAN_POINT('',(2.,4.,0.));
#532=CARTESIAN_POINT('',(2.,4.,0.519615242270663));
#533=CARTESIAN_POINT('',(2.,4.,0.519615242270663));
#534=CARTESIAN_POINT('',(2.45,4.,0.259807621135332));
#535=CARTESIAN_POINT('',(1.55,4.,0.259807621135332));
#536=CARTESIAN_POINT('',(1.55,4.,0.259807621135332));
#537=CARTESIAN_POINT('',(1.55,4.,-0.259807621135332));
#538=CARTESIAN_POINT('',(1.55,4.,-0.259807621135332));
#539=CARTESIAN_POINT('',(2.,4.,-0.519615242270663));
#540=CARTESIAN_POINT('',(2.,4.,-0.519615242270663));
#541=CARTESIAN_POINT('',(2.45,4.,-0.259807621135332));
#542=CARTESIAN_POINT('',(2.45,4.,-0.259807621135332));
#543=CARTESIAN_POINT('',(2.45,4.,0.));
#544=CARTESIAN_POINT('',(2.,2.,0.));
#545=CARTESIAN_POINT('',(2.,1.73205080756888,0.));
#546=CARTESIAN_POINT('',(1.55,3.1,-0.259807621135332));
#547=CARTESIAN_POINT('',(1.55,3.1,0.259807621135332));
#548=CARTESIAN_POINT('',(1.55,3.1,0.259807621135332));
#549=CARTESIAN_POINT('',(1.55,3.1,-0.259807621135332));
#550=CARTESIAN_POINT('',(1.55,3.1,-0.259807621135332));
#551=CARTESIAN_POINT('',(1.55,3.1,-0.259807621135332));
#552=CARTESIAN_POINT('',(1.55,3.1,0.259807621135332));
#553=CARTESIAN_POINT('',(2.,3.1,0.519615242270663));
#554=CARTESIAN_POINT('',(2.,3.1,0.519615242270663));
#555=CARTESIAN_POINT('',(1.55,3.1,0.259807621135332));
#556=CARTESIAN_POINT('',(2.,3.1,0.519615242270663));
#557=CARTESIAN_POINT('',(2.45,3.1,0.259807621135332));
#558=CARTESIAN_POINT('',(2.45,3.1,0.259807621135332));
#559=CARTESIAN_POINT('',(2.,3.1,0.519615242270663));
#560=CARTESIAN_POINT('',(2.45,3.1,0.259807621135332));
#561=CARTESIAN_POINT('',(2.45,3.1,-0.259807621135332));
#562=CARTESIAN_POINT('',(2.45,3.1,-0.259807621135332));
#563=CARTESIAN_POINT('',(2.45,3.1,0.259807621135332));
#564=CARTESIAN_POINT('',(2.45,3.1,-0.259807621135332));
#565=CARTESIAN_POINT('',(2.,3.1,-0.519615242270663));
#566=CARTESIAN_POINT('',(2.,3.1,-0.519615242270663));
#567=CARTESIAN_POINT('',(2.45,3.1,-0.259807621135332));
#568=CARTESIAN_POINT('',(2.,3.1,-0.519615242270663));
#569=CARTESIAN_POINT('',(2.,3.1,-0.519615242270663));
#570=CARTESIAN_POINT('',(0.,3.1,0.));
#571=MECHANICAL_DESIGN_GEOMETRIC_PRESENTATION_REPRESENTATION('',(#321),
#572);
#572=(
GEOMETRIC_REPRESENTATION_CONTEXT(3)
GLOBAL_UNCERTAINTY_ASSIGNED_CONTEXT((#573))
GLOBAL_UNIT_ASSIGNED_CONTEXT((#576,#575,#574))
REPRESENTATION_CONTEXT('539638 YSRP-8','TOP_LEVEL_ASSEMBLY_PART')
);
#573=UNCERTAINTY_MEASURE_WITH_UNIT(LENGTH_MEASURE(0.005),#576,
'DISTANCE_ACCURACY_VALUE','Maximum Tolerance applied to model');
#574=(
NAMED_UNIT(*)
SI_UNIT($,.STERADIAN.)
SOLID_ANGLE_UNIT()
);
#575=(
NAMED_UNIT(*)
PLANE_ANGLE_UNIT()
SI_UNIT($,.RADIAN.)
);
#576=(
LENGTH_UNIT()
NAMED_UNIT(*)
SI_UNIT(.MILLI.,.METRE.)
);
#577=PRODUCT_DEFINITION_SHAPE('','',#578);
#578=PRODUCT_DEFINITION('','',#580,#579);
#579=PRODUCT_DEFINITION_CONTEXT('',#586,'design');
#580=PRODUCT_DEFINITION_FORMATION_WITH_SPECIFIED_SOURCE('','',#582,
 .NOT_KNOWN.);
#581=PRODUCT_RELATED_PRODUCT_CATEGORY('','',(#582));
#582=PRODUCT('539638 YSRP-8','539638 YSRP-8','539638 YSRP-8',(#584));
#583=PRODUCT_CATEGORY('','');
#584=PRODUCT_CONTEXT('',#586,'mechanical');
#585=APPLICATION_PROTOCOL_DEFINITION('international standard',
'automotive_design',2010,#586);
#586=APPLICATION_CONTEXT(
'core data for automotive mechanical design processes');
ENDSEC;
END-ISO-10303-21;
