ISO-10303-21;
HEADER;
/* Generated by software containing ST-Developer
 * from STEP Tools, Inc. (www.steptools.com) 
 */
/* OPTION: using custom renumber hook */

FILE_DESCRIPTION(
/* description */ ('STEP AP214'),
/* implementation_level */ '2;1');

FILE_NAME(
/* name */ '5407787_HBN-S-20_25X1',
/* time_stamp */ '2024-08-22T10:30:43+02:00',
/* author */ ('License CC BY-ND 4.0'),
/* organization */ ('CADENAS'),
/* preprocessor_version */ 'ST-DEVELOPER v19.3',
/* originating_system */ 'PARTsolutions',
/* authorisation */ '  ');

FILE_SCHEMA (('AUTOMOTIVE_DESIGN {1 0 10303 214 3 1 1}'));
ENDSEC;

DATA;
#10=PROPERTY_DEFINITION_REPRESENTATION(#14,#12);
#11=PROPERTY_DEFINITION_REPRESENTATION(#15,#13);
#12=REPRESENTATION('',(#16),#553);
#13=REPRESENTATION('',(#17),#553);
#14=PROPERTY_DEFINITION('pmi validation property','',#560);
#15=PROPERTY_DEFINITION('pmi validation property','',#560);
#16=VALUE_REPRESENTATION_ITEM('number of annotations',COUNT_MEASURE(0.));
#17=VALUE_REPRESENTATION_ITEM('number of views',COUNT_MEASURE(0.));
#18=CONTEXT_DEPENDENT_SHAPE_REPRESENTATION(#20,#562);
#19=NEXT_ASSEMBLY_USAGE_OCCURRENCE('NAUO1',
'5407787 HBN-S-20/25X1---(1)','5407787 HBN-S-20/25X1---(1)',#563,#564,
'');
#20=(
REPRESENTATION_RELATIONSHIP(' ',' ',#335,#334)
REPRESENTATION_RELATIONSHIP_WITH_TRANSFORMATION(#21)
SHAPE_REPRESENTATION_RELATIONSHIP()
);
#21=ITEM_DEFINED_TRANSFORMATION(' ',' ',#336,#370);
#22=SHAPE_REPRESENTATION_RELATIONSHIP('','',#335,#23);
#23=ADVANCED_BREP_SHAPE_REPRESENTATION('',(#331),#554);
#24=CYLINDRICAL_SURFACE('',#349,3.);
#25=CYLINDRICAL_SURFACE('',#361,1.6);
#26=CYLINDRICAL_SURFACE('',#362,18.);
#27=CYLINDRICAL_SURFACE('',#365,10.05);
#28=CYLINDRICAL_SURFACE('',#366,3.3);
#29=CYLINDRICAL_SURFACE('',#367,3.3);
#30=CYLINDRICAL_SURFACE('',#368,4.);
#31=CYLINDRICAL_SURFACE('',#369,4.);
#32=LINE('',#469,#56);
#33=LINE('',#474,#57);
#34=LINE('',#476,#58);
#35=LINE('',#478,#59);
#36=LINE('',#480,#60);
#37=LINE('',#484,#61);
#38=LINE('',#487,#62);
#39=LINE('',#489,#63);
#40=LINE('',#493,#64);
#41=LINE('',#496,#65);
#42=LINE('',#498,#66);
#43=LINE('',#501,#67);
#44=LINE('',#504,#68);
#45=LINE('',#507,#69);
#46=LINE('',#509,#70);
#47=LINE('',#512,#71);
#48=LINE('',#515,#72);
#49=LINE('',#523,#73);
#50=LINE('',#527,#74);
#51=LINE('',#529,#75);
#52=LINE('',#531,#76);
#53=LINE('',#538,#77);
#54=LINE('',#542,#78);
#55=LINE('',#543,#79);
#56=VECTOR('',#377,1000.);
#57=VECTOR('',#380,1000.);
#58=VECTOR('',#381,1000.);
#59=VECTOR('',#382,1000.);
#60=VECTOR('',#383,1000.);
#61=VECTOR('',#388,1000.);
#62=VECTOR('',#389,1000.);
#63=VECTOR('',#390,1000.);
#64=VECTOR('',#395,1000.);
#65=VECTOR('',#396,1000.);
#66=VECTOR('',#397,1000.);
#67=VECTOR('',#400,1000.);
#68=VECTOR('',#405,1000.);
#69=VECTOR('',#406,1000.);
#70=VECTOR('',#407,1000.);
#71=VECTOR('',#410,1000.);
#72=VECTOR('',#415,1000.);
#73=VECTOR('',#424,1000.);
#74=VECTOR('',#429,1000.);
#75=VECTOR('',#430,1000.);
#76=VECTOR('',#431,1000.);
#77=VECTOR('',#440,1000.);
#78=VECTOR('',#447,1000.);
#79=VECTOR('',#448,1000.);
#80=ORIENTED_EDGE('',*,*,#160,.T.);
#81=ORIENTED_EDGE('',*,*,#161,.T.);
#82=ORIENTED_EDGE('',*,*,#162,.F.);
#83=ORIENTED_EDGE('',*,*,#163,.T.);
#84=ORIENTED_EDGE('',*,*,#164,.T.);
#85=ORIENTED_EDGE('',*,*,#165,.F.);
#86=ORIENTED_EDGE('',*,*,#166,.F.);
#87=ORIENTED_EDGE('',*,*,#167,.F.);
#88=ORIENTED_EDGE('',*,*,#168,.F.);
#89=ORIENTED_EDGE('',*,*,#169,.T.);
#90=ORIENTED_EDGE('',*,*,#170,.F.);
#91=ORIENTED_EDGE('',*,*,#171,.T.);
#92=ORIENTED_EDGE('',*,*,#172,.T.);
#93=ORIENTED_EDGE('',*,*,#173,.T.);
#94=ORIENTED_EDGE('',*,*,#174,.T.);
#95=ORIENTED_EDGE('',*,*,#175,.F.);
#96=ORIENTED_EDGE('',*,*,#176,.T.);
#97=ORIENTED_EDGE('',*,*,#166,.T.);
#98=ORIENTED_EDGE('',*,*,#177,.T.);
#99=ORIENTED_EDGE('',*,*,#178,.F.);
#100=ORIENTED_EDGE('',*,*,#179,.T.);
#101=ORIENTED_EDGE('',*,*,#180,.F.);
#102=ORIENTED_EDGE('',*,*,#181,.F.);
#103=ORIENTED_EDGE('',*,*,#164,.F.);
#104=ORIENTED_EDGE('',*,*,#182,.F.);
#105=ORIENTED_EDGE('',*,*,#183,.T.);
#106=ORIENTED_EDGE('',*,*,#181,.T.);
#107=ORIENTED_EDGE('',*,*,#184,.F.);
#108=ORIENTED_EDGE('',*,*,#177,.F.);
#109=ORIENTED_EDGE('',*,*,#165,.T.);
#110=ORIENTED_EDGE('',*,*,#185,.F.);
#111=ORIENTED_EDGE('',*,*,#186,.F.);
#112=ORIENTED_EDGE('',*,*,#180,.T.);
#113=ORIENTED_EDGE('',*,*,#187,.T.);
#114=ORIENTED_EDGE('',*,*,#188,.F.);
#115=ORIENTED_EDGE('',*,*,#189,.T.);
#116=ORIENTED_EDGE('',*,*,#172,.F.);
#117=ORIENTED_EDGE('',*,*,#184,.T.);
#118=ORIENTED_EDGE('',*,*,#188,.T.);
#119=ORIENTED_EDGE('',*,*,#190,.T.);
#120=ORIENTED_EDGE('',*,*,#191,.F.);
#121=ORIENTED_EDGE('',*,*,#192,.T.);
#122=ORIENTED_EDGE('',*,*,#193,.T.);
#123=ORIENTED_EDGE('',*,*,#194,.T.);
#124=ORIENTED_EDGE('',*,*,#191,.T.);
#125=ORIENTED_EDGE('',*,*,#195,.T.);
#126=ORIENTED_EDGE('',*,*,#178,.T.);
#127=ORIENTED_EDGE('',*,*,#196,.F.);
#128=ORIENTED_EDGE('',*,*,#174,.F.);
#129=ORIENTED_EDGE('',*,*,#197,.T.);
#130=ORIENTED_EDGE('',*,*,#183,.F.);
#131=ORIENTED_EDGE('',*,*,#169,.F.);
#132=ORIENTED_EDGE('',*,*,#175,.T.);
#133=ORIENTED_EDGE('',*,*,#196,.T.);
#134=ORIENTED_EDGE('',*,*,#162,.T.);
#135=ORIENTED_EDGE('',*,*,#198,.F.);
#136=ORIENTED_EDGE('',*,*,#171,.F.);
#137=ORIENTED_EDGE('',*,*,#199,.T.);
#138=ORIENTED_EDGE('',*,*,#161,.F.);
#139=ORIENTED_EDGE('',*,*,#176,.F.);
#140=ORIENTED_EDGE('',*,*,#168,.T.);
#141=ORIENTED_EDGE('',*,*,#198,.T.);
#142=ORIENTED_EDGE('',*,*,#163,.F.);
#143=ORIENTED_EDGE('',*,*,#199,.F.);
#144=ORIENTED_EDGE('',*,*,#170,.T.);
#145=ORIENTED_EDGE('',*,*,#182,.T.);
#146=ORIENTED_EDGE('',*,*,#167,.T.);
#147=ORIENTED_EDGE('',*,*,#160,.F.);
#148=ORIENTED_EDGE('',*,*,#186,.T.);
#149=ORIENTED_EDGE('',*,*,#194,.F.);
#150=ORIENTED_EDGE('',*,*,#185,.T.);
#151=ORIENTED_EDGE('',*,*,#193,.F.);
#152=ORIENTED_EDGE('',*,*,#187,.F.);
#153=ORIENTED_EDGE('',*,*,#179,.F.);
#154=ORIENTED_EDGE('',*,*,#195,.F.);
#155=ORIENTED_EDGE('',*,*,#190,.F.);
#156=ORIENTED_EDGE('',*,*,#189,.F.);
#157=ORIENTED_EDGE('',*,*,#192,.F.);
#158=ORIENTED_EDGE('',*,*,#197,.F.);
#159=ORIENTED_EDGE('',*,*,#173,.F.);
#160=EDGE_CURVE('',#200,#200,#228,.T.);
#161=EDGE_CURVE('',#201,#202,#32,.T.);
#162=EDGE_CURVE('',#203,#202,#229,.T.);
#163=EDGE_CURVE('',#203,#204,#33,.T.);
#164=EDGE_CURVE('',#204,#205,#34,.T.);
#165=EDGE_CURVE('',#206,#205,#35,.T.);
#166=EDGE_CURVE('',#201,#206,#36,.T.);
#167=EDGE_CURVE('',#207,#207,#230,.T.);
#168=EDGE_CURVE('',#208,#209,#37,.T.);
#169=EDGE_CURVE('',#208,#210,#38,.T.);
#170=EDGE_CURVE('',#211,#210,#39,.T.);
#171=EDGE_CURVE('',#211,#209,#231,.T.);
#172=EDGE_CURVE('',#212,#213,#40,.T.);
#173=EDGE_CURVE('',#213,#214,#41,.T.);
#174=EDGE_CURVE('',#214,#215,#42,.T.);
#175=EDGE_CURVE('',#208,#215,#232,.T.);
#176=EDGE_CURVE('',#208,#201,#43,.T.);
#177=EDGE_CURVE('',#206,#212,#233,.T.);
#178=EDGE_CURVE('',#216,#217,#44,.T.);
#179=EDGE_CURVE('',#216,#218,#45,.F.);
#180=EDGE_CURVE('',#219,#218,#46,.T.);
#181=EDGE_CURVE('',#205,#219,#234,.T.);
#182=EDGE_CURVE('',#210,#204,#47,.T.);
#183=EDGE_CURVE('',#210,#217,#235,.T.);
#184=EDGE_CURVE('',#212,#219,#48,.T.);
#185=EDGE_CURVE('',#220,#220,#236,.T.);
#186=EDGE_CURVE('',#221,#221,#237,.T.);
#187=EDGE_CURVE('',#218,#222,#238,.F.);
#188=EDGE_CURVE('',#223,#222,#49,.T.);
#189=EDGE_CURVE('',#223,#213,#239,.F.);
#190=EDGE_CURVE('',#222,#224,#50,.T.);
#191=EDGE_CURVE('',#225,#224,#51,.T.);
#192=EDGE_CURVE('',#225,#223,#52,.F.);
#193=EDGE_CURVE('',#226,#226,#240,.T.);
#194=EDGE_CURVE('',#227,#227,#241,.T.);
#195=EDGE_CURVE('',#224,#216,#242,.F.);
#196=EDGE_CURVE('',#215,#217,#53,.T.);
#197=EDGE_CURVE('',#214,#225,#243,.F.);
#198=EDGE_CURVE('',#209,#202,#54,.T.);
#199=EDGE_CURVE('',#211,#203,#55,.T.);
#200=VERTEX_POINT('',#468);
#201=VERTEX_POINT('',#470);
#202=VERTEX_POINT('',#471);
#203=VERTEX_POINT('',#473);
#204=VERTEX_POINT('',#475);
#205=VERTEX_POINT('',#477);
#206=VERTEX_POINT('',#479);
#207=VERTEX_POINT('',#483);
#208=VERTEX_POINT('',#485);
#209=VERTEX_POINT('',#486);
#210=VERTEX_POINT('',#488);
#211=VERTEX_POINT('',#490);
#212=VERTEX_POINT('',#494);
#213=VERTEX_POINT('',#495);
#214=VERTEX_POINT('',#497);
#215=VERTEX_POINT('',#499);
#216=VERTEX_POINT('',#505);
#217=VERTEX_POINT('',#506);
#218=VERTEX_POINT('',#508);
#219=VERTEX_POINT('',#510);
#220=VERTEX_POINT('',#518);
#221=VERTEX_POINT('',#520);
#222=VERTEX_POINT('',#522);
#223=VERTEX_POINT('',#524);
#224=VERTEX_POINT('',#528);
#225=VERTEX_POINT('',#530);
#226=VERTEX_POINT('',#534);
#227=VERTEX_POINT('',#536);
#228=CIRCLE('',#338,10.05);
#229=CIRCLE('',#339,18.);
#230=CIRCLE('',#341,10.05);
#231=CIRCLE('',#342,18.);
#232=CIRCLE('',#344,1.6);
#233=CIRCLE('',#345,3.);
#234=CIRCLE('',#347,3.);
#235=CIRCLE('',#348,1.6);
#236=CIRCLE('',#351,3.3);
#237=CIRCLE('',#352,3.3);
#238=CIRCLE('',#353,4.);
#239=CIRCLE('',#354,4.);
#240=CIRCLE('',#357,3.3);
#241=CIRCLE('',#358,3.3);
#242=CIRCLE('',#359,4.);
#243=CIRCLE('',#360,4.);
#244=EDGE_LOOP('',(#80));
#245=EDGE_LOOP('',(#81,#82,#83,#84,#85,#86));
#246=EDGE_LOOP('',(#87));
#247=EDGE_LOOP('',(#88,#89,#90,#91));
#248=EDGE_LOOP('',(#92,#93,#94,#95,#96,#97,#98));
#249=EDGE_LOOP('',(#99,#100,#101,#102,#103,#104,#105));
#250=EDGE_LOOP('',(#106,#107,#108,#109));
#251=EDGE_LOOP('',(#110));
#252=EDGE_LOOP('',(#111));
#253=EDGE_LOOP('',(#112,#113,#114,#115,#116,#117));
#254=EDGE_LOOP('',(#118,#119,#120,#121));
#255=EDGE_LOOP('',(#122));
#256=EDGE_LOOP('',(#123));
#257=EDGE_LOOP('',(#124,#125,#126,#127,#128,#129));
#258=EDGE_LOOP('',(#130,#131,#132,#133));
#259=EDGE_LOOP('',(#134,#135,#136,#137));
#260=EDGE_LOOP('',(#138,#139,#140,#141));
#261=EDGE_LOOP('',(#142,#143,#144,#145));
#262=EDGE_LOOP('',(#146));
#263=EDGE_LOOP('',(#147));
#264=EDGE_LOOP('',(#148));
#265=EDGE_LOOP('',(#149));
#266=EDGE_LOOP('',(#150));
#267=EDGE_LOOP('',(#151));
#268=EDGE_LOOP('',(#152,#153,#154,#155));
#269=EDGE_LOOP('',(#156,#157,#158,#159));
#270=FACE_BOUND('',#244,.T.);
#271=FACE_BOUND('',#245,.T.);
#272=FACE_BOUND('',#246,.T.);
#273=FACE_BOUND('',#247,.T.);
#274=FACE_BOUND('',#248,.T.);
#275=FACE_BOUND('',#249,.T.);
#276=FACE_BOUND('',#250,.T.);
#277=FACE_BOUND('',#251,.T.);
#278=FACE_BOUND('',#252,.T.);
#279=FACE_BOUND('',#253,.T.);
#280=FACE_BOUND('',#254,.T.);
#281=FACE_BOUND('',#255,.T.);
#282=FACE_BOUND('',#256,.T.);
#283=FACE_BOUND('',#257,.T.);
#284=FACE_BOUND('',#258,.T.);
#285=FACE_BOUND('',#259,.T.);
#286=FACE_BOUND('',#260,.T.);
#287=FACE_BOUND('',#261,.T.);
#288=FACE_BOUND('',#262,.T.);
#289=FACE_BOUND('',#263,.T.);
#290=FACE_BOUND('',#264,.T.);
#291=FACE_BOUND('',#265,.T.);
#292=FACE_BOUND('',#266,.T.);
#293=FACE_BOUND('',#267,.T.);
#294=FACE_BOUND('',#268,.T.);
#295=FACE_BOUND('',#269,.T.);
#296=PLANE('',#337);
#297=PLANE('',#340);
#298=PLANE('',#343);
#299=PLANE('',#346);
#300=PLANE('',#350);
#301=PLANE('',#355);
#302=PLANE('',#356);
#303=PLANE('',#363);
#304=PLANE('',#364);
#305=ADVANCED_FACE('',(#270,#271),#296,.F.);
#306=ADVANCED_FACE('',(#272,#273),#297,.F.);
#307=ADVANCED_FACE('',(#274),#298,.T.);
#308=ADVANCED_FACE('',(#275),#299,.F.);
#309=ADVANCED_FACE('',(#276),#24,.T.);
#310=ADVANCED_FACE('',(#277,#278,#279),#300,.F.);
#311=ADVANCED_FACE('',(#280),#301,.F.);
#312=ADVANCED_FACE('',(#281,#282,#283),#302,.F.);
#313=ADVANCED_FACE('',(#284),#25,.F.);
#314=ADVANCED_FACE('',(#285),#26,.T.);
#315=ADVANCED_FACE('',(#286),#303,.T.);
#316=ADVANCED_FACE('',(#287),#304,.T.);
#317=ADVANCED_FACE('',(#288,#289),#27,.F.);
#318=ADVANCED_FACE('',(#290,#291),#28,.F.);
#319=ADVANCED_FACE('',(#292,#293),#29,.F.);
#320=ADVANCED_FACE('',(#294),#30,.T.);
#321=ADVANCED_FACE('',(#295),#31,.T.);
#322=CLOSED_SHELL('',(#305,#306,#307,#308,#309,#310,#311,#312,#313,#314,
#315,#316,#317,#318,#319,#320,#321));
#323=STYLED_ITEM('',(#324),#331);
#324=PRESENTATION_STYLE_ASSIGNMENT((#325));
#325=SURFACE_STYLE_USAGE(.BOTH.,#326);
#326=SURFACE_SIDE_STYLE('',(#327));
#327=SURFACE_STYLE_FILL_AREA(#328);
#328=FILL_AREA_STYLE('',(#329));
#329=FILL_AREA_STYLE_COLOUR('',#330);
#330=COLOUR_RGB('',0.689999997615814,0.689999997615814,0.689999997615814);
#331=MANIFOLD_SOLID_BREP('5407787 HBN-S-20/25X1---(1)',#322);
#332=SHAPE_DEFINITION_REPRESENTATION(#560,#334);
#333=SHAPE_DEFINITION_REPRESENTATION(#561,#335);
#334=SHAPE_REPRESENTATION('5407787 HBN-S-20/25X1---(0)',(#336,#370),#553);
#335=SHAPE_REPRESENTATION('5407787 HBN-S-20/25X1---(1)',(#336),#554);
#336=AXIS2_PLACEMENT_3D('',#465,#371,#372);
#337=AXIS2_PLACEMENT_3D('',#466,#373,#374);
#338=AXIS2_PLACEMENT_3D('',#467,#375,#376);
#339=AXIS2_PLACEMENT_3D('',#472,#378,#379);
#340=AXIS2_PLACEMENT_3D('',#481,#384,#385);
#341=AXIS2_PLACEMENT_3D('',#482,#386,#387);
#342=AXIS2_PLACEMENT_3D('',#491,#391,#392);
#343=AXIS2_PLACEMENT_3D('',#492,#393,#394);
#344=AXIS2_PLACEMENT_3D('',#500,#398,#399);
#345=AXIS2_PLACEMENT_3D('',#502,#401,#402);
#346=AXIS2_PLACEMENT_3D('',#503,#403,#404);
#347=AXIS2_PLACEMENT_3D('',#511,#408,#409);
#348=AXIS2_PLACEMENT_3D('',#513,#411,#412);
#349=AXIS2_PLACEMENT_3D('',#514,#413,#414);
#350=AXIS2_PLACEMENT_3D('',#516,#416,#417);
#351=AXIS2_PLACEMENT_3D('',#517,#418,#419);
#352=AXIS2_PLACEMENT_3D('',#519,#420,#421);
#353=AXIS2_PLACEMENT_3D('',#521,#422,#423);
#354=AXIS2_PLACEMENT_3D('',#525,#425,#426);
#355=AXIS2_PLACEMENT_3D('',#526,#427,#428);
#356=AXIS2_PLACEMENT_3D('',#532,#432,#433);
#357=AXIS2_PLACEMENT_3D('',#533,#434,#435);
#358=AXIS2_PLACEMENT_3D('',#535,#436,#437);
#359=AXIS2_PLACEMENT_3D('',#537,#438,#439);
#360=AXIS2_PLACEMENT_3D('',#539,#441,#442);
#361=AXIS2_PLACEMENT_3D('',#540,#443,#444);
#362=AXIS2_PLACEMENT_3D('',#541,#445,#446);
#363=AXIS2_PLACEMENT_3D('',#544,#449,#450);
#364=AXIS2_PLACEMENT_3D('',#545,#451,#452);
#365=AXIS2_PLACEMENT_3D('',#546,#453,#454);
#366=AXIS2_PLACEMENT_3D('',#547,#455,#456);
#367=AXIS2_PLACEMENT_3D('',#548,#457,#458);
#368=AXIS2_PLACEMENT_3D('',#549,#459,#460);
#369=AXIS2_PLACEMENT_3D('',#550,#461,#462);
#370=AXIS2_PLACEMENT_3D('',#551,#463,#464);
#371=DIRECTION('',(0.,0.,1.));
#372=DIRECTION('',(1.,0.,0.));
#373=DIRECTION('',(1.,0.,0.));
#374=DIRECTION('',(0.,0.,-1.));
#375=DIRECTION('',(1.,0.,0.));
#376=DIRECTION('',(0.,0.,-1.));
#377=DIRECTION('',(0.,0.930271275740551,-0.366872394071901));
#378=DIRECTION('',(1.,0.,0.));
#379=DIRECTION('',(0.,0.,-1.));
#380=DIRECTION('',(0.,-0.930271275740551,-0.366872394071901));
#381=DIRECTION('',(0.,-1.,0.));
#382=DIRECTION('',(0.,0.,-1.));
#383=DIRECTION('',(0.,-1.,0.));
#384=DIRECTION('',(-1.,0.,0.));
#385=DIRECTION('',(0.,0.,1.));
#386=DIRECTION('',(1.,0.,0.));
#387=DIRECTION('',(0.,0.,-1.));
#388=DIRECTION('',(0.,0.930271275740551,-0.366872394071901));
#389=DIRECTION('',(0.,0.,-1.));
#390=DIRECTION('',(0.,-0.930271275740551,-0.366872394071901));
#391=DIRECTION('',(1.,0.,0.));
#392=DIRECTION('',(0.,0.,-1.));
#393=DIRECTION('',(0.,0.,1.));
#394=DIRECTION('',(1.,0.,0.));
#395=DIRECTION('',(1.,0.,0.));
#396=DIRECTION('',(0.,1.,0.));
#397=DIRECTION('',(-1.,0.,0.));
#398=DIRECTION('',(0.,0.,1.));
#399=DIRECTION('',(1.,0.,0.));
#400=DIRECTION('',(-1.,0.,0.));
#401=DIRECTION('',(0.,0.,1.));
#402=DIRECTION('',(1.,0.,0.));
#403=DIRECTION('',(0.,0.,1.));
#404=DIRECTION('',(1.,0.,0.));
#405=DIRECTION('',(-1.,0.,0.));
#406=DIRECTION('',(0.,1.,0.));
#407=DIRECTION('',(1.,0.,0.));
#408=DIRECTION('',(0.,0.,1.));
#409=DIRECTION('',(1.,0.,0.));
#410=DIRECTION('',(-1.,0.,0.));
#411=DIRECTION('',(0.,0.,1.));
#412=DIRECTION('',(1.,0.,0.));
#413=DIRECTION('',(0.,0.,-1.));
#414=DIRECTION('',(-1.,0.,0.));
#415=DIRECTION('',(0.,0.,-1.));
#416=DIRECTION('',(0.,1.,0.));
#417=DIRECTION('',(0.,0.,1.));
#418=DIRECTION('',(0.,-1.,0.));
#419=DIRECTION('',(0.,0.,-1.));
#420=DIRECTION('',(0.,-1.,0.));
#421=DIRECTION('',(0.,0.,-1.));
#422=DIRECTION('',(0.,1.,0.));
#423=DIRECTION('',(0.,0.,1.));
#424=DIRECTION('',(0.,0.,-1.));
#425=DIRECTION('',(0.,1.,0.));
#426=DIRECTION('',(0.,0.,1.));
#427=DIRECTION('',(-1.,0.,0.));
#428=DIRECTION('',(0.,0.,1.));
#429=DIRECTION('',(0.,1.,0.));
#430=DIRECTION('',(0.,0.,-1.));
#431=DIRECTION('',(0.,1.,0.));
#432=DIRECTION('',(0.,-1.,0.));
#433=DIRECTION('',(0.,0.,-1.));
#434=DIRECTION('',(0.,-1.,0.));
#435=DIRECTION('',(0.,0.,-1.));
#436=DIRECTION('',(0.,-1.,0.));
#437=DIRECTION('',(0.,0.,-1.));
#438=DIRECTION('',(0.,-1.,0.));
#439=DIRECTION('',(0.,0.,-1.));
#440=DIRECTION('',(0.,0.,-1.));
#441=DIRECTION('',(0.,-1.,0.));
#442=DIRECTION('',(0.,0.,-1.));
#443=DIRECTION('',(0.,0.,-1.));
#444=DIRECTION('',(-1.,0.,0.));
#445=DIRECTION('',(-1.,0.,0.));
#446=DIRECTION('',(0.,0.,1.));
#447=DIRECTION('',(-1.,0.,0.));
#448=DIRECTION('',(-1.,0.,0.));
#449=DIRECTION('',(0.,0.366872394071901,0.930271275740551));
#450=DIRECTION('',(0.,-0.930271275740551,0.366872394071901));
#451=DIRECTION('',(0.,0.366872394071901,-0.930271275740551));
#452=DIRECTION('',(0.,0.930271275740551,0.366872394071901));
#453=DIRECTION('',(1.,0.,0.));
#454=DIRECTION('',(0.,0.,-1.));
#455=DIRECTION('',(0.,-1.,0.));
#456=DIRECTION('',(0.,0.,-1.));
#457=DIRECTION('',(0.,-1.,0.));
#458=DIRECTION('',(0.,0.,-1.));
#459=DIRECTION('',(0.,1.,0.));
#460=DIRECTION('',(0.,0.,1.));
#461=DIRECTION('',(0.,-1.,0.));
#462=DIRECTION('',(0.,0.,-1.));
#463=DIRECTION('',(1.,0.,0.));
#464=DIRECTION('',(0.,0.,-1.));
#465=CARTESIAN_POINT('',(0.,0.,0.));
#466=CARTESIAN_POINT('',(0.,43.,27.));
#467=CARTESIAN_POINT('',(0.,25.,0.));
#468=CARTESIAN_POINT('',(0.,25.,-10.05));
#469=CARTESIAN_POINT('',(0.,5.6,27.));
#470=CARTESIAN_POINT('',(0.,5.6,27.));
#471=CARTESIAN_POINT('',(0.,31.6037030932942,16.7448829633299));
#472=CARTESIAN_POINT('',(0.,25.,0.));
#473=CARTESIAN_POINT('',(0.,31.6037030932942,-16.7448829633299));
#474=CARTESIAN_POINT('',(0.,31.6037030932942,-16.7448829633299));
#475=CARTESIAN_POINT('',(0.,5.6,-27.));
#476=CARTESIAN_POINT('',(0.,43.,-27.));
#477=CARTESIAN_POINT('',(0.,3.,-27.));
#478=CARTESIAN_POINT('',(0.,3.,27.));
#479=CARTESIAN_POINT('',(0.,3.,27.));
#480=CARTESIAN_POINT('',(0.,43.,27.));
#481=CARTESIAN_POINT('',(4.,5.6,27.));
#482=CARTESIAN_POINT('',(4.,25.,0.));
#483=CARTESIAN_POINT('',(4.,25.,-10.05));
#484=CARTESIAN_POINT('',(4.,5.6,27.));
#485=CARTESIAN_POINT('',(4.,5.6,27.));
#486=CARTESIAN_POINT('',(4.,31.6037030932942,16.7448829633299));
#487=CARTESIAN_POINT('',(4.,5.6,27.));
#488=CARTESIAN_POINT('',(4.,5.6,-27.));
#489=CARTESIAN_POINT('',(4.,31.6037030932942,-16.7448829633299));
#490=CARTESIAN_POINT('',(4.,31.6037030932942,-16.7448829633299));
#491=CARTESIAN_POINT('',(4.,25.,0.));
#492=CARTESIAN_POINT('',(3.,3.,27.));
#493=CARTESIAN_POINT('',(3.,0.,27.));
#494=CARTESIAN_POINT('',(3.,0.,27.));
#495=CARTESIAN_POINT('',(21.,0.,27.));
#496=CARTESIAN_POINT('',(21.,4.,27.));
#497=CARTESIAN_POINT('',(21.,4.,27.));
#498=CARTESIAN_POINT('',(25.,4.,27.));
#499=CARTESIAN_POINT('',(5.6,4.,27.));
#500=CARTESIAN_POINT('',(5.6,5.6,27.));
#501=CARTESIAN_POINT('',(4.,5.6,27.));
#502=CARTESIAN_POINT('',(3.,3.,27.));
#503=CARTESIAN_POINT('',(3.,3.,-27.));
#504=CARTESIAN_POINT('',(25.,4.,-27.));
#505=CARTESIAN_POINT('',(21.,4.,-27.));
#506=CARTESIAN_POINT('',(5.6,4.,-27.));
#507=CARTESIAN_POINT('',(21.,3.,-27.));
#508=CARTESIAN_POINT('',(21.,0.,-27.));
#509=CARTESIAN_POINT('',(3.,0.,-27.));
#510=CARTESIAN_POINT('',(3.,0.,-27.));
#511=CARTESIAN_POINT('',(3.,3.,-27.));
#512=CARTESIAN_POINT('',(4.,5.6,-27.));
#513=CARTESIAN_POINT('',(5.6,5.6,-27.));
#514=CARTESIAN_POINT('',(3.,3.,27.));
#515=CARTESIAN_POINT('',(3.,0.,27.));
#516=CARTESIAN_POINT('',(3.,0.,27.));
#517=CARTESIAN_POINT('',(17.,0.,-20.));
#518=CARTESIAN_POINT('',(17.,0.,-23.3));
#519=CARTESIAN_POINT('',(17.,0.,20.));
#520=CARTESIAN_POINT('',(17.,0.,16.7));
#521=CARTESIAN_POINT('',(21.,0.,-23.));
#522=CARTESIAN_POINT('',(25.,0.,-23.));
#523=CARTESIAN_POINT('',(25.,0.,27.));
#524=CARTESIAN_POINT('',(25.,0.,23.));
#525=CARTESIAN_POINT('',(21.,0.,23.));
#526=CARTESIAN_POINT('',(25.,0.,27.));
#527=CARTESIAN_POINT('',(25.,0.,-23.));
#528=CARTESIAN_POINT('',(25.,4.,-23.));
#529=CARTESIAN_POINT('',(25.,4.,27.));
#530=CARTESIAN_POINT('',(25.,4.,23.));
#531=CARTESIAN_POINT('',(25.,0.,23.));
#532=CARTESIAN_POINT('',(25.,4.,27.));
#533=CARTESIAN_POINT('',(17.,4.,-20.));
#534=CARTESIAN_POINT('',(17.,4.,-23.3));
#535=CARTESIAN_POINT('',(17.,4.,20.));
#536=CARTESIAN_POINT('',(17.,4.,16.7));
#537=CARTESIAN_POINT('',(21.,4.,-23.));
#538=CARTESIAN_POINT('',(5.6,4.,27.));
#539=CARTESIAN_POINT('',(21.,4.,23.));
#540=CARTESIAN_POINT('',(5.6,5.6,27.));
#541=CARTESIAN_POINT('',(4.,25.,0.));
#542=CARTESIAN_POINT('',(4.,31.6037030932942,16.7448829633299));
#543=CARTESIAN_POINT('',(4.,31.6037030932942,-16.7448829633299));
#544=CARTESIAN_POINT('',(4.,5.6,27.));
#545=CARTESIAN_POINT('',(4.,31.6037030932942,-16.7448829633299));
#546=CARTESIAN_POINT('',(4.,25.,0.));
#547=CARTESIAN_POINT('',(17.,0.,20.));
#548=CARTESIAN_POINT('',(17.,0.,-20.));
#549=CARTESIAN_POINT('',(21.,0.,-23.));
#550=CARTESIAN_POINT('',(21.,3.,23.));
#551=CARTESIAN_POINT('',(0.,0.,0.));
#552=MECHANICAL_DESIGN_GEOMETRIC_PRESENTATION_REPRESENTATION('',(#323),
#553);
#553=(
GEOMETRIC_REPRESENTATION_CONTEXT(3)
GLOBAL_UNCERTAINTY_ASSIGNED_CONTEXT((#555))
GLOBAL_UNIT_ASSIGNED_CONTEXT((#559,#558,#557))
REPRESENTATION_CONTEXT('5407787 HBN-S-20/25X1---(0)',
'TOP_LEVEL_ASSEMBLY_PART')
);
#554=(
GEOMETRIC_REPRESENTATION_CONTEXT(3)
GLOBAL_UNCERTAINTY_ASSIGNED_CONTEXT((#556))
GLOBAL_UNIT_ASSIGNED_CONTEXT((#559,#558,#557))
REPRESENTATION_CONTEXT('5407787 HBN-S-20/25X1---(1)','COMPONENT_PART')
);
#555=UNCERTAINTY_MEASURE_WITH_UNIT(LENGTH_MEASURE(0.005),#559,
'DISTANCE_ACCURACY_VALUE','Maximum Tolerance applied to model');
#556=UNCERTAINTY_MEASURE_WITH_UNIT(LENGTH_MEASURE(0.005),#559,
'DISTANCE_ACCURACY_VALUE','Maximum Tolerance applied to model');
#557=(
NAMED_UNIT(*)
SI_UNIT($,.STERADIAN.)
SOLID_ANGLE_UNIT()
);
#558=(
NAMED_UNIT(*)
PLANE_ANGLE_UNIT()
SI_UNIT($,.RADIAN.)
);
#559=(
LENGTH_UNIT()
NAMED_UNIT(*)
SI_UNIT(.MILLI.,.METRE.)
);
#560=PRODUCT_DEFINITION_SHAPE('','',#563);
#561=PRODUCT_DEFINITION_SHAPE('','',#564);
#562=PRODUCT_DEFINITION_SHAPE(' ','NAUO PRDDFN',#19);
#563=PRODUCT_DEFINITION('','',#567,#565);
#564=PRODUCT_DEFINITION('','',#568,#566);
#565=PRODUCT_DEFINITION_CONTEXT('',#578,'design');
#566=PRODUCT_DEFINITION_CONTEXT('',#578,'design');
#567=PRODUCT_DEFINITION_FORMATION_WITH_SPECIFIED_SOURCE('','',#571,
 .NOT_KNOWN.);
#568=PRODUCT_DEFINITION_FORMATION_WITH_SPECIFIED_SOURCE('','',#572,
 .NOT_KNOWN.);
#569=PRODUCT_RELATED_PRODUCT_CATEGORY('','',(#571));
#570=PRODUCT_RELATED_PRODUCT_CATEGORY('','',(#572));
#571=PRODUCT('5407787 HBN-S-20/25X1---(0)',
'5407787 HBN-S-20/25X1---(0)','5407787 HBN-S-20/25X1---(0)',(#575));
#572=PRODUCT('5407787 HBN-S-20/25X1---(1)',
'5407787 HBN-S-20/25X1---(1)','5407787 HBN-S-20/25X1---(1)',(#576));
#573=PRODUCT_CATEGORY('','');
#574=PRODUCT_CATEGORY('','');
#575=PRODUCT_CONTEXT('',#578,'mechanical');
#576=PRODUCT_CONTEXT('',#578,'mechanical');
#577=APPLICATION_PROTOCOL_DEFINITION('international standard',
'automotive_design',2010,#578);
#578=APPLICATION_CONTEXT(
'core data for automotive mechanical design processes');
ENDSEC;
END-ISO-10303-21;
