ISO-10303-21;
HEADER;
/* Generated by software containing ST-Developer
 * from STEP Tools, Inc. (www.steptools.com) 
 */
/* OPTION: using custom renumber hook */

FILE_DESCRIPTION(
/* description */ ('STEP AP214'),
/* implementation_level */ '2;1');

FILE_NAME(
/* name */ '540783_FDPA-40',
/* time_stamp */ '2024-08-28T02:52:11+02:00',
/* author */ ('License CC BY-ND 4.0'),
/* organization */ ('CADENAS'),
/* preprocessor_version */ 'ST-DEVELOPER v19.3',
/* originating_system */ 'PARTsolutions',
/* authorisation */ '  ');

FILE_SCHEMA (('AUTOMOTIVE_DESIGN {1 0 10303 214 3 1 1}'));
ENDSEC;

DATA;
#10=PROPERTY_DEFINITION_REPRESENTATION(#14,#12);
#11=PROPERTY_DEFINITION_REPRESENTATION(#15,#13);
#12=REPRESENTATION('',(#16),#549);
#13=REPRESENTATION('',(#17),#549);
#14=PROPERTY_DEFINITION('pmi validation property','',#554);
#15=PROPERTY_DEFINITION('pmi validation property','',#554);
#16=VALUE_REPRESENTATION_ITEM('number of annotations',COUNT_MEASURE(0.));
#17=VALUE_REPRESENTATION_ITEM('number of views',COUNT_MEASURE(0.));
#18=SHAPE_REPRESENTATION_RELATIONSHIP('','',#331,#19);
#19=ADVANCED_BREP_SHAPE_REPRESENTATION('',(#329),#549);
#20=LINE('',#489,#32);
#21=LINE('',#492,#33);
#22=LINE('',#494,#34);
#23=LINE('',#496,#35);
#24=LINE('',#498,#36);
#25=LINE('',#500,#37);
#26=LINE('',#502,#38);
#27=LINE('',#504,#39);
#28=LINE('',#506,#40);
#29=LINE('',#508,#41);
#30=LINE('',#520,#42);
#31=LINE('',#521,#43);
#32=VECTOR('',#401,1000.);
#33=VECTOR('',#402,1000.);
#34=VECTOR('',#403,1000.);
#35=VECTOR('',#404,1000.);
#36=VECTOR('',#407,1000.);
#37=VECTOR('',#408,1000.);
#38=VECTOR('',#409,1000.);
#39=VECTOR('',#412,1000.);
#40=VECTOR('',#413,1000.);
#41=VECTOR('',#414,1000.);
#42=VECTOR('',#429,1000.);
#43=VECTOR('',#430,1000.);
#44=PLANE('',#345);
#45=PLANE('',#346);
#46=PLANE('',#347);
#47=PLANE('',#354);
#48=PLANE('',#355);
#49=PLANE('',#356);
#50=PLANE('',#361);
#51=PLANE('',#364);
#52=PLANE('',#367);
#53=PLANE('',#370);
#54=ORIENTED_EDGE('',*,*,#118,.F.);
#55=ORIENTED_EDGE('',*,*,#119,.F.);
#56=ORIENTED_EDGE('',*,*,#120,.F.);
#57=ORIENTED_EDGE('',*,*,#121,.F.);
#58=ORIENTED_EDGE('',*,*,#122,.F.);
#59=ORIENTED_EDGE('',*,*,#123,.F.);
#60=ORIENTED_EDGE('',*,*,#124,.F.);
#61=ORIENTED_EDGE('',*,*,#125,.F.);
#62=ORIENTED_EDGE('',*,*,#126,.F.);
#63=ORIENTED_EDGE('',*,*,#127,.F.);
#64=ORIENTED_EDGE('',*,*,#128,.T.);
#65=ORIENTED_EDGE('',*,*,#129,.T.);
#66=ORIENTED_EDGE('',*,*,#130,.F.);
#67=ORIENTED_EDGE('',*,*,#129,.F.);
#68=ORIENTED_EDGE('',*,*,#131,.T.);
#69=ORIENTED_EDGE('',*,*,#132,.T.);
#70=ORIENTED_EDGE('',*,*,#133,.F.);
#71=ORIENTED_EDGE('',*,*,#132,.F.);
#72=ORIENTED_EDGE('',*,*,#134,.T.);
#73=ORIENTED_EDGE('',*,*,#135,.T.);
#74=ORIENTED_EDGE('',*,*,#136,.F.);
#75=ORIENTED_EDGE('',*,*,#137,.T.);
#76=ORIENTED_EDGE('',*,*,#138,.F.);
#77=ORIENTED_EDGE('',*,*,#139,.T.);
#78=ORIENTED_EDGE('',*,*,#140,.F.);
#79=ORIENTED_EDGE('',*,*,#135,.F.);
#80=ORIENTED_EDGE('',*,*,#141,.T.);
#81=ORIENTED_EDGE('',*,*,#127,.T.);
#82=ORIENTED_EDGE('',*,*,#138,.T.);
#83=ORIENTED_EDGE('',*,*,#136,.T.);
#84=ORIENTED_EDGE('',*,*,#118,.T.);
#85=ORIENTED_EDGE('',*,*,#122,.T.);
#86=ORIENTED_EDGE('',*,*,#120,.T.);
#87=ORIENTED_EDGE('',*,*,#124,.T.);
#88=ORIENTED_EDGE('',*,*,#128,.F.);
#89=ORIENTED_EDGE('',*,*,#141,.F.);
#90=ORIENTED_EDGE('',*,*,#134,.F.);
#91=ORIENTED_EDGE('',*,*,#131,.F.);
#92=ORIENTED_EDGE('',*,*,#142,.F.);
#93=ORIENTED_EDGE('',*,*,#143,.F.);
#94=ORIENTED_EDGE('',*,*,#144,.F.);
#95=ORIENTED_EDGE('',*,*,#145,.F.);
#96=ORIENTED_EDGE('',*,*,#139,.F.);
#97=ORIENTED_EDGE('',*,*,#137,.F.);
#98=ORIENTED_EDGE('',*,*,#126,.T.);
#99=ORIENTED_EDGE('',*,*,#130,.T.);
#100=ORIENTED_EDGE('',*,*,#133,.T.);
#101=ORIENTED_EDGE('',*,*,#140,.T.);
#102=ORIENTED_EDGE('',*,*,#146,.T.);
#103=ORIENTED_EDGE('',*,*,#125,.T.);
#104=ORIENTED_EDGE('',*,*,#146,.F.);
#105=ORIENTED_EDGE('',*,*,#145,.T.);
#106=ORIENTED_EDGE('',*,*,#147,.T.);
#107=ORIENTED_EDGE('',*,*,#123,.T.);
#108=ORIENTED_EDGE('',*,*,#147,.F.);
#109=ORIENTED_EDGE('',*,*,#144,.T.);
#110=ORIENTED_EDGE('',*,*,#148,.T.);
#111=ORIENTED_EDGE('',*,*,#121,.T.);
#112=ORIENTED_EDGE('',*,*,#148,.F.);
#113=ORIENTED_EDGE('',*,*,#143,.T.);
#114=ORIENTED_EDGE('',*,*,#149,.T.);
#115=ORIENTED_EDGE('',*,*,#119,.T.);
#116=ORIENTED_EDGE('',*,*,#149,.F.);
#117=ORIENTED_EDGE('',*,*,#142,.T.);
#118=EDGE_CURVE('',#150,#150,#178,.T.);
#119=EDGE_CURVE('',#151,#151,#179,.F.);
#120=EDGE_CURVE('',#152,#152,#180,.T.);
#121=EDGE_CURVE('',#153,#153,#181,.F.);
#122=EDGE_CURVE('',#154,#154,#182,.T.);
#123=EDGE_CURVE('',#155,#155,#183,.F.);
#124=EDGE_CURVE('',#156,#156,#184,.T.);
#125=EDGE_CURVE('',#157,#157,#185,.F.);
#126=EDGE_CURVE('',#158,#159,#20,.T.);
#127=EDGE_CURVE('',#160,#158,#21,.T.);
#128=EDGE_CURVE('',#160,#161,#22,.T.);
#129=EDGE_CURVE('',#161,#159,#23,.T.);
#130=EDGE_CURVE('',#159,#162,#24,.T.);
#131=EDGE_CURVE('',#161,#163,#25,.T.);
#132=EDGE_CURVE('',#163,#162,#26,.T.);
#133=EDGE_CURVE('',#162,#164,#27,.T.);
#134=EDGE_CURVE('',#163,#165,#28,.T.);
#135=EDGE_CURVE('',#165,#164,#29,.T.);
#136=EDGE_CURVE('',#166,#166,#186,.T.);
#137=EDGE_CURVE('',#167,#167,#187,.T.);
#138=EDGE_CURVE('',#168,#168,#188,.T.);
#139=EDGE_CURVE('',#169,#169,#189,.T.);
#140=EDGE_CURVE('',#164,#158,#30,.T.);
#141=EDGE_CURVE('',#165,#160,#31,.T.);
#142=EDGE_CURVE('',#170,#170,#190,.T.);
#143=EDGE_CURVE('',#171,#171,#191,.T.);
#144=EDGE_CURVE('',#172,#172,#192,.T.);
#145=EDGE_CURVE('',#173,#173,#193,.T.);
#146=EDGE_CURVE('',#174,#174,#194,.T.);
#147=EDGE_CURVE('',#175,#175,#195,.T.);
#148=EDGE_CURVE('',#176,#176,#196,.T.);
#149=EDGE_CURVE('',#177,#177,#197,.T.);
#150=VERTEX_POINT('',#470);
#151=VERTEX_POINT('',#472);
#152=VERTEX_POINT('',#475);
#153=VERTEX_POINT('',#477);
#154=VERTEX_POINT('',#480);
#155=VERTEX_POINT('',#482);
#156=VERTEX_POINT('',#485);
#157=VERTEX_POINT('',#487);
#158=VERTEX_POINT('',#490);
#159=VERTEX_POINT('',#491);
#160=VERTEX_POINT('',#493);
#161=VERTEX_POINT('',#495);
#162=VERTEX_POINT('',#499);
#163=VERTEX_POINT('',#501);
#164=VERTEX_POINT('',#505);
#165=VERTEX_POINT('',#507);
#166=VERTEX_POINT('',#511);
#167=VERTEX_POINT('',#513);
#168=VERTEX_POINT('',#516);
#169=VERTEX_POINT('',#518);
#170=VERTEX_POINT('',#525);
#171=VERTEX_POINT('',#527);
#172=VERTEX_POINT('',#529);
#173=VERTEX_POINT('',#531);
#174=VERTEX_POINT('',#534);
#175=VERTEX_POINT('',#538);
#176=VERTEX_POINT('',#542);
#177=VERTEX_POINT('',#546);
#178=CIRCLE('',#334,2.25);
#179=CIRCLE('',#335,2.25);
#180=CIRCLE('',#337,2.25);
#181=CIRCLE('',#338,2.25);
#182=CIRCLE('',#340,2.25);
#183=CIRCLE('',#341,2.25);
#184=CIRCLE('',#343,2.25);
#185=CIRCLE('',#344,2.25);
#186=CIRCLE('',#349,2.75);
#187=CIRCLE('',#350,2.75);
#188=CIRCLE('',#352,2.75);
#189=CIRCLE('',#353,2.75);
#190=CIRCLE('',#357,4.);
#191=CIRCLE('',#358,4.);
#192=CIRCLE('',#359,4.);
#193=CIRCLE('',#360,4.);
#194=CIRCLE('',#362,4.);
#195=CIRCLE('',#365,4.);
#196=CIRCLE('',#368,4.);
#197=CIRCLE('',#371,4.);
#198=EDGE_LOOP('',(#54));
#199=EDGE_LOOP('',(#55));
#200=EDGE_LOOP('',(#56));
#201=EDGE_LOOP('',(#57));
#202=EDGE_LOOP('',(#58));
#203=EDGE_LOOP('',(#59));
#204=EDGE_LOOP('',(#60));
#205=EDGE_LOOP('',(#61));
#206=EDGE_LOOP('',(#62,#63,#64,#65));
#207=EDGE_LOOP('',(#66,#67,#68,#69));
#208=EDGE_LOOP('',(#70,#71,#72,#73));
#209=EDGE_LOOP('',(#74));
#210=EDGE_LOOP('',(#75));
#211=EDGE_LOOP('',(#76));
#212=EDGE_LOOP('',(#77));
#213=EDGE_LOOP('',(#78,#79,#80,#81));
#214=EDGE_LOOP('',(#82));
#215=EDGE_LOOP('',(#83));
#216=EDGE_LOOP('',(#84));
#217=EDGE_LOOP('',(#85));
#218=EDGE_LOOP('',(#86));
#219=EDGE_LOOP('',(#87));
#220=EDGE_LOOP('',(#88,#89,#90,#91));
#221=EDGE_LOOP('',(#92));
#222=EDGE_LOOP('',(#93));
#223=EDGE_LOOP('',(#94));
#224=EDGE_LOOP('',(#95));
#225=EDGE_LOOP('',(#96));
#226=EDGE_LOOP('',(#97));
#227=EDGE_LOOP('',(#98,#99,#100,#101));
#228=EDGE_LOOP('',(#102));
#229=EDGE_LOOP('',(#103));
#230=EDGE_LOOP('',(#104));
#231=EDGE_LOOP('',(#105));
#232=EDGE_LOOP('',(#106));
#233=EDGE_LOOP('',(#107));
#234=EDGE_LOOP('',(#108));
#235=EDGE_LOOP('',(#109));
#236=EDGE_LOOP('',(#110));
#237=EDGE_LOOP('',(#111));
#238=EDGE_LOOP('',(#112));
#239=EDGE_LOOP('',(#113));
#240=EDGE_LOOP('',(#114));
#241=EDGE_LOOP('',(#115));
#242=EDGE_LOOP('',(#116));
#243=EDGE_LOOP('',(#117));
#244=FACE_BOUND('',#198,.T.);
#245=FACE_BOUND('',#199,.T.);
#246=FACE_BOUND('',#200,.T.);
#247=FACE_BOUND('',#201,.T.);
#248=FACE_BOUND('',#202,.T.);
#249=FACE_BOUND('',#203,.T.);
#250=FACE_BOUND('',#204,.T.);
#251=FACE_BOUND('',#205,.T.);
#252=FACE_BOUND('',#206,.T.);
#253=FACE_BOUND('',#207,.T.);
#254=FACE_BOUND('',#208,.T.);
#255=FACE_BOUND('',#209,.T.);
#256=FACE_BOUND('',#210,.T.);
#257=FACE_BOUND('',#211,.T.);
#258=FACE_BOUND('',#212,.T.);
#259=FACE_BOUND('',#213,.T.);
#260=FACE_BOUND('',#214,.T.);
#261=FACE_BOUND('',#215,.T.);
#262=FACE_BOUND('',#216,.T.);
#263=FACE_BOUND('',#217,.T.);
#264=FACE_BOUND('',#218,.T.);
#265=FACE_BOUND('',#219,.T.);
#266=FACE_BOUND('',#220,.T.);
#267=FACE_BOUND('',#221,.T.);
#268=FACE_BOUND('',#222,.T.);
#269=FACE_BOUND('',#223,.T.);
#270=FACE_BOUND('',#224,.T.);
#271=FACE_BOUND('',#225,.T.);
#272=FACE_BOUND('',#226,.T.);
#273=FACE_BOUND('',#227,.T.);
#274=FACE_BOUND('',#228,.T.);
#275=FACE_BOUND('',#229,.T.);
#276=FACE_BOUND('',#230,.T.);
#277=FACE_BOUND('',#231,.T.);
#278=FACE_BOUND('',#232,.T.);
#279=FACE_BOUND('',#233,.T.);
#280=FACE_BOUND('',#234,.T.);
#281=FACE_BOUND('',#235,.T.);
#282=FACE_BOUND('',#236,.T.);
#283=FACE_BOUND('',#237,.T.);
#284=FACE_BOUND('',#238,.T.);
#285=FACE_BOUND('',#239,.T.);
#286=FACE_BOUND('',#240,.T.);
#287=FACE_BOUND('',#241,.T.);
#288=FACE_BOUND('',#242,.T.);
#289=FACE_BOUND('',#243,.T.);
#290=CYLINDRICAL_SURFACE('',#333,2.25);
#291=CYLINDRICAL_SURFACE('',#336,2.25);
#292=CYLINDRICAL_SURFACE('',#339,2.25);
#293=CYLINDRICAL_SURFACE('',#342,2.25);
#294=CYLINDRICAL_SURFACE('',#348,2.75);
#295=CYLINDRICAL_SURFACE('',#351,2.75);
#296=CYLINDRICAL_SURFACE('',#363,4.);
#297=CYLINDRICAL_SURFACE('',#366,4.);
#298=CYLINDRICAL_SURFACE('',#369,4.);
#299=CYLINDRICAL_SURFACE('',#372,4.);
#300=ADVANCED_FACE('',(#244,#245),#290,.F.);
#301=ADVANCED_FACE('',(#246,#247),#291,.F.);
#302=ADVANCED_FACE('',(#248,#249),#292,.F.);
#303=ADVANCED_FACE('',(#250,#251),#293,.F.);
#304=ADVANCED_FACE('',(#252),#44,.T.);
#305=ADVANCED_FACE('',(#253),#45,.T.);
#306=ADVANCED_FACE('',(#254),#46,.T.);
#307=ADVANCED_FACE('',(#255,#256),#294,.F.);
#308=ADVANCED_FACE('',(#257,#258),#295,.F.);
#309=ADVANCED_FACE('',(#259),#47,.T.);
#310=ADVANCED_FACE('',(#260,#261,#262,#263,#264,#265,#266),#48,.F.);
#311=ADVANCED_FACE('',(#267,#268,#269,#270,#271,#272,#273),#49,.T.);
#312=ADVANCED_FACE('',(#274,#275),#50,.T.);
#313=ADVANCED_FACE('',(#276,#277),#296,.F.);
#314=ADVANCED_FACE('',(#278,#279),#51,.T.);
#315=ADVANCED_FACE('',(#280,#281),#297,.F.);
#316=ADVANCED_FACE('',(#282,#283),#52,.T.);
#317=ADVANCED_FACE('',(#284,#285),#298,.F.);
#318=ADVANCED_FACE('',(#286,#287),#53,.T.);
#319=ADVANCED_FACE('',(#288,#289),#299,.F.);
#320=CLOSED_SHELL('',(#300,#301,#302,#303,#304,#305,#306,#307,#308,#309,
#310,#311,#312,#313,#314,#315,#316,#317,#318,#319));
#321=STYLED_ITEM('',(#322),#329);
#322=PRESENTATION_STYLE_ASSIGNMENT((#323));
#323=SURFACE_STYLE_USAGE(.BOTH.,#324);
#324=SURFACE_SIDE_STYLE('',(#325));
#325=SURFACE_STYLE_FILL_AREA(#326);
#326=FILL_AREA_STYLE('',(#327));
#327=FILL_AREA_STYLE_COLOUR('',#328);
#328=COLOUR_RGB('',0.689999997615814,0.689999997615814,0.689999997615814);
#329=MANIFOLD_SOLID_BREP('540783 FDPA-40',#320);
#330=SHAPE_DEFINITION_REPRESENTATION(#554,#331);
#331=SHAPE_REPRESENTATION('540783 FDPA-40',(#332),#549);
#332=AXIS2_PLACEMENT_3D('',#467,#373,#374);
#333=AXIS2_PLACEMENT_3D('',#468,#375,#376);
#334=AXIS2_PLACEMENT_3D('',#469,#377,#378);
#335=AXIS2_PLACEMENT_3D('',#471,#379,#380);
#336=AXIS2_PLACEMENT_3D('',#473,#381,#382);
#337=AXIS2_PLACEMENT_3D('',#474,#383,#384);
#338=AXIS2_PLACEMENT_3D('',#476,#385,#386);
#339=AXIS2_PLACEMENT_3D('',#478,#387,#388);
#340=AXIS2_PLACEMENT_3D('',#479,#389,#390);
#341=AXIS2_PLACEMENT_3D('',#481,#391,#392);
#342=AXIS2_PLACEMENT_3D('',#483,#393,#394);
#343=AXIS2_PLACEMENT_3D('',#484,#395,#396);
#344=AXIS2_PLACEMENT_3D('',#486,#397,#398);
#345=AXIS2_PLACEMENT_3D('',#488,#399,#400);
#346=AXIS2_PLACEMENT_3D('',#497,#405,#406);
#347=AXIS2_PLACEMENT_3D('',#503,#410,#411);
#348=AXIS2_PLACEMENT_3D('',#509,#415,#416);
#349=AXIS2_PLACEMENT_3D('',#510,#417,#418);
#350=AXIS2_PLACEMENT_3D('',#512,#419,#420);
#351=AXIS2_PLACEMENT_3D('',#514,#421,#422);
#352=AXIS2_PLACEMENT_3D('',#515,#423,#424);
#353=AXIS2_PLACEMENT_3D('',#517,#425,#426);
#354=AXIS2_PLACEMENT_3D('',#519,#427,#428);
#355=AXIS2_PLACEMENT_3D('',#522,#431,#432);
#356=AXIS2_PLACEMENT_3D('',#523,#433,#434);
#357=AXIS2_PLACEMENT_3D('',#524,#435,#436);
#358=AXIS2_PLACEMENT_3D('',#526,#437,#438);
#359=AXIS2_PLACEMENT_3D('',#528,#439,#440);
#360=AXIS2_PLACEMENT_3D('',#530,#441,#442);
#361=AXIS2_PLACEMENT_3D('',#532,#443,#444);
#362=AXIS2_PLACEMENT_3D('',#533,#445,#446);
#363=AXIS2_PLACEMENT_3D('',#535,#447,#448);
#364=AXIS2_PLACEMENT_3D('',#536,#449,#450);
#365=AXIS2_PLACEMENT_3D('',#537,#451,#452);
#366=AXIS2_PLACEMENT_3D('',#539,#453,#454);
#367=AXIS2_PLACEMENT_3D('',#540,#455,#456);
#368=AXIS2_PLACEMENT_3D('',#541,#457,#458);
#369=AXIS2_PLACEMENT_3D('',#543,#459,#460);
#370=AXIS2_PLACEMENT_3D('',#544,#461,#462);
#371=AXIS2_PLACEMENT_3D('',#545,#463,#464);
#372=AXIS2_PLACEMENT_3D('',#547,#465,#466);
#373=DIRECTION('',(0.,0.,1.));
#374=DIRECTION('',(1.,0.,0.));
#375=DIRECTION('',(0.,0.,1.));
#376=DIRECTION('',(1.,0.,0.));
#377=DIRECTION('',(0.,0.,1.));
#378=DIRECTION('',(1.,0.,0.));
#379=DIRECTION('',(0.,0.,1.));
#380=DIRECTION('',(1.,0.,0.));
#381=DIRECTION('',(0.,0.,1.));
#382=DIRECTION('',(1.,0.,0.));
#383=DIRECTION('',(0.,0.,1.));
#384=DIRECTION('',(1.,0.,0.));
#385=DIRECTION('',(0.,0.,1.));
#386=DIRECTION('',(1.,0.,0.));
#387=DIRECTION('',(0.,0.,1.));
#388=DIRECTION('',(1.,0.,0.));
#389=DIRECTION('',(0.,0.,1.));
#390=DIRECTION('',(1.,0.,0.));
#391=DIRECTION('',(0.,0.,1.));
#392=DIRECTION('',(1.,0.,0.));
#393=DIRECTION('',(0.,0.,1.));
#394=DIRECTION('',(1.,0.,0.));
#395=DIRECTION('',(0.,0.,1.));
#396=DIRECTION('',(1.,0.,0.));
#397=DIRECTION('',(0.,0.,1.));
#398=DIRECTION('',(1.,0.,0.));
#399=DIRECTION('',(0.,1.,0.));
#400=DIRECTION('',(0.,0.,1.));
#401=DIRECTION('',(-1.,0.,0.));
#402=DIRECTION('',(0.,0.,1.));
#403=DIRECTION('',(-1.,0.,0.));
#404=DIRECTION('',(0.,0.,1.));
#405=DIRECTION('',(-1.,0.,0.));
#406=DIRECTION('',(0.,0.,1.));
#407=DIRECTION('',(0.,-1.,0.));
#408=DIRECTION('',(0.,-1.,0.));
#409=DIRECTION('',(0.,0.,1.));
#410=DIRECTION('',(0.,-1.,0.));
#411=DIRECTION('',(0.,0.,-1.));
#412=DIRECTION('',(1.,0.,0.));
#413=DIRECTION('',(1.,0.,0.));
#414=DIRECTION('',(0.,0.,1.));
#415=DIRECTION('',(0.,0.,1.));
#416=DIRECTION('',(1.,0.,0.));
#417=DIRECTION('',(0.,0.,1.));
#418=DIRECTION('',(1.,0.,0.));
#419=DIRECTION('',(0.,0.,1.));
#420=DIRECTION('',(1.,0.,0.));
#421=DIRECTION('',(0.,0.,1.));
#422=DIRECTION('',(1.,0.,0.));
#423=DIRECTION('',(0.,0.,1.));
#424=DIRECTION('',(1.,0.,0.));
#425=DIRECTION('',(0.,0.,1.));
#426=DIRECTION('',(1.,0.,0.));
#427=DIRECTION('',(1.,0.,0.));
#428=DIRECTION('',(0.,0.,-1.));
#429=DIRECTION('',(0.,1.,0.));
#430=DIRECTION('',(0.,1.,0.));
#431=DIRECTION('',(0.,0.,1.));
#432=DIRECTION('',(1.,0.,0.));
#433=DIRECTION('',(0.,0.,1.));
#434=DIRECTION('',(1.,0.,0.));
#435=DIRECTION('',(0.,0.,1.));
#436=DIRECTION('',(1.,0.,0.));
#437=DIRECTION('',(0.,0.,1.));
#438=DIRECTION('',(1.,0.,0.));
#439=DIRECTION('',(0.,0.,1.));
#440=DIRECTION('',(1.,0.,0.));
#441=DIRECTION('',(0.,0.,1.));
#442=DIRECTION('',(1.,0.,0.));
#443=DIRECTION('',(0.,0.,1.));
#444=DIRECTION('',(1.,0.,0.));
#445=DIRECTION('',(0.,0.,1.));
#446=DIRECTION('',(1.,0.,0.));
#447=DIRECTION('',(0.,0.,1.));
#448=DIRECTION('',(1.,0.,0.));
#449=DIRECTION('',(0.,0.,1.));
#450=DIRECTION('',(1.,0.,0.));
#451=DIRECTION('',(0.,0.,1.));
#452=DIRECTION('',(1.,0.,0.));
#453=DIRECTION('',(0.,0.,1.));
#454=DIRECTION('',(1.,0.,0.));
#455=DIRECTION('',(0.,0.,1.));
#456=DIRECTION('',(1.,0.,0.));
#457=DIRECTION('',(0.,0.,1.));
#458=DIRECTION('',(1.,0.,0.));
#459=DIRECTION('',(0.,0.,1.));
#460=DIRECTION('',(1.,0.,0.));
#461=DIRECTION('',(0.,0.,1.));
#462=DIRECTION('',(1.,0.,0.));
#463=DIRECTION('',(0.,0.,1.));
#464=DIRECTION('',(1.,0.,0.));
#465=DIRECTION('',(0.,0.,1.));
#466=DIRECTION('',(1.,0.,0.));
#467=CARTESIAN_POINT('',(0.,0.,0.));
#468=CARTESIAN_POINT('',(-12.05,-18.5,-10.));
#469=CARTESIAN_POINT('',(-12.05,-18.5,-10.));
#470=CARTESIAN_POINT('',(-9.8,-18.5,-10.));
#471=CARTESIAN_POINT('',(-12.05,-18.5,-4.6));
#472=CARTESIAN_POINT('',(-9.8,-18.5,-4.6));
#473=CARTESIAN_POINT('',(21.95,-18.5,-10.));
#474=CARTESIAN_POINT('',(21.95,-18.5,-10.));
#475=CARTESIAN_POINT('',(24.2,-18.5,-10.));
#476=CARTESIAN_POINT('',(21.95,-18.5,-4.6));
#477=CARTESIAN_POINT('',(24.2,-18.5,-4.6));
#478=CARTESIAN_POINT('',(-5.05,18.5,-10.));
#479=CARTESIAN_POINT('',(-5.05,18.5,-10.));
#480=CARTESIAN_POINT('',(-2.8,18.5,-10.));
#481=CARTESIAN_POINT('',(-5.05,18.5,-4.6));
#482=CARTESIAN_POINT('',(-2.8,18.5,-4.6));
#483=CARTESIAN_POINT('',(28.95,18.5,-10.));
#484=CARTESIAN_POINT('',(28.95,18.5,-10.));
#485=CARTESIAN_POINT('',(31.2,18.5,-10.));
#486=CARTESIAN_POINT('',(28.95,18.5,-4.6));
#487=CARTESIAN_POINT('',(31.2,18.5,-4.6));
#488=CARTESIAN_POINT('',(38.75,25.,-10.));
#489=CARTESIAN_POINT('',(38.75,25.,0.));
#490=CARTESIAN_POINT('',(38.75,25.,0.));
#491=CARTESIAN_POINT('',(-38.75,25.,0.));
#492=CARTESIAN_POINT('',(38.75,25.,-10.));
#493=CARTESIAN_POINT('',(38.75,25.,-10.));
#494=CARTESIAN_POINT('',(38.75,25.,-10.));
#495=CARTESIAN_POINT('',(-38.75,25.,-10.));
#496=CARTESIAN_POINT('',(-38.75,25.,-10.));
#497=CARTESIAN_POINT('',(-38.75,25.,-10.));
#498=CARTESIAN_POINT('',(-38.75,25.,0.));
#499=CARTESIAN_POINT('',(-38.75,-25.,0.));
#500=CARTESIAN_POINT('',(-38.75,25.,-10.));
#501=CARTESIAN_POINT('',(-38.75,-25.,-10.));
#502=CARTESIAN_POINT('',(-38.75,-25.,-10.));
#503=CARTESIAN_POINT('',(-38.75,-25.,-10.));
#504=CARTESIAN_POINT('',(-38.75,-25.,0.));
#505=CARTESIAN_POINT('',(38.75,-25.,0.));
#506=CARTESIAN_POINT('',(-38.75,-25.,-10.));
#507=CARTESIAN_POINT('',(38.75,-25.,-10.));
#508=CARTESIAN_POINT('',(38.75,-25.,-10.));
#509=CARTESIAN_POINT('',(-29.55,20.,-10.));
#510=CARTESIAN_POINT('',(-29.55,20.,-10.));
#511=CARTESIAN_POINT('',(-26.8,20.,-10.));
#512=CARTESIAN_POINT('',(-29.55,20.,0.));
#513=CARTESIAN_POINT('',(-26.8,20.,0.));
#514=CARTESIAN_POINT('',(-29.55,-20.,-10.));
#515=CARTESIAN_POINT('',(-29.55,-20.,-10.));
#516=CARTESIAN_POINT('',(-26.8,-20.,-10.));
#517=CARTESIAN_POINT('',(-29.55,-20.,0.));
#518=CARTESIAN_POINT('',(-26.8,-20.,0.));
#519=CARTESIAN_POINT('',(38.75,-25.,-10.));
#520=CARTESIAN_POINT('',(38.75,-25.,0.));
#521=CARTESIAN_POINT('',(38.75,-25.,-10.));
#522=CARTESIAN_POINT('',(0.,0.,-10.));
#523=CARTESIAN_POINT('',(0.,0.,0.));
#524=CARTESIAN_POINT('',(-12.05,-18.5,0.));
#525=CARTESIAN_POINT('',(-8.05,-18.5,0.));
#526=CARTESIAN_POINT('',(21.95,-18.5,0.));
#527=CARTESIAN_POINT('',(25.95,-18.5,0.));
#528=CARTESIAN_POINT('',(-5.05,18.5,0.));
#529=CARTESIAN_POINT('',(-1.05,18.5,0.));
#530=CARTESIAN_POINT('',(28.95,18.5,0.));
#531=CARTESIAN_POINT('',(32.95,18.5,0.));
#532=CARTESIAN_POINT('',(28.95,18.5,-4.6));
#533=CARTESIAN_POINT('',(28.95,18.5,-4.6));
#534=CARTESIAN_POINT('',(32.95,18.5,-4.6));
#535=CARTESIAN_POINT('',(28.95,18.5,-4.6));
#536=CARTESIAN_POINT('',(-5.05,18.5,-4.6));
#537=CARTESIAN_POINT('',(-5.05,18.5,-4.6));
#538=CARTESIAN_POINT('',(-1.05,18.5,-4.6));
#539=CARTESIAN_POINT('',(-5.05,18.5,-4.6));
#540=CARTESIAN_POINT('',(21.95,-18.5,-4.6));
#541=CARTESIAN_POINT('',(21.95,-18.5,-4.6));
#542=CARTESIAN_POINT('',(25.95,-18.5,-4.6));
#543=CARTESIAN_POINT('',(21.95,-18.5,-4.6));
#544=CARTESIAN_POINT('',(-12.05,-18.5,-4.6));
#545=CARTESIAN_POINT('',(-12.05,-18.5,-4.6));
#546=CARTESIAN_POINT('',(-8.05,-18.5,-4.6));
#547=CARTESIAN_POINT('',(-12.05,-18.5,-4.6));
#548=MECHANICAL_DESIGN_GEOMETRIC_PRESENTATION_REPRESENTATION('',(#321),
#549);
#549=(
GEOMETRIC_REPRESENTATION_CONTEXT(3)
GLOBAL_UNCERTAINTY_ASSIGNED_CONTEXT((#550))
GLOBAL_UNIT_ASSIGNED_CONTEXT((#553,#552,#551))
REPRESENTATION_CONTEXT('540783 FDPA-40','TOP_LEVEL_ASSEMBLY_PART')
);
#550=UNCERTAINTY_MEASURE_WITH_UNIT(LENGTH_MEASURE(0.005),#553,
'DISTANCE_ACCURACY_VALUE','Maximum Tolerance applied to model');
#551=(
NAMED_UNIT(*)
SI_UNIT($,.STERADIAN.)
SOLID_ANGLE_UNIT()
);
#552=(
NAMED_UNIT(*)
PLANE_ANGLE_UNIT()
SI_UNIT($,.RADIAN.)
);
#553=(
LENGTH_UNIT()
NAMED_UNIT(*)
SI_UNIT(.MILLI.,.METRE.)
);
#554=PRODUCT_DEFINITION_SHAPE('','',#555);
#555=PRODUCT_DEFINITION('','',#557,#556);
#556=PRODUCT_DEFINITION_CONTEXT('',#563,'design');
#557=PRODUCT_DEFINITION_FORMATION_WITH_SPECIFIED_SOURCE('','',#559,
 .NOT_KNOWN.);
#558=PRODUCT_RELATED_PRODUCT_CATEGORY('','',(#559));
#559=PRODUCT('540783 FDPA-40','540783 FDPA-40','540783 FDPA-40',(#561));
#560=PRODUCT_CATEGORY('','');
#561=PRODUCT_CONTEXT('',#563,'mechanical');
#562=APPLICATION_PROTOCOL_DEFINITION('international standard',
'automotive_design',2010,#563);
#563=APPLICATION_CONTEXT(
'core data for automotive mechanical design processes');
ENDSEC;
END-ISO-10303-21;
