ISO-10303-21;
HEADER;
/* Generated by software containing ST-Developer
 * from STEP Tools, Inc. (www.steptools.com) 
 */
/* OPTION: using custom renumber hook */

FILE_DESCRIPTION(
/* description */ ('STEP AP214'),
/* implementation_level */ '2;1');

FILE_NAME(
/* name */ '542251_VAME-P1-A',
/* time_stamp */ '2024-09-16T07:28:38+02:00',
/* author */ ('License CC BY-ND 4.0'),
/* organization */ ('CADENAS'),
/* preprocessor_version */ 'ST-DEVELOPER v19.3',
/* originating_system */ 'PARTsolutions',
/* authorisation */ '  ');

FILE_SCHEMA (('AUTOMOTIVE_DESIGN {1 0 10303 214 3 1 1}'));
ENDSEC;

DATA;
#10=PROPERTY_DEFINITION_REPRESENTATION(#14,#12);
#11=PROPERTY_DEFINITION_REPRESENTATION(#15,#13);
#12=REPRESENTATION('',(#16),#733);
#13=REPRESENTATION('',(#17),#733);
#14=PROPERTY_DEFINITION('pmi validation property','',#738);
#15=PROPERTY_DEFINITION('pmi validation property','',#738);
#16=VALUE_REPRESENTATION_ITEM('number of annotations',COUNT_MEASURE(0.));
#17=VALUE_REPRESENTATION_ITEM('number of views',COUNT_MEASURE(0.));
#18=SHAPE_REPRESENTATION_RELATIONSHIP('','',#439,#19);
#19=ADVANCED_BREP_SHAPE_REPRESENTATION('',(#437),#733);
#20=CYLINDRICAL_SURFACE('',#456,5.);
#21=CYLINDRICAL_SURFACE('',#471,2.5);
#22=CYLINDRICAL_SURFACE('',#479,4.);
#23=CYLINDRICAL_SURFACE('',#480,4.);
#24=CYLINDRICAL_SURFACE('',#481,4.00000000000002);
#25=CYLINDRICAL_SURFACE('',#482,4.00000000000002);
#26=CYLINDRICAL_SURFACE('',#483,2.);
#27=CYLINDRICAL_SURFACE('',#484,2.);
#28=CYLINDRICAL_SURFACE('',#485,2.);
#29=CYLINDRICAL_SURFACE('',#486,2.);
#30=CYLINDRICAL_SURFACE('',#487,2.);
#31=CYLINDRICAL_SURFACE('',#488,2.);
#32=CYLINDRICAL_SURFACE('',#489,2.);
#33=CYLINDRICAL_SURFACE('',#490,2.);
#34=CIRCLE('',#444,5.);
#35=CIRCLE('',#445,2.5);
#36=CIRCLE('',#447,2.5);
#37=CIRCLE('',#448,5.);
#38=CIRCLE('',#450,2.);
#39=CIRCLE('',#451,2.);
#40=CIRCLE('',#452,2.);
#41=CIRCLE('',#453,2.);
#42=CIRCLE('',#454,4.00000000000002);
#43=CIRCLE('',#455,4.00000000000002);
#44=CIRCLE('',#458,2.);
#45=CIRCLE('',#459,2.);
#46=CIRCLE('',#460,2.);
#47=CIRCLE('',#461,2.);
#48=CIRCLE('',#462,4.);
#49=CIRCLE('',#463,4.);
#50=CIRCLE('',#465,2.);
#51=CIRCLE('',#466,2.);
#52=CIRCLE('',#467,2.);
#53=CIRCLE('',#468,2.);
#54=CIRCLE('',#469,4.);
#55=CIRCLE('',#470,4.);
#56=CIRCLE('',#473,2.);
#57=CIRCLE('',#474,2.);
#58=CIRCLE('',#475,2.);
#59=CIRCLE('',#476,2.);
#60=CIRCLE('',#477,4.00000000000002);
#61=CIRCLE('',#478,4.00000000000002);
#62=ORIENTED_EDGE('',*,*,#166,.F.);
#63=ORIENTED_EDGE('',*,*,#167,.F.);
#64=ORIENTED_EDGE('',*,*,#168,.T.);
#65=ORIENTED_EDGE('',*,*,#169,.T.);
#66=ORIENTED_EDGE('',*,*,#170,.T.);
#67=ORIENTED_EDGE('',*,*,#171,.T.);
#68=ORIENTED_EDGE('',*,*,#172,.F.);
#69=ORIENTED_EDGE('',*,*,#173,.F.);
#70=ORIENTED_EDGE('',*,*,#174,.T.);
#71=ORIENTED_EDGE('',*,*,#175,.T.);
#72=ORIENTED_EDGE('',*,*,#176,.T.);
#73=ORIENTED_EDGE('',*,*,#177,.T.);
#74=ORIENTED_EDGE('',*,*,#178,.F.);
#75=ORIENTED_EDGE('',*,*,#179,.T.);
#76=ORIENTED_EDGE('',*,*,#180,.F.);
#77=ORIENTED_EDGE('',*,*,#181,.T.);
#78=ORIENTED_EDGE('',*,*,#182,.F.);
#79=ORIENTED_EDGE('',*,*,#183,.F.);
#80=ORIENTED_EDGE('',*,*,#184,.F.);
#81=ORIENTED_EDGE('',*,*,#185,.T.);
#82=ORIENTED_EDGE('',*,*,#186,.F.);
#83=ORIENTED_EDGE('',*,*,#187,.T.);
#84=ORIENTED_EDGE('',*,*,#188,.F.);
#85=ORIENTED_EDGE('',*,*,#189,.F.);
#86=ORIENTED_EDGE('',*,*,#190,.T.);
#87=ORIENTED_EDGE('',*,*,#191,.T.);
#88=ORIENTED_EDGE('',*,*,#192,.T.);
#89=ORIENTED_EDGE('',*,*,#193,.T.);
#90=ORIENTED_EDGE('',*,*,#175,.F.);
#91=ORIENTED_EDGE('',*,*,#194,.F.);
#92=ORIENTED_EDGE('',*,*,#166,.T.);
#93=ORIENTED_EDGE('',*,*,#195,.F.);
#94=ORIENTED_EDGE('',*,*,#182,.T.);
#95=ORIENTED_EDGE('',*,*,#196,.F.);
#96=ORIENTED_EDGE('',*,*,#189,.T.);
#97=ORIENTED_EDGE('',*,*,#197,.F.);
#98=ORIENTED_EDGE('',*,*,#176,.F.);
#99=ORIENTED_EDGE('',*,*,#196,.T.);
#100=ORIENTED_EDGE('',*,*,#198,.T.);
#101=ORIENTED_EDGE('',*,*,#199,.T.);
#102=ORIENTED_EDGE('',*,*,#200,.T.);
#103=ORIENTED_EDGE('',*,*,#201,.T.);
#104=ORIENTED_EDGE('',*,*,#171,.F.);
#105=ORIENTED_EDGE('',*,*,#202,.F.);
#106=ORIENTED_EDGE('',*,*,#177,.F.);
#107=ORIENTED_EDGE('',*,*,#197,.T.);
#108=ORIENTED_EDGE('',*,*,#188,.T.);
#109=ORIENTED_EDGE('',*,*,#203,.F.);
#110=ORIENTED_EDGE('',*,*,#204,.F.);
#111=ORIENTED_EDGE('',*,*,#205,.F.);
#112=ORIENTED_EDGE('',*,*,#206,.F.);
#113=ORIENTED_EDGE('',*,*,#207,.F.);
#114=ORIENTED_EDGE('',*,*,#179,.F.);
#115=ORIENTED_EDGE('',*,*,#208,.T.);
#116=ORIENTED_EDGE('',*,*,#173,.T.);
#117=ORIENTED_EDGE('',*,*,#209,.T.);
#118=ORIENTED_EDGE('',*,*,#186,.T.);
#119=ORIENTED_EDGE('',*,*,#210,.F.);
#120=ORIENTED_EDGE('',*,*,#185,.F.);
#121=ORIENTED_EDGE('',*,*,#211,.F.);
#122=ORIENTED_EDGE('',*,*,#180,.T.);
#123=ORIENTED_EDGE('',*,*,#210,.T.);
#124=ORIENTED_EDGE('',*,*,#212,.F.);
#125=ORIENTED_EDGE('',*,*,#213,.F.);
#126=ORIENTED_EDGE('',*,*,#214,.F.);
#127=ORIENTED_EDGE('',*,*,#215,.F.);
#128=ORIENTED_EDGE('',*,*,#168,.F.);
#129=ORIENTED_EDGE('',*,*,#216,.T.);
#130=ORIENTED_EDGE('',*,*,#181,.F.);
#131=ORIENTED_EDGE('',*,*,#211,.T.);
#132=ORIENTED_EDGE('',*,*,#184,.T.);
#133=ORIENTED_EDGE('',*,*,#217,.T.);
#134=ORIENTED_EDGE('',*,*,#203,.T.);
#135=ORIENTED_EDGE('',*,*,#187,.F.);
#136=ORIENTED_EDGE('',*,*,#209,.F.);
#137=ORIENTED_EDGE('',*,*,#172,.T.);
#138=ORIENTED_EDGE('',*,*,#202,.T.);
#139=ORIENTED_EDGE('',*,*,#170,.F.);
#140=ORIENTED_EDGE('',*,*,#208,.F.);
#141=ORIENTED_EDGE('',*,*,#178,.T.);
#142=ORIENTED_EDGE('',*,*,#195,.T.);
#143=ORIENTED_EDGE('',*,*,#169,.F.);
#144=ORIENTED_EDGE('',*,*,#217,.F.);
#145=ORIENTED_EDGE('',*,*,#183,.T.);
#146=ORIENTED_EDGE('',*,*,#194,.T.);
#147=ORIENTED_EDGE('',*,*,#174,.F.);
#148=ORIENTED_EDGE('',*,*,#216,.F.);
#149=ORIENTED_EDGE('',*,*,#167,.T.);
#150=ORIENTED_EDGE('',*,*,#207,.T.);
#151=ORIENTED_EDGE('',*,*,#201,.F.);
#152=ORIENTED_EDGE('',*,*,#206,.T.);
#153=ORIENTED_EDGE('',*,*,#200,.F.);
#154=ORIENTED_EDGE('',*,*,#205,.T.);
#155=ORIENTED_EDGE('',*,*,#199,.F.);
#156=ORIENTED_EDGE('',*,*,#204,.T.);
#157=ORIENTED_EDGE('',*,*,#198,.F.);
#158=ORIENTED_EDGE('',*,*,#215,.T.);
#159=ORIENTED_EDGE('',*,*,#193,.F.);
#160=ORIENTED_EDGE('',*,*,#214,.T.);
#161=ORIENTED_EDGE('',*,*,#192,.F.);
#162=ORIENTED_EDGE('',*,*,#213,.T.);
#163=ORIENTED_EDGE('',*,*,#191,.F.);
#164=ORIENTED_EDGE('',*,*,#212,.T.);
#165=ORIENTED_EDGE('',*,*,#190,.F.);
#166=EDGE_CURVE('',#218,#219,#258,.T.);
#167=EDGE_CURVE('',#220,#218,#259,.T.);
#168=EDGE_CURVE('',#220,#221,#260,.T.);
#169=EDGE_CURVE('',#221,#219,#261,.T.);
#170=EDGE_CURVE('',#222,#223,#262,.T.);
#171=EDGE_CURVE('',#223,#224,#263,.T.);
#172=EDGE_CURVE('',#225,#224,#264,.T.);
#173=EDGE_CURVE('',#222,#225,#265,.T.);
#174=EDGE_CURVE('',#226,#227,#266,.T.);
#175=EDGE_CURVE('',#227,#228,#267,.T.);
#176=EDGE_CURVE('',#228,#229,#34,.T.);
#177=EDGE_CURVE('',#229,#230,#268,.T.);
#178=EDGE_CURVE('',#231,#230,#269,.T.);
#179=EDGE_CURVE('',#231,#232,#270,.T.);
#180=EDGE_CURVE('',#233,#232,#35,.T.);
#181=EDGE_CURVE('',#233,#226,#271,.T.);
#182=EDGE_CURVE('',#234,#235,#272,.T.);
#183=EDGE_CURVE('',#236,#234,#273,.T.);
#184=EDGE_CURVE('',#237,#236,#274,.T.);
#185=EDGE_CURVE('',#237,#238,#36,.T.);
#186=EDGE_CURVE('',#239,#238,#275,.T.);
#187=EDGE_CURVE('',#239,#240,#276,.T.);
#188=EDGE_CURVE('',#241,#240,#277,.T.);
#189=EDGE_CURVE('',#235,#241,#37,.T.);
#190=EDGE_CURVE('',#242,#242,#38,.T.);
#191=EDGE_CURVE('',#243,#243,#39,.T.);
#192=EDGE_CURVE('',#244,#244,#40,.T.);
#193=EDGE_CURVE('',#245,#245,#41,.T.);
#194=EDGE_CURVE('',#218,#227,#42,.T.);
#195=EDGE_CURVE('',#234,#219,#43,.T.);
#196=EDGE_CURVE('',#228,#235,#278,.T.);
#197=EDGE_CURVE('',#229,#241,#279,.T.);
#198=EDGE_CURVE('',#246,#246,#44,.T.);
#199=EDGE_CURVE('',#247,#247,#45,.T.);
#200=EDGE_CURVE('',#248,#248,#46,.T.);
#201=EDGE_CURVE('',#249,#249,#47,.T.);
#202=EDGE_CURVE('',#230,#223,#48,.T.);
#203=EDGE_CURVE('',#224,#240,#49,.T.);
#204=EDGE_CURVE('',#250,#250,#50,.T.);
#205=EDGE_CURVE('',#251,#251,#51,.T.);
#206=EDGE_CURVE('',#252,#252,#52,.T.);
#207=EDGE_CURVE('',#253,#253,#53,.T.);
#208=EDGE_CURVE('',#231,#222,#54,.T.);
#209=EDGE_CURVE('',#225,#239,#55,.T.);
#210=EDGE_CURVE('',#232,#238,#280,.T.);
#211=EDGE_CURVE('',#233,#237,#281,.T.);
#212=EDGE_CURVE('',#254,#254,#56,.T.);
#213=EDGE_CURVE('',#255,#255,#57,.T.);
#214=EDGE_CURVE('',#256,#256,#58,.T.);
#215=EDGE_CURVE('',#257,#257,#59,.T.);
#216=EDGE_CURVE('',#220,#226,#60,.T.);
#217=EDGE_CURVE('',#236,#221,#61,.T.);
#218=VERTEX_POINT('',#620);
#219=VERTEX_POINT('',#621);
#220=VERTEX_POINT('',#623);
#221=VERTEX_POINT('',#625);
#222=VERTEX_POINT('',#629);
#223=VERTEX_POINT('',#630);
#224=VERTEX_POINT('',#632);
#225=VERTEX_POINT('',#634);
#226=VERTEX_POINT('',#638);
#227=VERTEX_POINT('',#639);
#228=VERTEX_POINT('',#641);
#229=VERTEX_POINT('',#643);
#230=VERTEX_POINT('',#645);
#231=VERTEX_POINT('',#647);
#232=VERTEX_POINT('',#649);
#233=VERTEX_POINT('',#651);
#234=VERTEX_POINT('',#655);
#235=VERTEX_POINT('',#656);
#236=VERTEX_POINT('',#658);
#237=VERTEX_POINT('',#660);
#238=VERTEX_POINT('',#662);
#239=VERTEX_POINT('',#664);
#240=VERTEX_POINT('',#666);
#241=VERTEX_POINT('',#668);
#242=VERTEX_POINT('',#672);
#243=VERTEX_POINT('',#674);
#244=VERTEX_POINT('',#676);
#245=VERTEX_POINT('',#678);
#246=VERTEX_POINT('',#686);
#247=VERTEX_POINT('',#688);
#248=VERTEX_POINT('',#690);
#249=VERTEX_POINT('',#692);
#250=VERTEX_POINT('',#697);
#251=VERTEX_POINT('',#699);
#252=VERTEX_POINT('',#701);
#253=VERTEX_POINT('',#703);
#254=VERTEX_POINT('',#711);
#255=VERTEX_POINT('',#713);
#256=VERTEX_POINT('',#715);
#257=VERTEX_POINT('',#717);
#258=LINE('',#619,#282);
#259=LINE('',#622,#283);
#260=LINE('',#624,#284);
#261=LINE('',#626,#285);
#262=LINE('',#628,#286);
#263=LINE('',#631,#287);
#264=LINE('',#633,#288);
#265=LINE('',#635,#289);
#266=LINE('',#637,#290);
#267=LINE('',#640,#291);
#268=LINE('',#644,#292);
#269=LINE('',#646,#293);
#270=LINE('',#648,#294);
#271=LINE('',#652,#295);
#272=LINE('',#654,#296);
#273=LINE('',#657,#297);
#274=LINE('',#659,#298);
#275=LINE('',#663,#299);
#276=LINE('',#665,#300);
#277=LINE('',#667,#301);
#278=LINE('',#681,#302);
#279=LINE('',#683,#303);
#280=LINE('',#706,#304);
#281=LINE('',#708,#305);
#282=VECTOR('',#495,1000.);
#283=VECTOR('',#496,1000.);
#284=VECTOR('',#497,1000.);
#285=VECTOR('',#498,1000.);
#286=VECTOR('',#501,1000.);
#287=VECTOR('',#502,1000.);
#288=VECTOR('',#503,1000.);
#289=VECTOR('',#504,1000.);
#290=VECTOR('',#507,1000.);
#291=VECTOR('',#508,1000.);
#292=VECTOR('',#511,1000.);
#293=VECTOR('',#512,1000.);
#294=VECTOR('',#513,1000.);
#295=VECTOR('',#516,1000.);
#296=VECTOR('',#519,1000.);
#297=VECTOR('',#520,1000.);
#298=VECTOR('',#521,1000.);
#299=VECTOR('',#524,1000.);
#300=VECTOR('',#525,1000.);
#301=VECTOR('',#526,1000.);
#302=VECTOR('',#543,1000.);
#303=VECTOR('',#546,1000.);
#304=VECTOR('',#575,1000.);
#305=VECTOR('',#578,1000.);
#306=EDGE_LOOP('',(#62,#63,#64,#65));
#307=EDGE_LOOP('',(#66,#67,#68,#69));
#308=EDGE_LOOP('',(#70,#71,#72,#73,#74,#75,#76,#77));
#309=EDGE_LOOP('',(#78,#79,#80,#81,#82,#83,#84,#85));
#310=EDGE_LOOP('',(#86));
#311=EDGE_LOOP('',(#87));
#312=EDGE_LOOP('',(#88));
#313=EDGE_LOOP('',(#89));
#314=EDGE_LOOP('',(#90,#91,#92,#93,#94,#95));
#315=EDGE_LOOP('',(#96,#97,#98,#99));
#316=EDGE_LOOP('',(#100));
#317=EDGE_LOOP('',(#101));
#318=EDGE_LOOP('',(#102));
#319=EDGE_LOOP('',(#103));
#320=EDGE_LOOP('',(#104,#105,#106,#107,#108,#109));
#321=EDGE_LOOP('',(#110));
#322=EDGE_LOOP('',(#111));
#323=EDGE_LOOP('',(#112));
#324=EDGE_LOOP('',(#113));
#325=EDGE_LOOP('',(#114,#115,#116,#117,#118,#119));
#326=EDGE_LOOP('',(#120,#121,#122,#123));
#327=EDGE_LOOP('',(#124));
#328=EDGE_LOOP('',(#125));
#329=EDGE_LOOP('',(#126));
#330=EDGE_LOOP('',(#127));
#331=EDGE_LOOP('',(#128,#129,#130,#131,#132,#133));
#332=EDGE_LOOP('',(#134,#135,#136,#137));
#333=EDGE_LOOP('',(#138,#139,#140,#141));
#334=EDGE_LOOP('',(#142,#143,#144,#145));
#335=EDGE_LOOP('',(#146,#147,#148,#149));
#336=EDGE_LOOP('',(#150));
#337=EDGE_LOOP('',(#151));
#338=EDGE_LOOP('',(#152));
#339=EDGE_LOOP('',(#153));
#340=EDGE_LOOP('',(#154));
#341=EDGE_LOOP('',(#155));
#342=EDGE_LOOP('',(#156));
#343=EDGE_LOOP('',(#157));
#344=EDGE_LOOP('',(#158));
#345=EDGE_LOOP('',(#159));
#346=EDGE_LOOP('',(#160));
#347=EDGE_LOOP('',(#161));
#348=EDGE_LOOP('',(#162));
#349=EDGE_LOOP('',(#163));
#350=EDGE_LOOP('',(#164));
#351=EDGE_LOOP('',(#165));
#352=FACE_BOUND('',#306,.T.);
#353=FACE_BOUND('',#307,.T.);
#354=FACE_BOUND('',#308,.T.);
#355=FACE_BOUND('',#309,.T.);
#356=FACE_BOUND('',#310,.T.);
#357=FACE_BOUND('',#311,.T.);
#358=FACE_BOUND('',#312,.T.);
#359=FACE_BOUND('',#313,.T.);
#360=FACE_BOUND('',#314,.T.);
#361=FACE_BOUND('',#315,.T.);
#362=FACE_BOUND('',#316,.T.);
#363=FACE_BOUND('',#317,.T.);
#364=FACE_BOUND('',#318,.T.);
#365=FACE_BOUND('',#319,.T.);
#366=FACE_BOUND('',#320,.T.);
#367=FACE_BOUND('',#321,.T.);
#368=FACE_BOUND('',#322,.T.);
#369=FACE_BOUND('',#323,.T.);
#370=FACE_BOUND('',#324,.T.);
#371=FACE_BOUND('',#325,.T.);
#372=FACE_BOUND('',#326,.T.);
#373=FACE_BOUND('',#327,.T.);
#374=FACE_BOUND('',#328,.T.);
#375=FACE_BOUND('',#329,.T.);
#376=FACE_BOUND('',#330,.T.);
#377=FACE_BOUND('',#331,.T.);
#378=FACE_BOUND('',#332,.T.);
#379=FACE_BOUND('',#333,.T.);
#380=FACE_BOUND('',#334,.T.);
#381=FACE_BOUND('',#335,.T.);
#382=FACE_BOUND('',#336,.T.);
#383=FACE_BOUND('',#337,.T.);
#384=FACE_BOUND('',#338,.T.);
#385=FACE_BOUND('',#339,.T.);
#386=FACE_BOUND('',#340,.T.);
#387=FACE_BOUND('',#341,.T.);
#388=FACE_BOUND('',#342,.T.);
#389=FACE_BOUND('',#343,.T.);
#390=FACE_BOUND('',#344,.T.);
#391=FACE_BOUND('',#345,.T.);
#392=FACE_BOUND('',#346,.T.);
#393=FACE_BOUND('',#347,.T.);
#394=FACE_BOUND('',#348,.T.);
#395=FACE_BOUND('',#349,.T.);
#396=FACE_BOUND('',#350,.T.);
#397=FACE_BOUND('',#351,.T.);
#398=PLANE('',#441);
#399=PLANE('',#442);
#400=PLANE('',#443);
#401=PLANE('',#446);
#402=PLANE('',#449);
#403=PLANE('',#457);
#404=PLANE('',#464);
#405=PLANE('',#472);
#406=ADVANCED_FACE('',(#352),#398,.F.);
#407=ADVANCED_FACE('',(#353),#399,.F.);
#408=ADVANCED_FACE('',(#354),#400,.T.);
#409=ADVANCED_FACE('',(#355),#401,.F.);
#410=ADVANCED_FACE('',(#356,#357,#358,#359,#360),#402,.F.);
#411=ADVANCED_FACE('',(#361),#20,.T.);
#412=ADVANCED_FACE('',(#362,#363,#364,#365,#366),#403,.F.);
#413=ADVANCED_FACE('',(#367,#368,#369,#370,#371),#404,.F.);
#414=ADVANCED_FACE('',(#372),#21,.F.);
#415=ADVANCED_FACE('',(#373,#374,#375,#376,#377),#405,.F.);
#416=ADVANCED_FACE('',(#378),#22,.T.);
#417=ADVANCED_FACE('',(#379),#23,.T.);
#418=ADVANCED_FACE('',(#380),#24,.T.);
#419=ADVANCED_FACE('',(#381),#25,.T.);
#420=ADVANCED_FACE('',(#382,#383),#26,.F.);
#421=ADVANCED_FACE('',(#384,#385),#27,.F.);
#422=ADVANCED_FACE('',(#386,#387),#28,.F.);
#423=ADVANCED_FACE('',(#388,#389),#29,.F.);
#424=ADVANCED_FACE('',(#390,#391),#30,.F.);
#425=ADVANCED_FACE('',(#392,#393),#31,.F.);
#426=ADVANCED_FACE('',(#394,#395),#32,.F.);
#427=ADVANCED_FACE('',(#396,#397),#33,.F.);
#428=CLOSED_SHELL('',(#406,#407,#408,#409,#410,#411,#412,#413,#414,#415,
#416,#417,#418,#419,#420,#421,#422,#423,#424,#425,#426,#427));
#429=STYLED_ITEM('',(#430),#437);
#430=PRESENTATION_STYLE_ASSIGNMENT((#431));
#431=SURFACE_STYLE_USAGE(.BOTH.,#432);
#432=SURFACE_SIDE_STYLE('',(#433));
#433=SURFACE_STYLE_FILL_AREA(#434);
#434=FILL_AREA_STYLE('',(#435));
#435=FILL_AREA_STYLE_COLOUR('',#436);
#436=COLOUR_RGB('',0.689999997615814,0.689999997615814,0.689999997615814);
#437=MANIFOLD_SOLID_BREP('542251 VAME-P1-A',#428);
#438=SHAPE_DEFINITION_REPRESENTATION(#738,#439);
#439=SHAPE_REPRESENTATION('542251 VAME-P1-A',(#440),#733);
#440=AXIS2_PLACEMENT_3D('',#617,#491,#492);
#441=AXIS2_PLACEMENT_3D('',#618,#493,#494);
#442=AXIS2_PLACEMENT_3D('',#627,#499,#500);
#443=AXIS2_PLACEMENT_3D('',#636,#505,#506);
#444=AXIS2_PLACEMENT_3D('',#642,#509,#510);
#445=AXIS2_PLACEMENT_3D('',#650,#514,#515);
#446=AXIS2_PLACEMENT_3D('',#653,#517,#518);
#447=AXIS2_PLACEMENT_3D('',#661,#522,#523);
#448=AXIS2_PLACEMENT_3D('',#669,#527,#528);
#449=AXIS2_PLACEMENT_3D('',#670,#529,#530);
#450=AXIS2_PLACEMENT_3D('',#671,#531,#532);
#451=AXIS2_PLACEMENT_3D('',#673,#533,#534);
#452=AXIS2_PLACEMENT_3D('',#675,#535,#536);
#453=AXIS2_PLACEMENT_3D('',#677,#537,#538);
#454=AXIS2_PLACEMENT_3D('',#679,#539,#540);
#455=AXIS2_PLACEMENT_3D('',#680,#541,#542);
#456=AXIS2_PLACEMENT_3D('',#682,#544,#545);
#457=AXIS2_PLACEMENT_3D('',#684,#547,#548);
#458=AXIS2_PLACEMENT_3D('',#685,#549,#550);
#459=AXIS2_PLACEMENT_3D('',#687,#551,#552);
#460=AXIS2_PLACEMENT_3D('',#689,#553,#554);
#461=AXIS2_PLACEMENT_3D('',#691,#555,#556);
#462=AXIS2_PLACEMENT_3D('',#693,#557,#558);
#463=AXIS2_PLACEMENT_3D('',#694,#559,#560);
#464=AXIS2_PLACEMENT_3D('',#695,#561,#562);
#465=AXIS2_PLACEMENT_3D('',#696,#563,#564);
#466=AXIS2_PLACEMENT_3D('',#698,#565,#566);
#467=AXIS2_PLACEMENT_3D('',#700,#567,#568);
#468=AXIS2_PLACEMENT_3D('',#702,#569,#570);
#469=AXIS2_PLACEMENT_3D('',#704,#571,#572);
#470=AXIS2_PLACEMENT_3D('',#705,#573,#574);
#471=AXIS2_PLACEMENT_3D('',#707,#576,#577);
#472=AXIS2_PLACEMENT_3D('',#709,#579,#580);
#473=AXIS2_PLACEMENT_3D('',#710,#581,#582);
#474=AXIS2_PLACEMENT_3D('',#712,#583,#584);
#475=AXIS2_PLACEMENT_3D('',#714,#585,#586);
#476=AXIS2_PLACEMENT_3D('',#716,#587,#588);
#477=AXIS2_PLACEMENT_3D('',#718,#589,#590);
#478=AXIS2_PLACEMENT_3D('',#719,#591,#592);
#479=AXIS2_PLACEMENT_3D('',#720,#593,#594);
#480=AXIS2_PLACEMENT_3D('',#721,#595,#596);
#481=AXIS2_PLACEMENT_3D('',#722,#597,#598);
#482=AXIS2_PLACEMENT_3D('',#723,#599,#600);
#483=AXIS2_PLACEMENT_3D('',#724,#601,#602);
#484=AXIS2_PLACEMENT_3D('',#725,#603,#604);
#485=AXIS2_PLACEMENT_3D('',#726,#605,#606);
#486=AXIS2_PLACEMENT_3D('',#727,#607,#608);
#487=AXIS2_PLACEMENT_3D('',#728,#609,#610);
#488=AXIS2_PLACEMENT_3D('',#729,#611,#612);
#489=AXIS2_PLACEMENT_3D('',#730,#613,#614);
#490=AXIS2_PLACEMENT_3D('',#731,#615,#616);
#491=DIRECTION('',(0.,0.,1.));
#492=DIRECTION('',(1.,0.,0.));
#493=DIRECTION('',(0.,-1.,0.));
#494=DIRECTION('',(0.,0.,-1.));
#495=DIRECTION('',(0.,0.,-1.));
#496=DIRECTION('',(-1.,0.,0.));
#497=DIRECTION('',(0.,0.,-1.));
#498=DIRECTION('',(-1.,0.,0.));
#499=DIRECTION('',(-1.,0.,0.));
#500=DIRECTION('',(0.,0.,1.));
#501=DIRECTION('',(0.,-1.,0.));
#502=DIRECTION('',(0.,0.,-1.));
#503=DIRECTION('',(0.,-1.,0.));
#504=DIRECTION('',(0.,0.,-1.));
#505=DIRECTION('',(0.,0.,1.));
#506=DIRECTION('',(1.,0.,0.));
#507=DIRECTION('',(-1.,0.,0.));
#508=DIRECTION('',(0.,-1.,0.));
#509=DIRECTION('',(0.,0.,1.));
#510=DIRECTION('',(1.,0.,0.));
#511=DIRECTION('',(1.,0.,0.));
#512=DIRECTION('',(0.,-1.,0.));
#513=DIRECTION('',(-1.,0.,0.));
#514=DIRECTION('',(0.,0.,1.));
#515=DIRECTION('',(1.,0.,0.));
#516=DIRECTION('',(0.,1.,0.));
#517=DIRECTION('',(0.,0.,1.));
#518=DIRECTION('',(1.,0.,0.));
#519=DIRECTION('',(0.,-1.,0.));
#520=DIRECTION('',(-1.,0.,0.));
#521=DIRECTION('',(0.,1.,0.));
#522=DIRECTION('',(0.,0.,1.));
#523=DIRECTION('',(1.,0.,0.));
#524=DIRECTION('',(-1.,0.,0.));
#525=DIRECTION('',(0.,-1.,0.));
#526=DIRECTION('',(1.,0.,0.));
#527=DIRECTION('',(0.,0.,1.));
#528=DIRECTION('',(1.,0.,0.));
#529=DIRECTION('',(1.,0.,0.));
#530=DIRECTION('',(0.,0.,-1.));
#531=DIRECTION('',(1.,0.,0.));
#532=DIRECTION('',(0.,0.,-1.));
#533=DIRECTION('',(1.,0.,0.));
#534=DIRECTION('',(0.,0.,-1.));
#535=DIRECTION('',(1.,0.,0.));
#536=DIRECTION('',(0.,0.,-1.));
#537=DIRECTION('',(1.,0.,0.));
#538=DIRECTION('',(0.,0.,-1.));
#539=DIRECTION('',(1.,0.,0.));
#540=DIRECTION('',(0.,0.,-1.));
#541=DIRECTION('',(1.,0.,0.));
#542=DIRECTION('',(0.,0.,-1.));
#543=DIRECTION('',(0.,0.,-1.));
#544=DIRECTION('',(0.,0.,-1.));
#545=DIRECTION('',(-1.,0.,0.));
#546=DIRECTION('',(0.,0.,-1.));
#547=DIRECTION('',(0.,1.,0.));
#548=DIRECTION('',(0.,0.,1.));
#549=DIRECTION('',(0.,1.,0.));
#550=DIRECTION('',(1.,0.,0.));
#551=DIRECTION('',(0.,1.,0.));
#552=DIRECTION('',(1.,0.,0.));
#553=DIRECTION('',(0.,1.,0.));
#554=DIRECTION('',(1.,0.,0.));
#555=DIRECTION('',(0.,1.,0.));
#556=DIRECTION('',(1.,0.,0.));
#557=DIRECTION('',(0.,1.,0.));
#558=DIRECTION('',(1.,0.,0.));
#559=DIRECTION('',(0.,1.,0.));
#560=DIRECTION('',(1.,0.,0.));
#561=DIRECTION('',(0.,-1.,0.));
#562=DIRECTION('',(0.,0.,-1.));
#563=DIRECTION('',(0.,1.,0.));
#564=DIRECTION('',(1.,0.,0.));
#565=DIRECTION('',(0.,1.,0.));
#566=DIRECTION('',(1.,0.,0.));
#567=DIRECTION('',(0.,1.,0.));
#568=DIRECTION('',(1.,0.,0.));
#569=DIRECTION('',(0.,1.,0.));
#570=DIRECTION('',(1.,0.,0.));
#571=DIRECTION('',(0.,1.,0.));
#572=DIRECTION('',(1.,0.,0.));
#573=DIRECTION('',(0.,1.,0.));
#574=DIRECTION('',(1.,0.,0.));
#575=DIRECTION('',(0.,0.,-1.));
#576=DIRECTION('',(0.,0.,-1.));
#577=DIRECTION('',(-1.,0.,0.));
#578=DIRECTION('',(0.,0.,-1.));
#579=DIRECTION('',(-1.,0.,0.));
#580=DIRECTION('',(0.,0.,1.));
#581=DIRECTION('',(1.,0.,0.));
#582=DIRECTION('',(0.,0.,-1.));
#583=DIRECTION('',(1.,0.,0.));
#584=DIRECTION('',(0.,0.,-1.));
#585=DIRECTION('',(1.,0.,0.));
#586=DIRECTION('',(0.,0.,-1.));
#587=DIRECTION('',(1.,0.,0.));
#588=DIRECTION('',(0.,0.,-1.));
#589=DIRECTION('',(1.,0.,0.));
#590=DIRECTION('',(0.,0.,-1.));
#591=DIRECTION('',(1.,0.,0.));
#592=DIRECTION('',(0.,0.,-1.));
#593=DIRECTION('',(0.,-1.,0.));
#594=DIRECTION('',(0.,0.,-1.));
#595=DIRECTION('',(0.,-1.,0.));
#596=DIRECTION('',(0.,0.,-1.));
#597=DIRECTION('',(-1.,0.,0.));
#598=DIRECTION('',(0.,0.,1.));
#599=DIRECTION('',(-1.,0.,0.));
#600=DIRECTION('',(0.,0.,1.));
#601=DIRECTION('',(0.,-1.,0.));
#602=DIRECTION('',(0.,0.,-1.));
#603=DIRECTION('',(0.,-1.,0.));
#604=DIRECTION('',(0.,0.,-1.));
#605=DIRECTION('',(0.,-1.,0.));
#606=DIRECTION('',(0.,0.,-1.));
#607=DIRECTION('',(0.,-1.,0.));
#608=DIRECTION('',(0.,0.,-1.));
#609=DIRECTION('',(-1.,0.,0.));
#610=DIRECTION('',(0.,0.,1.));
#611=DIRECTION('',(-1.,0.,0.));
#612=DIRECTION('',(0.,0.,1.));
#613=DIRECTION('',(-1.,0.,0.));
#614=DIRECTION('',(0.,0.,1.));
#615=DIRECTION('',(-1.,0.,0.));
#616=DIRECTION('',(0.,0.,1.));
#617=CARTESIAN_POINT('',(0.,0.,0.));
#618=CARTESIAN_POINT('',(3.,70.,27.5));
#619=CARTESIAN_POINT('',(0.,70.,27.5));
#620=CARTESIAN_POINT('',(0.,70.,23.5));
#621=CARTESIAN_POINT('',(0.,70.,-23.5));
#622=CARTESIAN_POINT('',(3.,70.,23.5));
#623=CARTESIAN_POINT('',(3.,70.,23.5));
#624=CARTESIAN_POINT('',(3.,70.,27.5));
#625=CARTESIAN_POINT('',(3.,70.,-23.5));
#626=CARTESIAN_POINT('',(3.,70.,-23.5));
#627=CARTESIAN_POINT('',(41.,0.,27.5));
#628=CARTESIAN_POINT('',(41.,3.,23.5));
#629=CARTESIAN_POINT('',(41.,3.,23.5));
#630=CARTESIAN_POINT('',(41.,0.,23.5));
#631=CARTESIAN_POINT('',(41.,0.,27.5));
#632=CARTESIAN_POINT('',(41.,0.,-23.5));
#633=CARTESIAN_POINT('',(41.,3.,-23.5));
#634=CARTESIAN_POINT('',(41.,3.,-23.5));
#635=CARTESIAN_POINT('',(41.,3.,27.5));
#636=CARTESIAN_POINT('',(5.,5.,27.5));
#637=CARTESIAN_POINT('',(3.,66.,27.5));
#638=CARTESIAN_POINT('',(3.,66.,27.5));
#639=CARTESIAN_POINT('',(0.,66.,27.5));
#640=CARTESIAN_POINT('',(0.,70.,27.5));
#641=CARTESIAN_POINT('',(0.,5.,27.5));
#642=CARTESIAN_POINT('',(5.,5.,27.5));
#643=CARTESIAN_POINT('',(5.,-8.67361737988404E-16,27.5));
#644=CARTESIAN_POINT('',(5.,0.,27.5));
#645=CARTESIAN_POINT('',(37.,0.,27.5));
#646=CARTESIAN_POINT('',(37.,3.,27.5));
#647=CARTESIAN_POINT('',(37.,3.,27.5));
#648=CARTESIAN_POINT('',(41.,3.,27.5));
#649=CARTESIAN_POINT('',(5.5,3.,27.5));
#650=CARTESIAN_POINT('',(5.5,5.5,27.5));
#651=CARTESIAN_POINT('',(3.,5.5,27.5));
#652=CARTESIAN_POINT('',(3.,5.5,27.5));
#653=CARTESIAN_POINT('',(5.,5.,-27.5));
#654=CARTESIAN_POINT('',(0.,70.,-27.5));
#655=CARTESIAN_POINT('',(0.,66.,-27.5));
#656=CARTESIAN_POINT('',(0.,5.,-27.5));
#657=CARTESIAN_POINT('',(3.,66.,-27.5));
#658=CARTESIAN_POINT('',(3.,66.,-27.5));
#659=CARTESIAN_POINT('',(3.,5.5,-27.5));
#660=CARTESIAN_POINT('',(3.,5.5,-27.5));
#661=CARTESIAN_POINT('',(5.5,5.5,-27.5));
#662=CARTESIAN_POINT('',(5.5,3.,-27.5));
#663=CARTESIAN_POINT('',(41.,3.,-27.5));
#664=CARTESIAN_POINT('',(37.,3.,-27.5));
#665=CARTESIAN_POINT('',(37.,3.,-27.5));
#666=CARTESIAN_POINT('',(37.,0.,-27.5));
#667=CARTESIAN_POINT('',(5.,0.,-27.5));
#668=CARTESIAN_POINT('',(5.,-8.67361737988404E-16,-27.5));
#669=CARTESIAN_POINT('',(5.,5.,-27.5));
#670=CARTESIAN_POINT('',(0.,70.,27.5));
#671=CARTESIAN_POINT('',(0.,35.8,15.75));
#672=CARTESIAN_POINT('',(0.,35.8,13.75));
#673=CARTESIAN_POINT('',(0.,35.8,-15.75));
#674=CARTESIAN_POINT('',(0.,35.8,-17.75));
#675=CARTESIAN_POINT('',(0.,62.3,15.75));
#676=CARTESIAN_POINT('',(0.,62.3,13.75));
#677=CARTESIAN_POINT('',(0.,62.3,-15.75));
#678=CARTESIAN_POINT('',(0.,62.3,-17.75));
#679=CARTESIAN_POINT('',(0.,66.,23.5));
#680=CARTESIAN_POINT('',(0.,66.,-23.5));
#681=CARTESIAN_POINT('',(0.,5.,27.5));
#682=CARTESIAN_POINT('',(5.,5.,27.5));
#683=CARTESIAN_POINT('',(5.,-8.67361737988404E-16,27.5));
#684=CARTESIAN_POINT('',(5.,0.,27.5));
#685=CARTESIAN_POINT('',(11.,0.,-22.5));
#686=CARTESIAN_POINT('',(13.,0.,-22.5));
#687=CARTESIAN_POINT('',(11.,0.,22.5));
#688=CARTESIAN_POINT('',(13.,0.,22.5));
#689=CARTESIAN_POINT('',(33.,0.,22.5));
#690=CARTESIAN_POINT('',(35.,0.,22.5));
#691=CARTESIAN_POINT('',(33.,0.,-22.5));
#692=CARTESIAN_POINT('',(35.,0.,-22.5));
#693=CARTESIAN_POINT('',(37.,0.,23.5));
#694=CARTESIAN_POINT('',(37.,0.,-23.5));
#695=CARTESIAN_POINT('',(41.,3.,27.5));
#696=CARTESIAN_POINT('',(11.,3.,-22.5));
#697=CARTESIAN_POINT('',(13.,3.,-22.5));
#698=CARTESIAN_POINT('',(11.,3.,22.5));
#699=CARTESIAN_POINT('',(13.,3.,22.5));
#700=CARTESIAN_POINT('',(33.,3.,22.5));
#701=CARTESIAN_POINT('',(35.,3.,22.5));
#702=CARTESIAN_POINT('',(33.,3.,-22.5));
#703=CARTESIAN_POINT('',(35.,3.,-22.5));
#704=CARTESIAN_POINT('',(37.,3.,23.5));
#705=CARTESIAN_POINT('',(37.,3.,-23.5));
#706=CARTESIAN_POINT('',(5.5,3.,27.5));
#707=CARTESIAN_POINT('',(5.5,5.5,27.5));
#708=CARTESIAN_POINT('',(3.,5.5,27.5));
#709=CARTESIAN_POINT('',(3.,5.5,27.5));
#710=CARTESIAN_POINT('',(3.,35.8,15.75));
#711=CARTESIAN_POINT('',(3.,35.8,13.75));
#712=CARTESIAN_POINT('',(3.,35.8,-15.75));
#713=CARTESIAN_POINT('',(3.,35.8,-17.75));
#714=CARTESIAN_POINT('',(3.,62.3,15.75));
#715=CARTESIAN_POINT('',(3.,62.3,13.75));
#716=CARTESIAN_POINT('',(3.,62.3,-15.75));
#717=CARTESIAN_POINT('',(3.,62.3,-17.75));
#718=CARTESIAN_POINT('',(3.,66.,23.5));
#719=CARTESIAN_POINT('',(3.,66.,-23.5));
#720=CARTESIAN_POINT('',(37.,3.,-23.5));
#721=CARTESIAN_POINT('',(37.,3.,23.5));
#722=CARTESIAN_POINT('',(3.,66.,-23.5));
#723=CARTESIAN_POINT('',(3.,66.,23.5));
#724=CARTESIAN_POINT('',(33.,3.,-22.5));
#725=CARTESIAN_POINT('',(33.,3.,22.5));
#726=CARTESIAN_POINT('',(11.,3.,22.5));
#727=CARTESIAN_POINT('',(11.,3.,-22.5));
#728=CARTESIAN_POINT('',(3.,62.3,-15.75));
#729=CARTESIAN_POINT('',(3.,62.3,15.75));
#730=CARTESIAN_POINT('',(3.,35.8,-15.75));
#731=CARTESIAN_POINT('',(3.,35.8,15.75));
#732=MECHANICAL_DESIGN_GEOMETRIC_PRESENTATION_REPRESENTATION('',(#429),
#733);
#733=(
GEOMETRIC_REPRESENTATION_CONTEXT(3)
GLOBAL_UNCERTAINTY_ASSIGNED_CONTEXT((#734))
GLOBAL_UNIT_ASSIGNED_CONTEXT((#737,#736,#735))
REPRESENTATION_CONTEXT('542251 VAME-P1-A','TOP_LEVEL_ASSEMBLY_PART')
);
#734=UNCERTAINTY_MEASURE_WITH_UNIT(LENGTH_MEASURE(0.005),#737,
'DISTANCE_ACCURACY_VALUE','Maximum Tolerance applied to model');
#735=(
NAMED_UNIT(*)
SI_UNIT($,.STERADIAN.)
SOLID_ANGLE_UNIT()
);
#736=(
NAMED_UNIT(*)
PLANE_ANGLE_UNIT()
SI_UNIT($,.RADIAN.)
);
#737=(
LENGTH_UNIT()
NAMED_UNIT(*)
SI_UNIT(.MILLI.,.METRE.)
);
#738=PRODUCT_DEFINITION_SHAPE('','',#739);
#739=PRODUCT_DEFINITION('','',#741,#740);
#740=PRODUCT_DEFINITION_CONTEXT('',#747,'design');
#741=PRODUCT_DEFINITION_FORMATION_WITH_SPECIFIED_SOURCE('','',#743,
 .NOT_KNOWN.);
#742=PRODUCT_RELATED_PRODUCT_CATEGORY('','',(#743));
#743=PRODUCT('542251 VAME-P1-A','542251 VAME-P1-A','542251 VAME-P1-A',(#745));
#744=PRODUCT_CATEGORY('','');
#745=PRODUCT_CONTEXT('',#747,'mechanical');
#746=APPLICATION_PROTOCOL_DEFINITION('international standard',
'automotive_design',2010,#747);
#747=APPLICATION_CONTEXT(
'core data for automotive mechanical design processes');
ENDSEC;
END-ISO-10303-21;
