ISO-10303-21;
HEADER;
/* Generated by software containing ST-Developer
 * from STEP Tools, Inc. (www.steptools.com) 
 */
/* OPTION: using custom renumber hook */

FILE_DESCRIPTION(
/* description */ ('STEP AP214'),
/* implementation_level */ '2;1');

FILE_NAME(
/* name */ '543714_DAMD-P-M5-10-R1',
/* time_stamp */ '2024-08-13T14:31:04+02:00',
/* author */ ('License CC BY-ND 4.0'),
/* organization */ ('CADENAS'),
/* preprocessor_version */ 'ST-DEVELOPER v19.3',
/* originating_system */ 'PARTsolutions',
/* authorisation */ '  ');

FILE_SCHEMA (('AUTOMOTIVE_DESIGN {1 0 10303 214 3 1 1}'));
ENDSEC;

DATA;
#10=PROPERTY_DEFINITION_REPRESENTATION(#14,#12);
#11=PROPERTY_DEFINITION_REPRESENTATION(#15,#13);
#12=REPRESENTATION('',(#16),#563);
#13=REPRESENTATION('',(#17),#563);
#14=PROPERTY_DEFINITION('pmi validation property','',#572);
#15=PROPERTY_DEFINITION('pmi validation property','',#572);
#16=VALUE_REPRESENTATION_ITEM('number of annotations',COUNT_MEASURE(0.));
#17=VALUE_REPRESENTATION_ITEM('number of views',COUNT_MEASURE(0.));
#18=CONTEXT_DEPENDENT_SHAPE_REPRESENTATION(#34,#574);
#19=CONTEXT_DEPENDENT_SHAPE_REPRESENTATION(#35,#575);
#20=CONTEXT_DEPENDENT_SHAPE_REPRESENTATION(#36,#576);
#21=CONTEXT_DEPENDENT_SHAPE_REPRESENTATION(#37,#577);
#22=CONTEXT_DEPENDENT_SHAPE_REPRESENTATION(#38,#579);
#23=CONTEXT_DEPENDENT_SHAPE_REPRESENTATION(#39,#580);
#24=CONTEXT_DEPENDENT_SHAPE_REPRESENTATION(#40,#581);
#25=CONTEXT_DEPENDENT_SHAPE_REPRESENTATION(#41,#582);
#26=NEXT_ASSEMBLY_USAGE_OCCURRENCE('NAUO1','669918 CR-M5x10-A2-70',
'669918 CR-M5x10-A2-70',#583,#584,'');
#27=NEXT_ASSEMBLY_USAGE_OCCURRENCE('NAUO2','669918 CR-M5x10-A2-70',
'669918 CR-M5x10-A2-70',#583,#584,'');
#28=NEXT_ASSEMBLY_USAGE_OCCURRENCE('NAUO3','669918 CR-M5x10-A2-70',
'669918 CR-M5x10-A2-70',#583,#584,'');
#29=NEXT_ASSEMBLY_USAGE_OCCURRENCE('NAUO4','669918 CR-M5x10-A2-70',
'669918 CR-M5x10-A2-70',#583,#584,'');
#30=NEXT_ASSEMBLY_USAGE_OCCURRENCE('NAUO5','707841 CNC-20/25',
'707841 CNC-20/25',#583,#585,'');
#31=NEXT_ASSEMBLY_USAGE_OCCURRENCE('NAUO6','707841 CNC-20/25',
'707841 CNC-20/25',#583,#585,'');
#32=NEXT_ASSEMBLY_USAGE_OCCURRENCE('NAUO7','707841 CNC-20/25',
'707841 CNC-20/25',#583,#585,'');
#33=NEXT_ASSEMBLY_USAGE_OCCURRENCE('NAUO8','707841 CNC-20/25',
'707841 CNC-20/25',#583,#585,'');
#34=(
REPRESENTATION_RELATIONSHIP(' ',' ',#327,#326)
REPRESENTATION_RELATIONSHIP_WITH_TRANSFORMATION(#42)
SHAPE_REPRESENTATION_RELATIONSHIP()
);
#35=(
REPRESENTATION_RELATIONSHIP(' ',' ',#327,#326)
REPRESENTATION_RELATIONSHIP_WITH_TRANSFORMATION(#43)
SHAPE_REPRESENTATION_RELATIONSHIP()
);
#36=(
REPRESENTATION_RELATIONSHIP(' ',' ',#327,#326)
REPRESENTATION_RELATIONSHIP_WITH_TRANSFORMATION(#44)
SHAPE_REPRESENTATION_RELATIONSHIP()
);
#37=(
REPRESENTATION_RELATIONSHIP(' ',' ',#327,#326)
REPRESENTATION_RELATIONSHIP_WITH_TRANSFORMATION(#45)
SHAPE_REPRESENTATION_RELATIONSHIP()
);
#38=(
REPRESENTATION_RELATIONSHIP(' ',' ',#328,#326)
REPRESENTATION_RELATIONSHIP_WITH_TRANSFORMATION(#46)
SHAPE_REPRESENTATION_RELATIONSHIP()
);
#39=(
REPRESENTATION_RELATIONSHIP(' ',' ',#328,#326)
REPRESENTATION_RELATIONSHIP_WITH_TRANSFORMATION(#47)
SHAPE_REPRESENTATION_RELATIONSHIP()
);
#40=(
REPRESENTATION_RELATIONSHIP(' ',' ',#328,#326)
REPRESENTATION_RELATIONSHIP_WITH_TRANSFORMATION(#48)
SHAPE_REPRESENTATION_RELATIONSHIP()
);
#41=(
REPRESENTATION_RELATIONSHIP(' ',' ',#328,#326)
REPRESENTATION_RELATIONSHIP_WITH_TRANSFORMATION(#49)
SHAPE_REPRESENTATION_RELATIONSHIP()
);
#42=ITEM_DEFINED_TRANSFORMATION(' ',' ',#329,#348);
#43=ITEM_DEFINED_TRANSFORMATION(' ',' ',#329,#349);
#44=ITEM_DEFINED_TRANSFORMATION(' ',' ',#329,#350);
#45=ITEM_DEFINED_TRANSFORMATION(' ',' ',#329,#351);
#46=ITEM_DEFINED_TRANSFORMATION(' ',' ',#329,#364);
#47=ITEM_DEFINED_TRANSFORMATION(' ',' ',#329,#365);
#48=ITEM_DEFINED_TRANSFORMATION(' ',' ',#329,#366);
#49=ITEM_DEFINED_TRANSFORMATION(' ',' ',#329,#367);
#50=SHAPE_REPRESENTATION_RELATIONSHIP('','',#327,#52);
#51=SHAPE_REPRESENTATION_RELATIONSHIP('','',#328,#53);
#52=ADVANCED_BREP_SHAPE_REPRESENTATION('',(#321),#564);
#53=ADVANCED_BREP_SHAPE_REPRESENTATION('',(#322),#565);
#54=LINE('',#512,#66);
#55=LINE('',#514,#67);
#56=LINE('',#516,#68);
#57=LINE('',#518,#69);
#58=LINE('',#520,#70);
#59=LINE('',#522,#71);
#60=LINE('',#524,#72);
#61=LINE('',#526,#73);
#62=LINE('',#528,#74);
#63=LINE('',#530,#75);
#64=LINE('',#532,#76);
#65=LINE('',#534,#77);
#66=VECTOR('',#394,1000.);
#67=VECTOR('',#395,1000.);
#68=VECTOR('',#396,1000.);
#69=VECTOR('',#399,1000.);
#70=VECTOR('',#400,1000.);
#71=VECTOR('',#403,1000.);
#72=VECTOR('',#404,1000.);
#73=VECTOR('',#407,1000.);
#74=VECTOR('',#408,1000.);
#75=VECTOR('',#411,1000.);
#76=VECTOR('',#412,1000.);
#77=VECTOR('',#415,1000.);
#78=CYLINDRICAL_SURFACE('',#336,2.5);
#79=CYLINDRICAL_SURFACE('',#357,2.65);
#80=CYLINDRICAL_SURFACE('',#361,6.7);
#81=PLANE('',#334);
#82=PLANE('',#340);
#83=PLANE('',#341);
#84=PLANE('',#342);
#85=PLANE('',#343);
#86=PLANE('',#344);
#87=PLANE('',#345);
#88=PLANE('',#346);
#89=PLANE('',#347);
#90=PLANE('',#352);
#91=PLANE('',#359);
#92=TOROIDAL_SURFACE('',#332,5.4,0.5);
#93=B_SPLINE_CURVE_WITH_KNOTS('',3,(#462,#463,#464,#465,#466),
 .UNSPECIFIED.,.F.,.F.,(4,1,4),(2.30940107675613E-7,0.00230963201686618,
0.00461903309362468),.UNSPECIFIED.);
#94=B_SPLINE_CURVE_WITH_KNOTS('',3,(#469,#470,#471,#472,#473),
 .UNSPECIFIED.,.F.,.F.,(4,1,4),(0.00522197549750578,0.00754175871257024,
0.00986154192763471),.UNSPECIFIED.);
#95=B_SPLINE_CURVE_WITH_KNOTS('',3,(#475,#476,#477,#478,#479),
 .UNSPECIFIED.,.F.,.F.,(4,1,4),(2.30940107675419E-7,0.00230963201686618,
0.00461903309362468),.UNSPECIFIED.);
#96=B_SPLINE_CURVE_WITH_KNOTS('',3,(#481,#482,#483,#484,#485),
 .UNSPECIFIED.,.F.,.F.,(4,1,4),(2.30940107675613E-7,0.00230963201686618,
0.00461903309362468),.UNSPECIFIED.);
#97=B_SPLINE_CURVE_WITH_KNOTS('',3,(#487,#488,#489,#490,#491),
 .UNSPECIFIED.,.F.,.F.,(4,1,4),(0.00522197549750578,0.00754175871257024,
0.00986154192763471),.UNSPECIFIED.);
#98=B_SPLINE_CURVE_WITH_KNOTS('',3,(#493,#494,#495,#496,#497),
 .UNSPECIFIED.,.F.,.F.,(4,1,4),(2.30940107675419E-7,0.00230963201686618,
0.00461903309362468),.UNSPECIFIED.);
#99=ORIENTED_EDGE('',*,*,#157,.F.);
#100=ORIENTED_EDGE('',*,*,#158,.T.);
#101=ORIENTED_EDGE('',*,*,#159,.T.);
#102=ORIENTED_EDGE('',*,*,#160,.T.);
#103=ORIENTED_EDGE('',*,*,#161,.T.);
#104=ORIENTED_EDGE('',*,*,#162,.T.);
#105=ORIENTED_EDGE('',*,*,#163,.T.);
#106=ORIENTED_EDGE('',*,*,#157,.T.);
#107=ORIENTED_EDGE('',*,*,#164,.F.);
#108=ORIENTED_EDGE('',*,*,#165,.F.);
#109=ORIENTED_EDGE('',*,*,#164,.T.);
#110=ORIENTED_EDGE('',*,*,#166,.F.);
#111=ORIENTED_EDGE('',*,*,#165,.T.);
#112=ORIENTED_EDGE('',*,*,#167,.F.);
#113=ORIENTED_EDGE('',*,*,#166,.T.);
#114=ORIENTED_EDGE('',*,*,#167,.T.);
#115=ORIENTED_EDGE('',*,*,#159,.F.);
#116=ORIENTED_EDGE('',*,*,#168,.T.);
#117=ORIENTED_EDGE('',*,*,#169,.F.);
#118=ORIENTED_EDGE('',*,*,#170,.F.);
#119=ORIENTED_EDGE('',*,*,#158,.F.);
#120=ORIENTED_EDGE('',*,*,#171,.T.);
#121=ORIENTED_EDGE('',*,*,#172,.F.);
#122=ORIENTED_EDGE('',*,*,#168,.F.);
#123=ORIENTED_EDGE('',*,*,#163,.F.);
#124=ORIENTED_EDGE('',*,*,#173,.T.);
#125=ORIENTED_EDGE('',*,*,#174,.F.);
#126=ORIENTED_EDGE('',*,*,#171,.F.);
#127=ORIENTED_EDGE('',*,*,#162,.F.);
#128=ORIENTED_EDGE('',*,*,#175,.T.);
#129=ORIENTED_EDGE('',*,*,#176,.F.);
#130=ORIENTED_EDGE('',*,*,#173,.F.);
#131=ORIENTED_EDGE('',*,*,#161,.F.);
#132=ORIENTED_EDGE('',*,*,#177,.T.);
#133=ORIENTED_EDGE('',*,*,#178,.F.);
#134=ORIENTED_EDGE('',*,*,#175,.F.);
#135=ORIENTED_EDGE('',*,*,#160,.F.);
#136=ORIENTED_EDGE('',*,*,#170,.T.);
#137=ORIENTED_EDGE('',*,*,#179,.F.);
#138=ORIENTED_EDGE('',*,*,#177,.F.);
#139=ORIENTED_EDGE('',*,*,#169,.T.);
#140=ORIENTED_EDGE('',*,*,#172,.T.);
#141=ORIENTED_EDGE('',*,*,#174,.T.);
#142=ORIENTED_EDGE('',*,*,#176,.T.);
#143=ORIENTED_EDGE('',*,*,#178,.T.);
#144=ORIENTED_EDGE('',*,*,#179,.T.);
#145=ORIENTED_EDGE('',*,*,#180,.T.);
#146=ORIENTED_EDGE('',*,*,#181,.F.);
#147=ORIENTED_EDGE('',*,*,#182,.T.);
#148=ORIENTED_EDGE('',*,*,#180,.F.);
#149=ORIENTED_EDGE('',*,*,#183,.T.);
#150=ORIENTED_EDGE('',*,*,#182,.F.);
#151=ORIENTED_EDGE('',*,*,#184,.T.);
#152=ORIENTED_EDGE('',*,*,#183,.F.);
#153=ORIENTED_EDGE('',*,*,#185,.T.);
#154=ORIENTED_EDGE('',*,*,#184,.F.);
#155=ORIENTED_EDGE('',*,*,#181,.T.);
#156=ORIENTED_EDGE('',*,*,#185,.F.);
#157=EDGE_CURVE('',#186,#186,#209,.T.);
#158=EDGE_CURVE('',#187,#188,#93,.T.);
#159=EDGE_CURVE('',#188,#189,#94,.T.);
#160=EDGE_CURVE('',#189,#190,#95,.T.);
#161=EDGE_CURVE('',#190,#191,#96,.T.);
#162=EDGE_CURVE('',#191,#192,#97,.T.);
#163=EDGE_CURVE('',#192,#187,#98,.T.);
#164=EDGE_CURVE('',#193,#193,#210,.T.);
#165=EDGE_CURVE('',#194,#194,#211,.T.);
#166=EDGE_CURVE('',#195,#195,#212,.T.);
#167=EDGE_CURVE('',#196,#196,#213,.T.);
#168=EDGE_CURVE('',#188,#197,#54,.T.);
#169=EDGE_CURVE('',#198,#197,#55,.T.);
#170=EDGE_CURVE('',#189,#198,#56,.T.);
#171=EDGE_CURVE('',#187,#199,#57,.T.);
#172=EDGE_CURVE('',#197,#199,#58,.T.);
#173=EDGE_CURVE('',#192,#200,#59,.T.);
#174=EDGE_CURVE('',#199,#200,#60,.T.);
#175=EDGE_CURVE('',#191,#201,#61,.T.);
#176=EDGE_CURVE('',#200,#201,#62,.T.);
#177=EDGE_CURVE('',#190,#202,#63,.T.);
#178=EDGE_CURVE('',#201,#202,#64,.T.);
#179=EDGE_CURVE('',#202,#198,#65,.T.);
#180=EDGE_CURVE('',#203,#203,#214,.T.);
#181=EDGE_CURVE('',#204,#204,#215,.T.);
#182=EDGE_CURVE('',#205,#205,#216,.T.);
#183=EDGE_CURVE('',#206,#206,#217,.T.);
#184=EDGE_CURVE('',#207,#207,#218,.T.);
#185=EDGE_CURVE('',#208,#208,#219,.T.);
#186=VERTEX_POINT('',#461);
#187=VERTEX_POINT('',#467);
#188=VERTEX_POINT('',#468);
#189=VERTEX_POINT('',#474);
#190=VERTEX_POINT('',#480);
#191=VERTEX_POINT('',#486);
#192=VERTEX_POINT('',#492);
#193=VERTEX_POINT('',#500);
#194=VERTEX_POINT('',#503);
#195=VERTEX_POINT('',#506);
#196=VERTEX_POINT('',#509);
#197=VERTEX_POINT('',#513);
#198=VERTEX_POINT('',#515);
#199=VERTEX_POINT('',#519);
#200=VERTEX_POINT('',#523);
#201=VERTEX_POINT('',#527);
#202=VERTEX_POINT('',#531);
#203=VERTEX_POINT('',#542);
#204=VERTEX_POINT('',#544);
#205=VERTEX_POINT('',#547);
#206=VERTEX_POINT('',#550);
#207=VERTEX_POINT('',#553);
#208=VERTEX_POINT('',#556);
#209=CIRCLE('',#331,5.57101007166283);
#210=CIRCLE('',#333,5.4);
#211=CIRCLE('',#335,2.5);
#212=CIRCLE('',#337,2.5);
#213=CIRCLE('',#339,2.0095);
#214=CIRCLE('',#353,3.15);
#215=CIRCLE('',#354,6.2);
#216=CIRCLE('',#356,2.65);
#217=CIRCLE('',#358,2.65);
#218=CIRCLE('',#360,6.7);
#219=CIRCLE('',#362,6.7);
#220=EDGE_LOOP('',(#99));
#221=EDGE_LOOP('',(#100,#101,#102,#103,#104,#105));
#222=EDGE_LOOP('',(#106));
#223=EDGE_LOOP('',(#107));
#224=EDGE_LOOP('',(#108));
#225=EDGE_LOOP('',(#109));
#226=EDGE_LOOP('',(#110));
#227=EDGE_LOOP('',(#111));
#228=EDGE_LOOP('',(#112));
#229=EDGE_LOOP('',(#113));
#230=EDGE_LOOP('',(#114));
#231=EDGE_LOOP('',(#115,#116,#117,#118));
#232=EDGE_LOOP('',(#119,#120,#121,#122));
#233=EDGE_LOOP('',(#123,#124,#125,#126));
#234=EDGE_LOOP('',(#127,#128,#129,#130));
#235=EDGE_LOOP('',(#131,#132,#133,#134));
#236=EDGE_LOOP('',(#135,#136,#137,#138));
#237=EDGE_LOOP('',(#139,#140,#141,#142,#143,#144));
#238=EDGE_LOOP('',(#145));
#239=EDGE_LOOP('',(#146));
#240=EDGE_LOOP('',(#147));
#241=EDGE_LOOP('',(#148));
#242=EDGE_LOOP('',(#149));
#243=EDGE_LOOP('',(#150));
#244=EDGE_LOOP('',(#151));
#245=EDGE_LOOP('',(#152));
#246=EDGE_LOOP('',(#153));
#247=EDGE_LOOP('',(#154));
#248=EDGE_LOOP('',(#155));
#249=EDGE_LOOP('',(#156));
#250=FACE_BOUND('',#220,.T.);
#251=FACE_BOUND('',#221,.T.);
#252=FACE_BOUND('',#222,.T.);
#253=FACE_BOUND('',#223,.T.);
#254=FACE_BOUND('',#224,.T.);
#255=FACE_BOUND('',#225,.T.);
#256=FACE_BOUND('',#226,.T.);
#257=FACE_BOUND('',#227,.T.);
#258=FACE_BOUND('',#228,.T.);
#259=FACE_BOUND('',#229,.T.);
#260=FACE_BOUND('',#230,.T.);
#261=FACE_BOUND('',#231,.T.);
#262=FACE_BOUND('',#232,.T.);
#263=FACE_BOUND('',#233,.T.);
#264=FACE_BOUND('',#234,.T.);
#265=FACE_BOUND('',#235,.T.);
#266=FACE_BOUND('',#236,.T.);
#267=FACE_BOUND('',#237,.T.);
#268=FACE_BOUND('',#238,.T.);
#269=FACE_BOUND('',#239,.T.);
#270=FACE_BOUND('',#240,.T.);
#271=FACE_BOUND('',#241,.T.);
#272=FACE_BOUND('',#242,.T.);
#273=FACE_BOUND('',#243,.T.);
#274=FACE_BOUND('',#244,.T.);
#275=FACE_BOUND('',#245,.T.);
#276=FACE_BOUND('',#246,.T.);
#277=FACE_BOUND('',#247,.T.);
#278=FACE_BOUND('',#248,.T.);
#279=FACE_BOUND('',#249,.T.);
#280=CONICAL_SURFACE('',#330,4.33680868994202E-16,1.22173047639603);
#281=CONICAL_SURFACE('',#338,2.5,0.785398163397447);
#282=CONICAL_SURFACE('',#355,3.15,0.785398163397448);
#283=CONICAL_SURFACE('',#363,6.7,0.785398163397448);
#284=ADVANCED_FACE('',(#250,#251),#280,.T.);
#285=ADVANCED_FACE('',(#252,#253),#92,.T.);
#286=ADVANCED_FACE('',(#254,#255),#81,.F.);
#287=ADVANCED_FACE('',(#256,#257),#78,.T.);
#288=ADVANCED_FACE('',(#258,#259),#281,.T.);
#289=ADVANCED_FACE('',(#260),#82,.F.);
#290=ADVANCED_FACE('',(#261),#83,.T.);
#291=ADVANCED_FACE('',(#262),#84,.T.);
#292=ADVANCED_FACE('',(#263),#85,.T.);
#293=ADVANCED_FACE('',(#264),#86,.T.);
#294=ADVANCED_FACE('',(#265),#87,.T.);
#295=ADVANCED_FACE('',(#266),#88,.T.);
#296=ADVANCED_FACE('',(#267),#89,.T.);
#297=ADVANCED_FACE('',(#268,#269),#90,.T.);
#298=ADVANCED_FACE('',(#270,#271),#282,.F.);
#299=ADVANCED_FACE('',(#272,#273),#79,.F.);
#300=ADVANCED_FACE('',(#274,#275),#91,.T.);
#301=ADVANCED_FACE('',(#276,#277),#80,.T.);
#302=ADVANCED_FACE('',(#278,#279),#283,.T.);
#303=CLOSED_SHELL('',(#284,#285,#286,#287,#288,#289,#290,#291,#292,#293,
#294,#295,#296));
#304=CLOSED_SHELL('',(#297,#298,#299,#300,#301,#302));
#305=STYLED_ITEM('',(#307),#321);
#306=STYLED_ITEM('',(#308),#322);
#307=PRESENTATION_STYLE_ASSIGNMENT((#309));
#308=PRESENTATION_STYLE_ASSIGNMENT((#310));
#309=SURFACE_STYLE_USAGE(.BOTH.,#311);
#310=SURFACE_STYLE_USAGE(.BOTH.,#312);
#311=SURFACE_SIDE_STYLE('',(#313));
#312=SURFACE_SIDE_STYLE('',(#314));
#313=SURFACE_STYLE_FILL_AREA(#315);
#314=SURFACE_STYLE_FILL_AREA(#316);
#315=FILL_AREA_STYLE('',(#317));
#316=FILL_AREA_STYLE('',(#318));
#317=FILL_AREA_STYLE_COLOUR('',#319);
#318=FILL_AREA_STYLE_COLOUR('',#320);
#319=COLOUR_RGB('',0.501960813999176,0.501960813999176,0.501960813999176);
#320=COLOUR_RGB('',0.689999997615814,0.689999997615814,0.689999997615814);
#321=MANIFOLD_SOLID_BREP('669918 CR-M5x10-A2-70',#303);
#322=MANIFOLD_SOLID_BREP('707841 CNC-20/25',#304);
#323=SHAPE_DEFINITION_REPRESENTATION(#572,#326);
#324=SHAPE_DEFINITION_REPRESENTATION(#573,#327);
#325=SHAPE_DEFINITION_REPRESENTATION(#578,#328);
#326=SHAPE_REPRESENTATION('543714 DAMD-P-M5-10-R1',(#329,#348,#349,#350,
#351,#364,#365,#366,#367),#563);
#327=SHAPE_REPRESENTATION('669918 CR-M5x10-A2-70',(#329),#564);
#328=SHAPE_REPRESENTATION('707841 CNC-20/25',(#329),#565);
#329=AXIS2_PLACEMENT_3D('',#458,#368,#369);
#330=AXIS2_PLACEMENT_3D('',#459,#370,#371);
#331=AXIS2_PLACEMENT_3D('',#460,#372,#373);
#332=AXIS2_PLACEMENT_3D('',#498,#374,#375);
#333=AXIS2_PLACEMENT_3D('',#499,#376,#377);
#334=AXIS2_PLACEMENT_3D('',#501,#378,#379);
#335=AXIS2_PLACEMENT_3D('',#502,#380,#381);
#336=AXIS2_PLACEMENT_3D('',#504,#382,#383);
#337=AXIS2_PLACEMENT_3D('',#505,#384,#385);
#338=AXIS2_PLACEMENT_3D('',#507,#386,#387);
#339=AXIS2_PLACEMENT_3D('',#508,#388,#389);
#340=AXIS2_PLACEMENT_3D('',#510,#390,#391);
#341=AXIS2_PLACEMENT_3D('',#511,#392,#393);
#342=AXIS2_PLACEMENT_3D('',#517,#397,#398);
#343=AXIS2_PLACEMENT_3D('',#521,#401,#402);
#344=AXIS2_PLACEMENT_3D('',#525,#405,#406);
#345=AXIS2_PLACEMENT_3D('',#529,#409,#410);
#346=AXIS2_PLACEMENT_3D('',#533,#413,#414);
#347=AXIS2_PLACEMENT_3D('',#535,#416,#417);
#348=AXIS2_PLACEMENT_3D('',#536,#418,#419);
#349=AXIS2_PLACEMENT_3D('',#537,#420,#421);
#350=AXIS2_PLACEMENT_3D('',#538,#422,#423);
#351=AXIS2_PLACEMENT_3D('',#539,#424,#425);
#352=AXIS2_PLACEMENT_3D('',#540,#426,#427);
#353=AXIS2_PLACEMENT_3D('',#541,#428,#429);
#354=AXIS2_PLACEMENT_3D('',#543,#430,#431);
#355=AXIS2_PLACEMENT_3D('',#545,#432,#433);
#356=AXIS2_PLACEMENT_3D('',#546,#434,#435);
#357=AXIS2_PLACEMENT_3D('',#548,#436,#437);
#358=AXIS2_PLACEMENT_3D('',#549,#438,#439);
#359=AXIS2_PLACEMENT_3D('',#551,#440,#441);
#360=AXIS2_PLACEMENT_3D('',#552,#442,#443);
#361=AXIS2_PLACEMENT_3D('',#554,#444,#445);
#362=AXIS2_PLACEMENT_3D('',#555,#446,#447);
#363=AXIS2_PLACEMENT_3D('',#557,#448,#449);
#364=AXIS2_PLACEMENT_3D('',#558,#450,#451);
#365=AXIS2_PLACEMENT_3D('',#559,#452,#453);
#366=AXIS2_PLACEMENT_3D('',#560,#454,#455);
#367=AXIS2_PLACEMENT_3D('',#561,#456,#457);
#368=DIRECTION('',(0.,0.,1.));
#369=DIRECTION('',(1.,0.,0.));
#370=DIRECTION('',(0.,0.,-1.));
#371=DIRECTION('',(-1.,0.,0.));
#372=DIRECTION('',(0.,0.,-1.));
#373=DIRECTION('',(-1.,0.,0.));
#374=DIRECTION('',(0.,0.,-1.));
#375=DIRECTION('',(-1.,0.,0.));
#376=DIRECTION('',(0.,0.,-1.));
#377=DIRECTION('',(-1.,0.,0.));
#378=DIRECTION('',(0.,0.,1.));
#379=DIRECTION('',(1.,0.,0.));
#380=DIRECTION('',(0.,0.,-1.));
#381=DIRECTION('',(-1.,0.,0.));
#382=DIRECTION('',(0.,0.,-1.));
#383=DIRECTION('',(-1.,0.,0.));
#384=DIRECTION('',(0.,0.,-1.));
#385=DIRECTION('',(-1.,0.,0.));
#386=DIRECTION('',(0.,0.,1.));
#387=DIRECTION('',(1.,0.,0.));
#388=DIRECTION('',(0.,0.,-1.));
#389=DIRECTION('',(-1.,0.,0.));
#390=DIRECTION('',(0.,0.,1.));
#391=DIRECTION('',(1.,0.,0.));
#392=DIRECTION('',(-1.,0.,0.));
#393=DIRECTION('',(0.,0.,1.));
#394=DIRECTION('',(0.,0.,1.));
#395=DIRECTION('',(0.,-1.,0.));
#396=DIRECTION('',(0.,0.,1.));
#397=DIRECTION('',(-0.5,-0.866025403784439,0.));
#398=DIRECTION('',(0.866025403784439,-0.5,0.));
#399=DIRECTION('',(0.,0.,1.));
#400=DIRECTION('',(0.866025403784439,-0.5,0.));
#401=DIRECTION('',(0.5,-0.866025403784439,0.));
#402=DIRECTION('',(0.866025403784439,0.5,0.));
#403=DIRECTION('',(0.,0.,1.));
#404=DIRECTION('',(0.866025403784439,0.5,0.));
#405=DIRECTION('',(1.,0.,0.));
#406=DIRECTION('',(0.,0.,-1.));
#407=DIRECTION('',(0.,0.,1.));
#408=DIRECTION('',(0.,1.,0.));
#409=DIRECTION('',(0.5,0.866025403784439,0.));
#410=DIRECTION('',(-0.866025403784439,0.5,0.));
#411=DIRECTION('',(0.,0.,1.));
#412=DIRECTION('',(-0.866025403784439,0.5,0.));
#413=DIRECTION('',(-0.5,0.866025403784439,0.));
#414=DIRECTION('',(-0.866025403784439,-0.5,0.));
#415=DIRECTION('',(-0.866025403784439,-0.5,0.));
#416=DIRECTION('',(0.,0.,1.));
#417=DIRECTION('',(1.,0.,0.));
#418=DIRECTION('',(0.,0.,1.));
#419=DIRECTION('',(1.,0.,0.));
#420=DIRECTION('',(0.,0.,1.));
#421=DIRECTION('',(1.,0.,0.));
#422=DIRECTION('',(0.,0.,1.));
#423=DIRECTION('',(1.,0.,0.));
#424=DIRECTION('',(0.,0.,1.));
#425=DIRECTION('',(1.,0.,0.));
#426=DIRECTION('',(0.,0.,1.));
#427=DIRECTION('',(1.,0.,0.));
#428=DIRECTION('',(0.,0.,-1.));
#429=DIRECTION('',(-1.,0.,0.));
#430=DIRECTION('',(0.,0.,-1.));
#431=DIRECTION('',(-1.,0.,0.));
#432=DIRECTION('',(0.,0.,1.));
#433=DIRECTION('',(1.,0.,0.));
#434=DIRECTION('',(0.,0.,-1.));
#435=DIRECTION('',(-1.,0.,0.));
#436=DIRECTION('',(0.,0.,-1.));
#437=DIRECTION('',(-1.,0.,0.));
#438=DIRECTION('',(0.,0.,-1.));
#439=DIRECTION('',(-1.,0.,0.));
#440=DIRECTION('',(0.,0.,-1.));
#441=DIRECTION('',(-1.,0.,0.));
#442=DIRECTION('',(0.,0.,-1.));
#443=DIRECTION('',(-1.,0.,0.));
#444=DIRECTION('',(0.,0.,-1.));
#445=DIRECTION('',(-1.,0.,0.));
#446=DIRECTION('',(0.,0.,-1.));
#447=DIRECTION('',(-1.,0.,0.));
#448=DIRECTION('',(0.,0.,-1.));
#449=DIRECTION('',(-1.,0.,0.));
#450=DIRECTION('',(0.,0.,1.));
#451=DIRECTION('',(1.,0.,0.));
#452=DIRECTION('',(0.,0.,1.));
#453=DIRECTION('',(1.,0.,0.));
#454=DIRECTION('',(0.,0.,1.));
#455=DIRECTION('',(1.,0.,0.));
#456=DIRECTION('',(0.,0.,1.));
#457=DIRECTION('',(1.,0.,0.));
#458=CARTESIAN_POINT('',(0.,0.,0.));
#459=CARTESIAN_POINT('',(0.,0.,2.99752815127545));
#460=CARTESIAN_POINT('',(0.,0.,0.969846310392954));
#461=CARTESIAN_POINT('',(-5.57101007166283,0.,0.969846310392954));
#462=CARTESIAN_POINT('',(-9.22833270938638E-17,-4.61880215351701,1.31642164943062));
#463=CARTESIAN_POINT('',(-0.666666666666667,-4.23390197405726,1.45651385791769));
#464=CARTESIAN_POINT('',(-2.,-3.46410161513776,1.62678057050359));
#465=CARTESIAN_POINT('',(-3.33333333333333,-2.69430125621825,1.45651385791769));
#466=CARTESIAN_POINT('',(-4.,-2.3094010767585,1.31642164943062));
#467=CARTESIAN_POINT('',(0.,-4.61880215351701,1.31642164943062));
#468=CARTESIAN_POINT('',(-4.,-2.3094010767585,1.31642164943062));
#469=CARTESIAN_POINT('',(-4.,-2.3094010767585,1.31642164943062));
#470=CARTESIAN_POINT('',(-4.,-1.54787845429007,1.45500743308005));
#471=CARTESIAN_POINT('',(-4.,0.0251456600030746,1.62910990205328));
#472=CARTESIAN_POINT('',(-4.,1.55714381132216,1.45332127599528));
#473=CARTESIAN_POINT('',(-4.,2.30940107675851,1.31642164943062));
#474=CARTESIAN_POINT('',(-4.,2.3094010767585,1.31642164943062));
#475=CARTESIAN_POINT('',(-4.,2.3094010767585,1.31642164943062));
#476=CARTESIAN_POINT('',(-3.33333333333333,2.69430125621825,1.45651385791769));
#477=CARTESIAN_POINT('',(-2.,3.46410161513776,1.62678057050359));
#478=CARTESIAN_POINT('',(-0.666666666666666,4.23390197405726,1.45651385791769));
#479=CARTESIAN_POINT('',(6.50523012127629E-16,4.61880215351701,1.31642164943062));
#480=CARTESIAN_POINT('',(0.,4.61880215351701,1.31642164943062));
#481=CARTESIAN_POINT('',(9.22833270938638E-17,4.61880215351701,1.31642164943062));
#482=CARTESIAN_POINT('',(0.666666666666667,4.23390197405726,1.45651385791769));
#483=CARTESIAN_POINT('',(2.,3.46410161513776,1.62678057050359));
#484=CARTESIAN_POINT('',(3.33333333333333,2.69430125621825,1.45651385791769));
#485=CARTESIAN_POINT('',(4.,2.3094010767585,1.31642164943062));
#486=CARTESIAN_POINT('',(4.,2.3094010767585,1.31642164943062));
#487=CARTESIAN_POINT('',(4.,2.3094010767585,1.31642164943062));
#488=CARTESIAN_POINT('',(4.,1.54787845429007,1.45500743308005));
#489=CARTESIAN_POINT('',(4.,-0.0251456600030754,1.62910990205328));
#490=CARTESIAN_POINT('',(4.,-1.55714381132216,1.45332127599528));
#491=CARTESIAN_POINT('',(4.,-2.3094010767585,1.31642164943062));
#492=CARTESIAN_POINT('',(4.,-2.3094010767585,1.31642164943062));
#493=CARTESIAN_POINT('',(4.,-2.3094010767585,1.31642164943062));
#494=CARTESIAN_POINT('',(3.33333333333333,-2.69430125621825,1.45651385791769));
#495=CARTESIAN_POINT('',(2.,-3.46410161513776,1.62678057050359));
#496=CARTESIAN_POINT('',(0.666666666666666,-4.23390197405726,1.45651385791769));
#497=CARTESIAN_POINT('',(-6.50523012127629E-16,-4.61880215351701,1.31642164943062));
#498=CARTESIAN_POINT('',(0.,0.,0.5));
#499=CARTESIAN_POINT('',(0.,0.,0.));
#500=CARTESIAN_POINT('',(-5.4,0.,0.));
#501=CARTESIAN_POINT('',(0.,5.4,2.16840434497101E-16));
#502=CARTESIAN_POINT('',(0.,0.,0.));
#503=CARTESIAN_POINT('',(-2.5,0.,0.));
#504=CARTESIAN_POINT('',(0.,0.,-10.));
#505=CARTESIAN_POINT('',(0.,0.,-9.5095));
#506=CARTESIAN_POINT('',(-2.5,0.,-9.5095));
#507=CARTESIAN_POINT('',(0.,0.,-9.5095));
#508=CARTESIAN_POINT('',(0.,0.,-10.));
#509=CARTESIAN_POINT('',(-2.0095,0.,-10.));
#510=CARTESIAN_POINT('',(0.,2.0095,-10.));
#511=CARTESIAN_POINT('',(-4.,2.3094010767585,0.));
#512=CARTESIAN_POINT('',(-4.,-2.3094010767585,0.));
#513=CARTESIAN_POINT('',(-4.,-2.3094010767585,5.4));
#514=CARTESIAN_POINT('',(-4.,2.3094010767585,5.4));
#515=CARTESIAN_POINT('',(-4.,2.3094010767585,5.4));
#516=CARTESIAN_POINT('',(-4.,2.3094010767585,0.));
#517=CARTESIAN_POINT('',(-4.,-2.3094010767585,0.));
#518=CARTESIAN_POINT('',(0.,-4.61880215351701,0.));
#519=CARTESIAN_POINT('',(0.,-4.61880215351701,5.4));
#520=CARTESIAN_POINT('',(-4.,-2.3094010767585,5.4));
#521=CARTESIAN_POINT('',(0.,-4.61880215351701,0.));
#522=CARTESIAN_POINT('',(4.,-2.3094010767585,0.));
#523=CARTESIAN_POINT('',(4.,-2.3094010767585,5.4));
#524=CARTESIAN_POINT('',(0.,-4.61880215351701,5.4));
#525=CARTESIAN_POINT('',(4.,-2.3094010767585,0.));
#526=CARTESIAN_POINT('',(4.,2.3094010767585,0.));
#527=CARTESIAN_POINT('',(4.,2.3094010767585,5.4));
#528=CARTESIAN_POINT('',(4.,-2.3094010767585,5.4));
#529=CARTESIAN_POINT('',(4.,2.3094010767585,0.));
#530=CARTESIAN_POINT('',(0.,4.61880215351701,0.));
#531=CARTESIAN_POINT('',(0.,4.61880215351701,5.4));
#532=CARTESIAN_POINT('',(4.,2.3094010767585,5.4));
#533=CARTESIAN_POINT('',(0.,4.61880215351701,0.));
#534=CARTESIAN_POINT('',(0.,4.61880215351701,5.4));
#535=CARTESIAN_POINT('',(0.,0.,5.4));
#536=CARTESIAN_POINT('',(-40.,-4.08215599715784E-16,3.33333333333333));
#537=CARTESIAN_POINT('',(-13.3333333333333,-4.08215599715784E-16,3.33333333333333));
#538=CARTESIAN_POINT('',(13.3333333333333,-4.08215599715784E-16,3.33333333333333));
#539=CARTESIAN_POINT('',(40.,-4.08215599715784E-16,3.33333333333333));
#540=CARTESIAN_POINT('',(0.,6.2,0.));
#541=CARTESIAN_POINT('',(0.,0.,0.));
#542=CARTESIAN_POINT('',(-3.15,0.,0.));
#543=CARTESIAN_POINT('',(0.,0.,0.));
#544=CARTESIAN_POINT('',(-6.2,0.,0.));
#545=CARTESIAN_POINT('',(0.,0.,0.));
#546=CARTESIAN_POINT('',(0.,0.,-0.5));
#547=CARTESIAN_POINT('',(-2.65,0.,-0.5));
#548=CARTESIAN_POINT('',(0.,0.,-1.5));
#549=CARTESIAN_POINT('',(0.,0.,-1.5));
#550=CARTESIAN_POINT('',(-2.65,0.,-1.5));
#551=CARTESIAN_POINT('',(0.,2.65,-1.5));
#552=CARTESIAN_POINT('',(0.,0.,-1.5));
#553=CARTESIAN_POINT('',(-6.7,0.,-1.5));
#554=CARTESIAN_POINT('',(0.,0.,-1.5));
#555=CARTESIAN_POINT('',(0.,0.,-0.5));
#556=CARTESIAN_POINT('',(-6.7,0.,-0.5));
#557=CARTESIAN_POINT('',(0.,0.,-0.5));
#558=CARTESIAN_POINT('',(-40.,-1.83697019872103E-16,-1.));
#559=CARTESIAN_POINT('',(-13.3333333333333,-1.83697019872103E-16,-1.));
#560=CARTESIAN_POINT('',(13.3333333333333,-1.83697019872103E-16,-1.));
#561=CARTESIAN_POINT('',(40.,-1.83697019872103E-16,-1.));
#562=MECHANICAL_DESIGN_GEOMETRIC_PRESENTATION_REPRESENTATION('',(#305,#306),
#563);
#563=(
GEOMETRIC_REPRESENTATION_CONTEXT(3)
GLOBAL_UNCERTAINTY_ASSIGNED_CONTEXT((#566))
GLOBAL_UNIT_ASSIGNED_CONTEXT((#571,#570,#569))
REPRESENTATION_CONTEXT('543714 DAMD-P-M5-10-R1',
'TOP_LEVEL_ASSEMBLY_PART')
);
#564=(
GEOMETRIC_REPRESENTATION_CONTEXT(3)
GLOBAL_UNCERTAINTY_ASSIGNED_CONTEXT((#567))
GLOBAL_UNIT_ASSIGNED_CONTEXT((#571,#570,#569))
REPRESENTATION_CONTEXT('669918 CR-M5x10-A2-70','COMPONENT_PART')
);
#565=(
GEOMETRIC_REPRESENTATION_CONTEXT(3)
GLOBAL_UNCERTAINTY_ASSIGNED_CONTEXT((#568))
GLOBAL_UNIT_ASSIGNED_CONTEXT((#571,#570,#569))
REPRESENTATION_CONTEXT('707841 CNC-20/25','COMPONENT_PART')
);
#566=UNCERTAINTY_MEASURE_WITH_UNIT(LENGTH_MEASURE(0.005),#571,
'DISTANCE_ACCURACY_VALUE','Maximum Tolerance applied to model');
#567=UNCERTAINTY_MEASURE_WITH_UNIT(LENGTH_MEASURE(0.005),#571,
'DISTANCE_ACCURACY_VALUE','Maximum Tolerance applied to model');
#568=UNCERTAINTY_MEASURE_WITH_UNIT(LENGTH_MEASURE(0.005),#571,
'DISTANCE_ACCURACY_VALUE','Maximum Tolerance applied to model');
#569=(
NAMED_UNIT(*)
SI_UNIT($,.STERADIAN.)
SOLID_ANGLE_UNIT()
);
#570=(
NAMED_UNIT(*)
PLANE_ANGLE_UNIT()
SI_UNIT($,.RADIAN.)
);
#571=(
LENGTH_UNIT()
NAMED_UNIT(*)
SI_UNIT(.MILLI.,.METRE.)
);
#572=PRODUCT_DEFINITION_SHAPE('','',#583);
#573=PRODUCT_DEFINITION_SHAPE('','',#584);
#574=PRODUCT_DEFINITION_SHAPE(' ','NAUO PRDDFN',#26);
#575=PRODUCT_DEFINITION_SHAPE(' ','NAUO PRDDFN',#27);
#576=PRODUCT_DEFINITION_SHAPE(' ','NAUO PRDDFN',#28);
#577=PRODUCT_DEFINITION_SHAPE(' ','NAUO PRDDFN',#29);
#578=PRODUCT_DEFINITION_SHAPE('','',#585);
#579=PRODUCT_DEFINITION_SHAPE(' ','NAUO PRDDFN',#30);
#580=PRODUCT_DEFINITION_SHAPE(' ','NAUO PRDDFN',#31);
#581=PRODUCT_DEFINITION_SHAPE(' ','NAUO PRDDFN',#32);
#582=PRODUCT_DEFINITION_SHAPE(' ','NAUO PRDDFN',#33);
#583=PRODUCT_DEFINITION('','',#589,#586);
#584=PRODUCT_DEFINITION('','',#590,#587);
#585=PRODUCT_DEFINITION('','',#591,#588);
#586=PRODUCT_DEFINITION_CONTEXT('',#605,'design');
#587=PRODUCT_DEFINITION_CONTEXT('',#605,'design');
#588=PRODUCT_DEFINITION_CONTEXT('',#605,'design');
#589=PRODUCT_DEFINITION_FORMATION_WITH_SPECIFIED_SOURCE('','',#595,
 .NOT_KNOWN.);
#590=PRODUCT_DEFINITION_FORMATION_WITH_SPECIFIED_SOURCE('','',#596,
 .NOT_KNOWN.);
#591=PRODUCT_DEFINITION_FORMATION_WITH_SPECIFIED_SOURCE('','',#597,
 .NOT_KNOWN.);
#592=PRODUCT_RELATED_PRODUCT_CATEGORY('','',(#595));
#593=PRODUCT_RELATED_PRODUCT_CATEGORY('','',(#596));
#594=PRODUCT_RELATED_PRODUCT_CATEGORY('','',(#597));
#595=PRODUCT('543714 DAMD-P-M5-10-R1','543714 DAMD-P-M5-10-R1',
'543714 DAMD-P-M5-10-R1',(#601));
#596=PRODUCT('669918 CR-M5x10-A2-70','669918 CR-M5x10-A2-70',
'669918 CR-M5x10-A2-70',(#602));
#597=PRODUCT('707841 CNC-20/25','707841 CNC-20/25','707841 CNC-20/25',(#603));
#598=PRODUCT_CATEGORY('','');
#599=PRODUCT_CATEGORY('','');
#600=PRODUCT_CATEGORY('','');
#601=PRODUCT_CONTEXT('',#605,'mechanical');
#602=PRODUCT_CONTEXT('',#605,'mechanical');
#603=PRODUCT_CONTEXT('',#605,'mechanical');
#604=APPLICATION_PROTOCOL_DEFINITION('international standard',
'automotive_design',2010,#605);
#605=APPLICATION_CONTEXT(
'core data for automotive mechanical design processes');
ENDSEC;
END-ISO-10303-21;
