ISO-10303-21;
HEADER;
/* Generated by software containing ST-Developer
 * from STEP Tools, Inc. (www.steptools.com) 
 */
/* OPTION: using custom renumber hook */

FILE_DESCRIPTION(
/* description */ ('STEP AP214'),
/* implementation_level */ '2;1');

FILE_NAME(
/* name */ '546476_FRB-D-MAXI-U',
/* time_stamp */ '2024-08-28T15:18:13+02:00',
/* author */ ('License CC BY-ND 4.0'),
/* organization */ ('CADENAS'),
/* preprocessor_version */ 'ST-DEVELOPER v19.3',
/* originating_system */ 'PARTsolutions',
/* authorisation */ '  ');

FILE_SCHEMA (('AUTOMOTIVE_DESIGN {1 0 10303 214 3 1 1}'));
ENDSEC;

DATA;
#10=PROPERTY_DEFINITION_REPRESENTATION(#14,#12);
#11=PROPERTY_DEFINITION_REPRESENTATION(#15,#13);
#12=REPRESENTATION('',(#16),#305);
#13=REPRESENTATION('',(#17),#305);
#14=PROPERTY_DEFINITION('pmi validation property','',#312);
#15=PROPERTY_DEFINITION('pmi validation property','',#312);
#16=VALUE_REPRESENTATION_ITEM('number of annotations',COUNT_MEASURE(0.));
#17=VALUE_REPRESENTATION_ITEM('number of views',COUNT_MEASURE(0.));
#18=CONTEXT_DEPENDENT_SHAPE_REPRESENTATION(#22,#314);
#19=CONTEXT_DEPENDENT_SHAPE_REPRESENTATION(#23,#315);
#20=NEXT_ASSEMBLY_USAGE_OCCURRENCE('NAUO1','234370 FRB-D-MAXI',
'234370 FRB-D-MAXI',#316,#317,'');
#21=NEXT_ASSEMBLY_USAGE_OCCURRENCE('NAUO2','234370 FRB-D-MAXI',
'234370 FRB-D-MAXI',#316,#317,'');
#22=(
REPRESENTATION_RELATIONSHIP(' ',' ',#178,#177)
REPRESENTATION_RELATIONSHIP_WITH_TRANSFORMATION(#24)
SHAPE_REPRESENTATION_RELATIONSHIP()
);
#23=(
REPRESENTATION_RELATIONSHIP(' ',' ',#178,#177)
REPRESENTATION_RELATIONSHIP_WITH_TRANSFORMATION(#25)
SHAPE_REPRESENTATION_RELATIONSHIP()
);
#24=ITEM_DEFINED_TRANSFORMATION(' ',' ',#179,#205);
#25=ITEM_DEFINED_TRANSFORMATION(' ',' ',#179,#206);
#26=SHAPE_REPRESENTATION_RELATIONSHIP('','',#178,#27);
#27=ADVANCED_BREP_SHAPE_REPRESENTATION('',(#174),#306);
#28=VERTEX_LOOP('',#87);
#29=CONICAL_SURFACE('',#193,1.90857864376268,0.785398163397452);
#30=CONICAL_SURFACE('',#197,2.5,0.785398163397446);
#31=CONICAL_SURFACE('',#200,2.667,0.785398163397445);
#32=CONICAL_SURFACE('',#204,2.067,1.0471975511966);
#33=TOROIDAL_SURFACE('',#187,2.84999999999999,0.999999999999987);
#34=TOROIDAL_SURFACE('',#191,2.04999999999998,0.199999999999983);
#35=CYLINDRICAL_SURFACE('',#183,3.5);
#36=CYLINDRICAL_SURFACE('',#189,1.85);
#37=CYLINDRICAL_SURFACE('',#195,2.5);
#38=CYLINDRICAL_SURFACE('',#202,2.067);
#39=ORIENTED_EDGE('',*,*,#63,.F.);
#40=ORIENTED_EDGE('',*,*,#64,.T.);
#41=ORIENTED_EDGE('',*,*,#65,.F.);
#42=ORIENTED_EDGE('',*,*,#63,.T.);
#43=ORIENTED_EDGE('',*,*,#66,.F.);
#44=ORIENTED_EDGE('',*,*,#65,.T.);
#45=ORIENTED_EDGE('',*,*,#67,.F.);
#46=ORIENTED_EDGE('',*,*,#66,.T.);
#47=ORIENTED_EDGE('',*,*,#68,.F.);
#48=ORIENTED_EDGE('',*,*,#67,.T.);
#49=ORIENTED_EDGE('',*,*,#69,.F.);
#50=ORIENTED_EDGE('',*,*,#68,.T.);
#51=ORIENTED_EDGE('',*,*,#70,.F.);
#52=ORIENTED_EDGE('',*,*,#69,.T.);
#53=ORIENTED_EDGE('',*,*,#71,.F.);
#54=ORIENTED_EDGE('',*,*,#70,.T.);
#55=ORIENTED_EDGE('',*,*,#72,.F.);
#56=ORIENTED_EDGE('',*,*,#71,.T.);
#57=ORIENTED_EDGE('',*,*,#72,.T.);
#58=ORIENTED_EDGE('',*,*,#73,.T.);
#59=ORIENTED_EDGE('',*,*,#64,.F.);
#60=ORIENTED_EDGE('',*,*,#74,.T.);
#61=ORIENTED_EDGE('',*,*,#73,.F.);
#62=ORIENTED_EDGE('',*,*,#74,.F.);
#63=EDGE_CURVE('',#75,#75,#88,.T.);
#64=EDGE_CURVE('',#76,#76,#89,.T.);
#65=EDGE_CURVE('',#77,#77,#90,.T.);
#66=EDGE_CURVE('',#78,#78,#91,.T.);
#67=EDGE_CURVE('',#79,#79,#92,.T.);
#68=EDGE_CURVE('',#80,#80,#93,.T.);
#69=EDGE_CURVE('',#81,#81,#94,.T.);
#70=EDGE_CURVE('',#82,#82,#95,.T.);
#71=EDGE_CURVE('',#83,#83,#96,.T.);
#72=EDGE_CURVE('',#84,#84,#97,.T.);
#73=EDGE_CURVE('',#85,#85,#98,.T.);
#74=EDGE_CURVE('',#86,#86,#99,.T.);
#75=VERTEX_POINT('',#266);
#76=VERTEX_POINT('',#268);
#77=VERTEX_POINT('',#271);
#78=VERTEX_POINT('',#274);
#79=VERTEX_POINT('',#277);
#80=VERTEX_POINT('',#280);
#81=VERTEX_POINT('',#283);
#82=VERTEX_POINT('',#286);
#83=VERTEX_POINT('',#289);
#84=VERTEX_POINT('',#292);
#85=VERTEX_POINT('',#296);
#86=VERTEX_POINT('',#299);
#87=VERTEX_POINT('',#301);
#88=CIRCLE('',#181,3.5);
#89=CIRCLE('',#182,2.667);
#90=CIRCLE('',#184,3.5);
#91=CIRCLE('',#186,2.85);
#92=CIRCLE('',#188,1.85);
#93=CIRCLE('',#190,1.85);
#94=CIRCLE('',#192,1.90857864376268);
#95=CIRCLE('',#194,2.5);
#96=CIRCLE('',#196,2.5);
#97=CIRCLE('',#198,1.9);
#98=CIRCLE('',#201,2.067);
#99=CIRCLE('',#203,2.067);
#100=EDGE_LOOP('',(#39));
#101=EDGE_LOOP('',(#40));
#102=EDGE_LOOP('',(#41));
#103=EDGE_LOOP('',(#42));
#104=EDGE_LOOP('',(#43));
#105=EDGE_LOOP('',(#44));
#106=EDGE_LOOP('',(#45));
#107=EDGE_LOOP('',(#46));
#108=EDGE_LOOP('',(#47));
#109=EDGE_LOOP('',(#48));
#110=EDGE_LOOP('',(#49));
#111=EDGE_LOOP('',(#50));
#112=EDGE_LOOP('',(#51));
#113=EDGE_LOOP('',(#52));
#114=EDGE_LOOP('',(#53));
#115=EDGE_LOOP('',(#54));
#116=EDGE_LOOP('',(#55));
#117=EDGE_LOOP('',(#56));
#118=EDGE_LOOP('',(#57));
#119=EDGE_LOOP('',(#58));
#120=EDGE_LOOP('',(#59));
#121=EDGE_LOOP('',(#60));
#122=EDGE_LOOP('',(#61));
#123=EDGE_LOOP('',(#62));
#124=FACE_BOUND('',#100,.T.);
#125=FACE_BOUND('',#101,.T.);
#126=FACE_BOUND('',#102,.T.);
#127=FACE_BOUND('',#103,.T.);
#128=FACE_BOUND('',#104,.T.);
#129=FACE_BOUND('',#105,.T.);
#130=FACE_BOUND('',#106,.T.);
#131=FACE_BOUND('',#107,.T.);
#132=FACE_BOUND('',#108,.T.);
#133=FACE_BOUND('',#109,.T.);
#134=FACE_BOUND('',#110,.T.);
#135=FACE_BOUND('',#111,.T.);
#136=FACE_BOUND('',#112,.T.);
#137=FACE_BOUND('',#113,.T.);
#138=FACE_BOUND('',#114,.T.);
#139=FACE_BOUND('',#115,.T.);
#140=FACE_BOUND('',#116,.T.);
#141=FACE_BOUND('',#117,.T.);
#142=FACE_BOUND('',#118,.T.);
#143=FACE_BOUND('',#119,.T.);
#144=FACE_BOUND('',#120,.T.);
#145=FACE_BOUND('',#121,.T.);
#146=FACE_BOUND('',#122,.T.);
#147=FACE_BOUND('',#28,.T.);
#148=FACE_BOUND('',#123,.T.);
#149=PLANE('',#180);
#150=PLANE('',#185);
#151=PLANE('',#199);
#152=ADVANCED_FACE('',(#124,#125),#149,.F.);
#153=ADVANCED_FACE('',(#126,#127),#35,.T.);
#154=ADVANCED_FACE('',(#128,#129),#150,.F.);
#155=ADVANCED_FACE('',(#130,#131),#33,.F.);
#156=ADVANCED_FACE('',(#132,#133),#36,.T.);
#157=ADVANCED_FACE('',(#134,#135),#34,.F.);
#158=ADVANCED_FACE('',(#136,#137),#29,.T.);
#159=ADVANCED_FACE('',(#138,#139),#37,.T.);
#160=ADVANCED_FACE('',(#140,#141),#30,.T.);
#161=ADVANCED_FACE('',(#142),#151,.F.);
#162=ADVANCED_FACE('',(#143,#144),#31,.F.);
#163=ADVANCED_FACE('',(#145,#146),#38,.F.);
#164=ADVANCED_FACE('',(#147,#148),#32,.F.);
#165=CLOSED_SHELL('',(#152,#153,#154,#155,#156,#157,#158,#159,#160,#161,
#162,#163,#164));
#166=STYLED_ITEM('',(#167),#174);
#167=PRESENTATION_STYLE_ASSIGNMENT((#168));
#168=SURFACE_STYLE_USAGE(.BOTH.,#169);
#169=SURFACE_SIDE_STYLE('',(#170));
#170=SURFACE_STYLE_FILL_AREA(#171);
#171=FILL_AREA_STYLE('',(#172));
#172=FILL_AREA_STYLE_COLOUR('',#173);
#173=COLOUR_RGB('',0.689999997615814,0.689999997615814,0.689999997615814);
#174=MANIFOLD_SOLID_BREP('234370 FRB-D-MAXI',#165);
#175=SHAPE_DEFINITION_REPRESENTATION(#312,#177);
#176=SHAPE_DEFINITION_REPRESENTATION(#313,#178);
#177=SHAPE_REPRESENTATION('546476 FRB-D-MAXI-U',(#179,#205,#206),#305);
#178=SHAPE_REPRESENTATION('234370 FRB-D-MAXI',(#179),#306);
#179=AXIS2_PLACEMENT_3D('',#263,#207,#208);
#180=AXIS2_PLACEMENT_3D('',#264,#209,#210);
#181=AXIS2_PLACEMENT_3D('',#265,#211,#212);
#182=AXIS2_PLACEMENT_3D('',#267,#213,#214);
#183=AXIS2_PLACEMENT_3D('',#269,#215,#216);
#184=AXIS2_PLACEMENT_3D('',#270,#217,#218);
#185=AXIS2_PLACEMENT_3D('',#272,#219,#220);
#186=AXIS2_PLACEMENT_3D('',#273,#221,#222);
#187=AXIS2_PLACEMENT_3D('',#275,#223,#224);
#188=AXIS2_PLACEMENT_3D('',#276,#225,#226);
#189=AXIS2_PLACEMENT_3D('',#278,#227,#228);
#190=AXIS2_PLACEMENT_3D('',#279,#229,#230);
#191=AXIS2_PLACEMENT_3D('',#281,#231,#232);
#192=AXIS2_PLACEMENT_3D('',#282,#233,#234);
#193=AXIS2_PLACEMENT_3D('',#284,#235,#236);
#194=AXIS2_PLACEMENT_3D('',#285,#237,#238);
#195=AXIS2_PLACEMENT_3D('',#287,#239,#240);
#196=AXIS2_PLACEMENT_3D('',#288,#241,#242);
#197=AXIS2_PLACEMENT_3D('',#290,#243,#244);
#198=AXIS2_PLACEMENT_3D('',#291,#245,#246);
#199=AXIS2_PLACEMENT_3D('',#293,#247,#248);
#200=AXIS2_PLACEMENT_3D('',#294,#249,#250);
#201=AXIS2_PLACEMENT_3D('',#295,#251,#252);
#202=AXIS2_PLACEMENT_3D('',#297,#253,#254);
#203=AXIS2_PLACEMENT_3D('',#298,#255,#256);
#204=AXIS2_PLACEMENT_3D('',#300,#257,#258);
#205=AXIS2_PLACEMENT_3D('',#302,#259,#260);
#206=AXIS2_PLACEMENT_3D('',#303,#261,#262);
#207=DIRECTION('',(0.,0.,1.));
#208=DIRECTION('',(1.,0.,0.));
#209=DIRECTION('',(1.,0.,0.));
#210=DIRECTION('',(0.,0.,-1.));
#211=DIRECTION('',(1.,0.,0.));
#212=DIRECTION('',(0.,0.,-1.));
#213=DIRECTION('',(1.,0.,0.));
#214=DIRECTION('',(0.,0.,-1.));
#215=DIRECTION('',(1.,0.,0.));
#216=DIRECTION('',(0.,0.,-1.));
#217=DIRECTION('',(1.,0.,0.));
#218=DIRECTION('',(0.,0.,-1.));
#219=DIRECTION('',(-1.,0.,0.));
#220=DIRECTION('',(0.,0.,1.));
#221=DIRECTION('',(1.,0.,0.));
#222=DIRECTION('',(0.,0.,-1.));
#223=DIRECTION('',(1.,0.,0.));
#224=DIRECTION('',(0.,0.,-1.));
#225=DIRECTION('',(1.,0.,0.));
#226=DIRECTION('',(0.,0.,-1.));
#227=DIRECTION('',(1.,0.,0.));
#228=DIRECTION('',(0.,0.,-1.));
#229=DIRECTION('',(1.,0.,0.));
#230=DIRECTION('',(0.,0.,-1.));
#231=DIRECTION('',(1.,0.,0.));
#232=DIRECTION('',(0.,0.,-1.));
#233=DIRECTION('',(1.,0.,0.));
#234=DIRECTION('',(0.,0.,-1.));
#235=DIRECTION('',(1.,0.,0.));
#236=DIRECTION('',(0.,0.,-1.));
#237=DIRECTION('',(1.,0.,0.));
#238=DIRECTION('',(0.,0.,-1.));
#239=DIRECTION('',(1.,0.,0.));
#240=DIRECTION('',(0.,0.,-1.));
#241=DIRECTION('',(1.,0.,0.));
#242=DIRECTION('',(0.,0.,-1.));
#243=DIRECTION('',(-1.,0.,0.));
#244=DIRECTION('',(0.,0.,1.));
#245=DIRECTION('',(1.,0.,0.));
#246=DIRECTION('',(0.,0.,-1.));
#247=DIRECTION('',(-1.,0.,0.));
#248=DIRECTION('',(0.,0.,1.));
#249=DIRECTION('',(-1.,0.,0.));
#250=DIRECTION('',(0.,0.,1.));
#251=DIRECTION('',(1.,0.,0.));
#252=DIRECTION('',(0.,0.,-1.));
#253=DIRECTION('',(1.,0.,0.));
#254=DIRECTION('',(0.,0.,-1.));
#255=DIRECTION('',(1.,0.,0.));
#256=DIRECTION('',(0.,0.,-1.));
#257=DIRECTION('',(-1.,0.,0.));
#258=DIRECTION('',(0.,0.,1.));
#259=DIRECTION('',(-1.,0.,0.));
#260=DIRECTION('',(0.,0.,1.));
#261=DIRECTION('',(-1.,0.,0.));
#262=DIRECTION('',(0.,0.,1.));
#263=CARTESIAN_POINT('',(0.,0.,0.));
#264=CARTESIAN_POINT('',(0.,0.,0.));
#265=CARTESIAN_POINT('',(0.,0.,0.));
#266=CARTESIAN_POINT('',(0.,0.,-3.5));
#267=CARTESIAN_POINT('',(0.,0.,0.));
#268=CARTESIAN_POINT('',(0.,0.,-2.667));
#269=CARTESIAN_POINT('',(65.8,0.,0.));
#270=CARTESIAN_POINT('',(65.8,0.,0.));
#271=CARTESIAN_POINT('',(65.8,0.,-3.5));
#272=CARTESIAN_POINT('',(65.8,3.5,0.));
#273=CARTESIAN_POINT('',(65.8,0.,0.));
#274=CARTESIAN_POINT('',(65.8,0.,-2.85));
#275=CARTESIAN_POINT('',(66.8,0.,0.));
#276=CARTESIAN_POINT('',(66.8,0.,0.));
#277=CARTESIAN_POINT('',(66.8,0.,-1.85));
#278=CARTESIAN_POINT('',(72.8,0.,0.));
#279=CARTESIAN_POINT('',(67.0671572875254,0.,0.));
#280=CARTESIAN_POINT('',(67.0671572875254,0.,-1.85));
#281=CARTESIAN_POINT('',(67.0671572875254,0.,0.));
#282=CARTESIAN_POINT('',(67.2085786437627,0.,0.));
#283=CARTESIAN_POINT('',(67.2085786437627,0.,-1.90857864376268));
#284=CARTESIAN_POINT('',(67.2085786437627,0.,0.));
#285=CARTESIAN_POINT('',(67.8,0.,0.));
#286=CARTESIAN_POINT('',(67.8,0.,-2.5));
#287=CARTESIAN_POINT('',(72.8,0.,0.));
#288=CARTESIAN_POINT('',(72.2,0.,0.));
#289=CARTESIAN_POINT('',(72.2,0.,-2.5));
#290=CARTESIAN_POINT('',(72.2,0.,0.));
#291=CARTESIAN_POINT('',(72.8,0.,0.));
#292=CARTESIAN_POINT('',(72.8,0.,-1.9));
#293=CARTESIAN_POINT('',(72.8,1.9,0.));
#294=CARTESIAN_POINT('',(0.,0.,0.));
#295=CARTESIAN_POINT('',(0.600000000000003,0.,0.));
#296=CARTESIAN_POINT('',(0.600000000000003,0.,-2.067));
#297=CARTESIAN_POINT('',(15.193383006415,0.,0.));
#298=CARTESIAN_POINT('',(14.,0.,0.));
#299=CARTESIAN_POINT('',(14.,0.,-2.067));
#300=CARTESIAN_POINT('',(14.,0.,0.));
#301=CARTESIAN_POINT('',(15.193383006415,0.,0.));
#302=CARTESIAN_POINT('',(-23.,0.,0.));
#303=CARTESIAN_POINT('',(23.,0.,0.));
#304=MECHANICAL_DESIGN_GEOMETRIC_PRESENTATION_REPRESENTATION('',(#166),
#305);
#305=(
GEOMETRIC_REPRESENTATION_CONTEXT(3)
GLOBAL_UNCERTAINTY_ASSIGNED_CONTEXT((#307))
GLOBAL_UNIT_ASSIGNED_CONTEXT((#311,#310,#309))
REPRESENTATION_CONTEXT('546476 FRB-D-MAXI-U','TOP_LEVEL_ASSEMBLY_PART')
);
#306=(
GEOMETRIC_REPRESENTATION_CONTEXT(3)
GLOBAL_UNCERTAINTY_ASSIGNED_CONTEXT((#308))
GLOBAL_UNIT_ASSIGNED_CONTEXT((#311,#310,#309))
REPRESENTATION_CONTEXT('234370 FRB-D-MAXI','COMPONENT_PART')
);
#307=UNCERTAINTY_MEASURE_WITH_UNIT(LENGTH_MEASURE(0.005),#311,
'DISTANCE_ACCURACY_VALUE','Maximum Tolerance applied to model');
#308=UNCERTAINTY_MEASURE_WITH_UNIT(LENGTH_MEASURE(0.005),#311,
'DISTANCE_ACCURACY_VALUE','Maximum Tolerance applied to model');
#309=(
NAMED_UNIT(*)
SI_UNIT($,.STERADIAN.)
SOLID_ANGLE_UNIT()
);
#310=(
NAMED_UNIT(*)
PLANE_ANGLE_UNIT()
SI_UNIT($,.RADIAN.)
);
#311=(
LENGTH_UNIT()
NAMED_UNIT(*)
SI_UNIT(.MILLI.,.METRE.)
);
#312=PRODUCT_DEFINITION_SHAPE('','',#316);
#313=PRODUCT_DEFINITION_SHAPE('','',#317);
#314=PRODUCT_DEFINITION_SHAPE(' ','NAUO PRDDFN',#20);
#315=PRODUCT_DEFINITION_SHAPE(' ','NAUO PRDDFN',#21);
#316=PRODUCT_DEFINITION('','',#320,#318);
#317=PRODUCT_DEFINITION('','',#321,#319);
#318=PRODUCT_DEFINITION_CONTEXT('',#331,'design');
#319=PRODUCT_DEFINITION_CONTEXT('',#331,'design');
#320=PRODUCT_DEFINITION_FORMATION_WITH_SPECIFIED_SOURCE('','',#324,
 .NOT_KNOWN.);
#321=PRODUCT_DEFINITION_FORMATION_WITH_SPECIFIED_SOURCE('','',#325,
 .NOT_KNOWN.);
#322=PRODUCT_RELATED_PRODUCT_CATEGORY('','',(#324));
#323=PRODUCT_RELATED_PRODUCT_CATEGORY('','',(#325));
#324=PRODUCT('546476 FRB-D-MAXI-U','546476 FRB-D-MAXI-U',
'546476 FRB-D-MAXI-U',(#328));
#325=PRODUCT('234370 FRB-D-MAXI','234370 FRB-D-MAXI',
'234370 FRB-D-MAXI',(#329));
#326=PRODUCT_CATEGORY('','');
#327=PRODUCT_CATEGORY('','');
#328=PRODUCT_CONTEXT('',#331,'mechanical');
#329=PRODUCT_CONTEXT('',#331,'mechanical');
#330=APPLICATION_PROTOCOL_DEFINITION('international standard',
'automotive_design',2010,#331);
#331=APPLICATION_CONTEXT(
'core data for automotive mechanical design processes');
ENDSEC;
END-ISO-10303-21;
