ISO-10303-21;
HEADER;
/* Generated by software containing ST-Developer
 * from STEP Tools, Inc. (www.steptools.com) 
 */
/* OPTION: using custom renumber hook */

FILE_DESCRIPTION(
/* description */ ('STEP AP214'),
/* implementation_level */ '2;1');

FILE_NAME(
/* name */ '546483_LF_LOE-D-MINI',
/* time_stamp */ '2024-08-29T20:52:16+02:00',
/* author */ ('License CC BY-ND 4.0'),
/* organization */ ('CADENAS'),
/* preprocessor_version */ 'ST-DEVELOPER v19.3',
/* originating_system */ 'PARTsolutions',
/* authorisation */ '  ');

FILE_SCHEMA (('AUTOMOTIVE_DESIGN {1 0 10303 214 3 1 1}'));
ENDSEC;

DATA;
#10=PROPERTY_DEFINITION_REPRESENTATION(#14,#12);
#11=PROPERTY_DEFINITION_REPRESENTATION(#15,#13);
#12=REPRESENTATION('',(#16),#389);
#13=REPRESENTATION('',(#17),#389);
#14=PROPERTY_DEFINITION('pmi validation property','',#396);
#15=PROPERTY_DEFINITION('pmi validation property','',#396);
#16=VALUE_REPRESENTATION_ITEM('number of annotations',COUNT_MEASURE(0.));
#17=VALUE_REPRESENTATION_ITEM('number of views',COUNT_MEASURE(0.));
#18=CONTEXT_DEPENDENT_SHAPE_REPRESENTATION(#22,#398);
#19=CONTEXT_DEPENDENT_SHAPE_REPRESENTATION(#23,#399);
#20=NEXT_ASSEMBLY_USAGE_OCCURRENCE('NAUO1','359787 LF-D-MINI',
'359787 LF-D-MINI',#400,#401,'');
#21=NEXT_ASSEMBLY_USAGE_OCCURRENCE('NAUO2','359787 LF-D-MINI',
'359787 LF-D-MINI',#400,#401,'');
#22=(
REPRESENTATION_RELATIONSHIP(' ',' ',#225,#224)
REPRESENTATION_RELATIONSHIP_WITH_TRANSFORMATION(#24)
SHAPE_REPRESENTATION_RELATIONSHIP()
);
#23=(
REPRESENTATION_RELATIONSHIP(' ',' ',#225,#224)
REPRESENTATION_RELATIONSHIP_WITH_TRANSFORMATION(#25)
SHAPE_REPRESENTATION_RELATIONSHIP()
);
#24=ITEM_DEFINED_TRANSFORMATION(' ',' ',#226,#260);
#25=ITEM_DEFINED_TRANSFORMATION(' ',' ',#226,#261);
#26=SHAPE_REPRESENTATION_RELATIONSHIP('','',#225,#27);
#27=ADVANCED_BREP_SHAPE_REPRESENTATION('',(#221),#390);
#28=VERTEX_LOOP('',#104);
#29=VERTEX_LOOP('',#106);
#30=CYLINDRICAL_SURFACE('',#232,3.15);
#31=CYLINDRICAL_SURFACE('',#236,3.25);
#32=CYLINDRICAL_SURFACE('',#240,3.15);
#33=CYLINDRICAL_SURFACE('',#246,2.6);
#34=CYLINDRICAL_SURFACE('',#250,1.621);
#35=CYLINDRICAL_SURFACE('',#255,1.62100000000002);
#36=CYLINDRICAL_SURFACE('',#259,2.6);
#37=CONICAL_SURFACE('',#230,2.85,0.785398163397445);
#38=CONICAL_SURFACE('',#242,3.15,0.785398163397445);
#39=CONICAL_SURFACE('',#248,2.6,0.785398163397448);
#40=CONICAL_SURFACE('',#252,1.621,1.0471975511966);
#41=CONICAL_SURFACE('',#253,0.,1.0471975511966);
#42=CONICAL_SURFACE('',#257,1.62100000000002,0.78539816339744);
#43=ORIENTED_EDGE('',*,*,#75,.F.);
#44=ORIENTED_EDGE('',*,*,#76,.T.);
#45=ORIENTED_EDGE('',*,*,#77,.F.);
#46=ORIENTED_EDGE('',*,*,#75,.T.);
#47=ORIENTED_EDGE('',*,*,#78,.F.);
#48=ORIENTED_EDGE('',*,*,#77,.T.);
#49=ORIENTED_EDGE('',*,*,#79,.F.);
#50=ORIENTED_EDGE('',*,*,#78,.T.);
#51=ORIENTED_EDGE('',*,*,#80,.F.);
#52=ORIENTED_EDGE('',*,*,#79,.T.);
#53=ORIENTED_EDGE('',*,*,#81,.F.);
#54=ORIENTED_EDGE('',*,*,#80,.T.);
#55=ORIENTED_EDGE('',*,*,#82,.F.);
#56=ORIENTED_EDGE('',*,*,#81,.T.);
#57=ORIENTED_EDGE('',*,*,#83,.F.);
#58=ORIENTED_EDGE('',*,*,#82,.T.);
#59=ORIENTED_EDGE('',*,*,#84,.F.);
#60=ORIENTED_EDGE('',*,*,#83,.T.);
#61=ORIENTED_EDGE('',*,*,#85,.T.);
#62=ORIENTED_EDGE('',*,*,#76,.F.);
#63=ORIENTED_EDGE('',*,*,#86,.T.);
#64=ORIENTED_EDGE('',*,*,#85,.F.);
#65=ORIENTED_EDGE('',*,*,#87,.T.);
#66=ORIENTED_EDGE('',*,*,#86,.F.);
#67=ORIENTED_EDGE('',*,*,#87,.F.);
#68=ORIENTED_EDGE('',*,*,#88,.T.);
#69=ORIENTED_EDGE('',*,*,#89,.T.);
#70=ORIENTED_EDGE('',*,*,#88,.F.);
#71=ORIENTED_EDGE('',*,*,#90,.T.);
#72=ORIENTED_EDGE('',*,*,#89,.F.);
#73=ORIENTED_EDGE('',*,*,#84,.T.);
#74=ORIENTED_EDGE('',*,*,#90,.F.);
#75=EDGE_CURVE('',#91,#91,#109,.T.);
#76=EDGE_CURVE('',#92,#92,#110,.T.);
#77=EDGE_CURVE('',#93,#93,#111,.T.);
#78=EDGE_CURVE('',#94,#94,#112,.T.);
#79=EDGE_CURVE('',#95,#95,#113,.T.);
#80=EDGE_CURVE('',#96,#96,#114,.T.);
#81=EDGE_CURVE('',#97,#97,#115,.T.);
#82=EDGE_CURVE('',#98,#98,#116,.T.);
#83=EDGE_CURVE('',#99,#99,#117,.T.);
#84=EDGE_CURVE('',#100,#100,#118,.T.);
#85=EDGE_CURVE('',#101,#101,#119,.T.);
#86=EDGE_CURVE('',#102,#102,#120,.T.);
#87=EDGE_CURVE('',#103,#103,#121,.T.);
#88=EDGE_CURVE('',#105,#105,#122,.T.);
#89=EDGE_CURVE('',#107,#107,#123,.T.);
#90=EDGE_CURVE('',#108,#108,#124,.T.);
#91=VERTEX_POINT('',#337);
#92=VERTEX_POINT('',#339);
#93=VERTEX_POINT('',#342);
#94=VERTEX_POINT('',#345);
#95=VERTEX_POINT('',#348);
#96=VERTEX_POINT('',#351);
#97=VERTEX_POINT('',#354);
#98=VERTEX_POINT('',#357);
#99=VERTEX_POINT('',#360);
#100=VERTEX_POINT('',#363);
#101=VERTEX_POINT('',#366);
#102=VERTEX_POINT('',#369);
#103=VERTEX_POINT('',#372);
#104=VERTEX_POINT('',#374);
#105=VERTEX_POINT('',#377);
#106=VERTEX_POINT('',#378);
#107=VERTEX_POINT('',#381);
#108=VERTEX_POINT('',#384);
#109=CIRCLE('',#228,2.85);
#110=CIRCLE('',#229,2.6);
#111=CIRCLE('',#231,3.15);
#112=CIRCLE('',#233,3.15);
#113=CIRCLE('',#235,3.25);
#114=CIRCLE('',#237,3.25);
#115=CIRCLE('',#239,3.15);
#116=CIRCLE('',#241,3.15);
#117=CIRCLE('',#243,2.85);
#118=CIRCLE('',#245,2.6);
#119=CIRCLE('',#247,2.6);
#120=CIRCLE('',#249,1.621);
#121=CIRCLE('',#251,1.621);
#122=CIRCLE('',#254,1.62100000000002);
#123=CIRCLE('',#256,1.62100000000002);
#124=CIRCLE('',#258,2.6);
#125=EDGE_LOOP('',(#43));
#126=EDGE_LOOP('',(#44));
#127=EDGE_LOOP('',(#45));
#128=EDGE_LOOP('',(#46));
#129=EDGE_LOOP('',(#47));
#130=EDGE_LOOP('',(#48));
#131=EDGE_LOOP('',(#49));
#132=EDGE_LOOP('',(#50));
#133=EDGE_LOOP('',(#51));
#134=EDGE_LOOP('',(#52));
#135=EDGE_LOOP('',(#53));
#136=EDGE_LOOP('',(#54));
#137=EDGE_LOOP('',(#55));
#138=EDGE_LOOP('',(#56));
#139=EDGE_LOOP('',(#57));
#140=EDGE_LOOP('',(#58));
#141=EDGE_LOOP('',(#59));
#142=EDGE_LOOP('',(#60));
#143=EDGE_LOOP('',(#61));
#144=EDGE_LOOP('',(#62));
#145=EDGE_LOOP('',(#63));
#146=EDGE_LOOP('',(#64));
#147=EDGE_LOOP('',(#65));
#148=EDGE_LOOP('',(#66));
#149=EDGE_LOOP('',(#67));
#150=EDGE_LOOP('',(#68));
#151=EDGE_LOOP('',(#69));
#152=EDGE_LOOP('',(#70));
#153=EDGE_LOOP('',(#71));
#154=EDGE_LOOP('',(#72));
#155=EDGE_LOOP('',(#73));
#156=EDGE_LOOP('',(#74));
#157=FACE_BOUND('',#125,.T.);
#158=FACE_BOUND('',#126,.T.);
#159=FACE_BOUND('',#127,.T.);
#160=FACE_BOUND('',#128,.T.);
#161=FACE_BOUND('',#129,.T.);
#162=FACE_BOUND('',#130,.T.);
#163=FACE_BOUND('',#131,.T.);
#164=FACE_BOUND('',#132,.T.);
#165=FACE_BOUND('',#133,.T.);
#166=FACE_BOUND('',#134,.T.);
#167=FACE_BOUND('',#135,.T.);
#168=FACE_BOUND('',#136,.T.);
#169=FACE_BOUND('',#137,.T.);
#170=FACE_BOUND('',#138,.T.);
#171=FACE_BOUND('',#139,.T.);
#172=FACE_BOUND('',#140,.T.);
#173=FACE_BOUND('',#141,.T.);
#174=FACE_BOUND('',#142,.T.);
#175=FACE_BOUND('',#143,.T.);
#176=FACE_BOUND('',#144,.T.);
#177=FACE_BOUND('',#145,.T.);
#178=FACE_BOUND('',#146,.T.);
#179=FACE_BOUND('',#147,.T.);
#180=FACE_BOUND('',#148,.T.);
#181=FACE_BOUND('',#28,.T.);
#182=FACE_BOUND('',#149,.T.);
#183=FACE_BOUND('',#150,.T.);
#184=FACE_BOUND('',#29,.T.);
#185=FACE_BOUND('',#151,.T.);
#186=FACE_BOUND('',#152,.T.);
#187=FACE_BOUND('',#153,.T.);
#188=FACE_BOUND('',#154,.T.);
#189=FACE_BOUND('',#155,.T.);
#190=FACE_BOUND('',#156,.T.);
#191=PLANE('',#227);
#192=PLANE('',#234);
#193=PLANE('',#238);
#194=PLANE('',#244);
#195=ADVANCED_FACE('',(#157,#158),#191,.F.);
#196=ADVANCED_FACE('',(#159,#160),#37,.T.);
#197=ADVANCED_FACE('',(#161,#162),#30,.T.);
#198=ADVANCED_FACE('',(#163,#164),#192,.F.);
#199=ADVANCED_FACE('',(#165,#166),#31,.T.);
#200=ADVANCED_FACE('',(#167,#168),#193,.F.);
#201=ADVANCED_FACE('',(#169,#170),#32,.T.);
#202=ADVANCED_FACE('',(#171,#172),#38,.T.);
#203=ADVANCED_FACE('',(#173,#174),#194,.F.);
#204=ADVANCED_FACE('',(#175,#176),#33,.F.);
#205=ADVANCED_FACE('',(#177,#178),#39,.F.);
#206=ADVANCED_FACE('',(#179,#180),#34,.F.);
#207=ADVANCED_FACE('',(#181,#182),#40,.F.);
#208=ADVANCED_FACE('',(#183,#184),#41,.F.);
#209=ADVANCED_FACE('',(#185,#186),#35,.F.);
#210=ADVANCED_FACE('',(#187,#188),#42,.F.);
#211=ADVANCED_FACE('',(#189,#190),#36,.F.);
#212=CLOSED_SHELL('',(#195,#196,#197,#198,#199,#200,#201,#202,#203,#204,
#205,#206,#207,#208,#209,#210,#211));
#213=STYLED_ITEM('',(#214),#221);
#214=PRESENTATION_STYLE_ASSIGNMENT((#215));
#215=SURFACE_STYLE_USAGE(.BOTH.,#216);
#216=SURFACE_SIDE_STYLE('',(#217));
#217=SURFACE_STYLE_FILL_AREA(#218);
#218=FILL_AREA_STYLE('',(#219));
#219=FILL_AREA_STYLE_COLOUR('',#220);
#220=COLOUR_RGB('',0.689999997615814,0.689999997615814,0.689999997615814);
#221=MANIFOLD_SOLID_BREP('359787 LF-D-MINI',#212);
#222=SHAPE_DEFINITION_REPRESENTATION(#396,#224);
#223=SHAPE_DEFINITION_REPRESENTATION(#397,#225);
#224=SHAPE_REPRESENTATION('546483 LF/LOE-D-MINI',(#226,#260,#261),#389);
#225=SHAPE_REPRESENTATION('359787 LF-D-MINI',(#226),#390);
#226=AXIS2_PLACEMENT_3D('',#334,#262,#263);
#227=AXIS2_PLACEMENT_3D('',#335,#264,#265);
#228=AXIS2_PLACEMENT_3D('',#336,#266,#267);
#229=AXIS2_PLACEMENT_3D('',#338,#268,#269);
#230=AXIS2_PLACEMENT_3D('',#340,#270,#271);
#231=AXIS2_PLACEMENT_3D('',#341,#272,#273);
#232=AXIS2_PLACEMENT_3D('',#343,#274,#275);
#233=AXIS2_PLACEMENT_3D('',#344,#276,#277);
#234=AXIS2_PLACEMENT_3D('',#346,#278,#279);
#235=AXIS2_PLACEMENT_3D('',#347,#280,#281);
#236=AXIS2_PLACEMENT_3D('',#349,#282,#283);
#237=AXIS2_PLACEMENT_3D('',#350,#284,#285);
#238=AXIS2_PLACEMENT_3D('',#352,#286,#287);
#239=AXIS2_PLACEMENT_3D('',#353,#288,#289);
#240=AXIS2_PLACEMENT_3D('',#355,#290,#291);
#241=AXIS2_PLACEMENT_3D('',#356,#292,#293);
#242=AXIS2_PLACEMENT_3D('',#358,#294,#295);
#243=AXIS2_PLACEMENT_3D('',#359,#296,#297);
#244=AXIS2_PLACEMENT_3D('',#361,#298,#299);
#245=AXIS2_PLACEMENT_3D('',#362,#300,#301);
#246=AXIS2_PLACEMENT_3D('',#364,#302,#303);
#247=AXIS2_PLACEMENT_3D('',#365,#304,#305);
#248=AXIS2_PLACEMENT_3D('',#367,#306,#307);
#249=AXIS2_PLACEMENT_3D('',#368,#308,#309);
#250=AXIS2_PLACEMENT_3D('',#370,#310,#311);
#251=AXIS2_PLACEMENT_3D('',#371,#312,#313);
#252=AXIS2_PLACEMENT_3D('',#373,#314,#315);
#253=AXIS2_PLACEMENT_3D('',#375,#316,#317);
#254=AXIS2_PLACEMENT_3D('',#376,#318,#319);
#255=AXIS2_PLACEMENT_3D('',#379,#320,#321);
#256=AXIS2_PLACEMENT_3D('',#380,#322,#323);
#257=AXIS2_PLACEMENT_3D('',#382,#324,#325);
#258=AXIS2_PLACEMENT_3D('',#383,#326,#327);
#259=AXIS2_PLACEMENT_3D('',#385,#328,#329);
#260=AXIS2_PLACEMENT_3D('',#386,#330,#331);
#261=AXIS2_PLACEMENT_3D('',#387,#332,#333);
#262=DIRECTION('',(0.,0.,1.));
#263=DIRECTION('',(1.,0.,0.));
#264=DIRECTION('',(1.,0.,0.));
#265=DIRECTION('',(0.,0.,-1.));
#266=DIRECTION('',(1.,0.,0.));
#267=DIRECTION('',(0.,0.,-1.));
#268=DIRECTION('',(1.,-1.99166224758132E-18,0.));
#269=DIRECTION('',(1.99166224758132E-18,1.,0.));
#270=DIRECTION('',(1.,0.,0.));
#271=DIRECTION('',(0.,0.,-1.));
#272=DIRECTION('',(1.,0.,0.));
#273=DIRECTION('',(0.,0.,-1.));
#274=DIRECTION('',(1.,0.,0.));
#275=DIRECTION('',(0.,0.,-1.));
#276=DIRECTION('',(1.,0.,0.));
#277=DIRECTION('',(0.,0.,-1.));
#278=DIRECTION('',(1.,0.,0.));
#279=DIRECTION('',(0.,0.,-1.));
#280=DIRECTION('',(1.,0.,0.));
#281=DIRECTION('',(0.,0.,-1.));
#282=DIRECTION('',(1.,0.,0.));
#283=DIRECTION('',(0.,0.,-1.));
#284=DIRECTION('',(1.,0.,0.));
#285=DIRECTION('',(0.,0.,-1.));
#286=DIRECTION('',(-1.,0.,0.));
#287=DIRECTION('',(0.,0.,1.));
#288=DIRECTION('',(1.,0.,0.));
#289=DIRECTION('',(0.,0.,-1.));
#290=DIRECTION('',(1.,0.,0.));
#291=DIRECTION('',(0.,0.,-1.));
#292=DIRECTION('',(1.,0.,0.));
#293=DIRECTION('',(0.,0.,-1.));
#294=DIRECTION('',(-1.,0.,0.));
#295=DIRECTION('',(0.,0.,1.));
#296=DIRECTION('',(1.,0.,0.));
#297=DIRECTION('',(0.,0.,-1.));
#298=DIRECTION('',(-1.,0.,0.));
#299=DIRECTION('',(0.,0.,1.));
#300=DIRECTION('',(1.,-1.99166224758132E-18,0.));
#301=DIRECTION('',(1.99166224758132E-18,1.,0.));
#302=DIRECTION('',(1.,-1.99166224758132E-18,0.));
#303=DIRECTION('',(1.99166224758132E-18,1.,0.));
#304=DIRECTION('',(1.,-1.99166224758132E-18,0.));
#305=DIRECTION('',(1.99166224758132E-18,1.,0.));
#306=DIRECTION('',(-1.,1.99166224758132E-18,0.));
#307=DIRECTION('',(-1.99166224758132E-18,-1.,0.));
#308=DIRECTION('',(1.,-1.99166224758132E-18,0.));
#309=DIRECTION('',(1.99166224758132E-18,1.,0.));
#310=DIRECTION('',(1.,-1.99166224758132E-18,0.));
#311=DIRECTION('',(1.99166224758132E-18,1.,0.));
#312=DIRECTION('',(1.,-1.99166224758132E-18,0.));
#313=DIRECTION('',(1.99166224758132E-18,1.,0.));
#314=DIRECTION('',(-1.,1.99166224758132E-18,0.));
#315=DIRECTION('',(-1.99166224758132E-18,-1.,0.));
#316=DIRECTION('',(1.,-1.99166224758132E-18,0.));
#317=DIRECTION('',(1.99166224758132E-18,1.,0.));
#318=DIRECTION('',(1.,-1.99166224758132E-18,0.));
#319=DIRECTION('',(1.99166224758132E-18,1.,0.));
#320=DIRECTION('',(1.,-1.99166224758132E-18,0.));
#321=DIRECTION('',(1.99166224758132E-18,1.,0.));
#322=DIRECTION('',(1.,-1.99166224758132E-18,0.));
#323=DIRECTION('',(1.99166224758132E-18,1.,0.));
#324=DIRECTION('',(1.,-1.99166224758132E-18,0.));
#325=DIRECTION('',(1.99166224758132E-18,1.,0.));
#326=DIRECTION('',(1.,-1.99166224758132E-18,0.));
#327=DIRECTION('',(1.99166224758132E-18,1.,0.));
#328=DIRECTION('',(1.,-1.99166224758132E-18,0.));
#329=DIRECTION('',(1.99166224758132E-18,1.,0.));
#330=DIRECTION('',(0.,0.,1.));
#331=DIRECTION('',(1.,0.,0.));
#332=DIRECTION('',(0.,0.,1.));
#333=DIRECTION('',(1.,0.,0.));
#334=CARTESIAN_POINT('',(0.,0.,0.));
#335=CARTESIAN_POINT('',(0.,0.,0.));
#336=CARTESIAN_POINT('',(0.,0.,0.));
#337=CARTESIAN_POINT('',(0.,0.,-2.85));
#338=CARTESIAN_POINT('',(0.,0.,0.));
#339=CARTESIAN_POINT('',(5.17832184371144E-18,2.6,0.));
#340=CARTESIAN_POINT('',(0.,0.,0.));
#341=CARTESIAN_POINT('',(0.300000000000002,0.,0.));
#342=CARTESIAN_POINT('',(0.300000000000002,0.,-3.15));
#343=CARTESIAN_POINT('',(39.7,0.,0.));
#344=CARTESIAN_POINT('',(18.1,0.,0.));
#345=CARTESIAN_POINT('',(18.1,0.,-3.15));
#346=CARTESIAN_POINT('',(18.1,3.15,0.));
#347=CARTESIAN_POINT('',(18.1,0.,0.));
#348=CARTESIAN_POINT('',(18.1,0.,-3.25));
#349=CARTESIAN_POINT('',(39.7,0.,0.));
#350=CARTESIAN_POINT('',(21.6,0.,0.));
#351=CARTESIAN_POINT('',(21.6,0.,-3.25));
#352=CARTESIAN_POINT('',(21.6,3.25,0.));
#353=CARTESIAN_POINT('',(21.6,0.,0.));
#354=CARTESIAN_POINT('',(21.6,0.,-3.15));
#355=CARTESIAN_POINT('',(39.7,0.,0.));
#356=CARTESIAN_POINT('',(39.4,0.,0.));
#357=CARTESIAN_POINT('',(39.4,0.,-3.15));
#358=CARTESIAN_POINT('',(39.4,0.,0.));
#359=CARTESIAN_POINT('',(39.7,0.,0.));
#360=CARTESIAN_POINT('',(39.7,0.,-2.85));
#361=CARTESIAN_POINT('',(39.7,2.85,0.));
#362=CARTESIAN_POINT('',(39.7,1.03134681219458E-35,0.));
#363=CARTESIAN_POINT('',(39.7,2.6,0.));
#364=CARTESIAN_POINT('',(13.9358847863564,-2.77555756156289E-17,0.));
#365=CARTESIAN_POINT('',(0.5,-9.95831123790663E-19,0.));
#366=CARTESIAN_POINT('',(0.5,2.6,0.));
#367=CARTESIAN_POINT('',(0.5,-9.95831123790663E-19,0.));
#368=CARTESIAN_POINT('',(1.479,-2.94566846417278E-18,0.));
#369=CARTESIAN_POINT('',(1.479,1.621,0.));
#370=CARTESIAN_POINT('',(13.9358847863564,-2.77555756156289E-17,0.));
#371=CARTESIAN_POINT('',(13.,-2.58916092185572E-17,0.));
#372=CARTESIAN_POINT('',(13.,1.621,0.));
#373=CARTESIAN_POINT('',(13.,-2.58916092185572E-17,0.));
#374=CARTESIAN_POINT('',(13.9358847863564,-2.16840434497101E-16,0.));
#375=CARTESIAN_POINT('',(25.7641152136436,2.77555756156289E-17,0.));
#376=CARTESIAN_POINT('',(26.7,2.58916092185572E-17,0.));
#377=CARTESIAN_POINT('',(26.7,1.62100000000002,0.));
#378=CARTESIAN_POINT('',(25.7641152136436,2.77555756156289E-17,0.));
#379=CARTESIAN_POINT('',(39.7,0.,0.));
#380=CARTESIAN_POINT('',(38.221,2.94566846417278E-18,0.));
#381=CARTESIAN_POINT('',(38.221,1.62100000000002,0.));
#382=CARTESIAN_POINT('',(38.221,2.94566846417278E-18,0.));
#383=CARTESIAN_POINT('',(39.2,9.95831123790662E-19,0.));
#384=CARTESIAN_POINT('',(39.2,2.6,0.));
#385=CARTESIAN_POINT('',(39.7,0.,0.));
#386=CARTESIAN_POINT('',(0.,0.,15.));
#387=CARTESIAN_POINT('',(0.,0.,-15.));
#388=MECHANICAL_DESIGN_GEOMETRIC_PRESENTATION_REPRESENTATION('',(#213),
#389);
#389=(
GEOMETRIC_REPRESENTATION_CONTEXT(3)
GLOBAL_UNCERTAINTY_ASSIGNED_CONTEXT((#391))
GLOBAL_UNIT_ASSIGNED_CONTEXT((#395,#394,#393))
REPRESENTATION_CONTEXT('546483 LF/LOE-D-MINI','TOP_LEVEL_ASSEMBLY_PART')
);
#390=(
GEOMETRIC_REPRESENTATION_CONTEXT(3)
GLOBAL_UNCERTAINTY_ASSIGNED_CONTEXT((#392))
GLOBAL_UNIT_ASSIGNED_CONTEXT((#395,#394,#393))
REPRESENTATION_CONTEXT('359787 LF-D-MINI','COMPONENT_PART')
);
#391=UNCERTAINTY_MEASURE_WITH_UNIT(LENGTH_MEASURE(0.005),#395,
'DISTANCE_ACCURACY_VALUE','Maximum Tolerance applied to model');
#392=UNCERTAINTY_MEASURE_WITH_UNIT(LENGTH_MEASURE(0.005),#395,
'DISTANCE_ACCURACY_VALUE','Maximum Tolerance applied to model');
#393=(
NAMED_UNIT(*)
SI_UNIT($,.STERADIAN.)
SOLID_ANGLE_UNIT()
);
#394=(
NAMED_UNIT(*)
PLANE_ANGLE_UNIT()
SI_UNIT($,.RADIAN.)
);
#395=(
LENGTH_UNIT()
NAMED_UNIT(*)
SI_UNIT(.MILLI.,.METRE.)
);
#396=PRODUCT_DEFINITION_SHAPE('','',#400);
#397=PRODUCT_DEFINITION_SHAPE('','',#401);
#398=PRODUCT_DEFINITION_SHAPE(' ','NAUO PRDDFN',#20);
#399=PRODUCT_DEFINITION_SHAPE(' ','NAUO PRDDFN',#21);
#400=PRODUCT_DEFINITION('','',#404,#402);
#401=PRODUCT_DEFINITION('','',#405,#403);
#402=PRODUCT_DEFINITION_CONTEXT('',#415,'design');
#403=PRODUCT_DEFINITION_CONTEXT('',#415,'design');
#404=PRODUCT_DEFINITION_FORMATION_WITH_SPECIFIED_SOURCE('','',#408,
 .NOT_KNOWN.);
#405=PRODUCT_DEFINITION_FORMATION_WITH_SPECIFIED_SOURCE('','',#409,
 .NOT_KNOWN.);
#406=PRODUCT_RELATED_PRODUCT_CATEGORY('','',(#408));
#407=PRODUCT_RELATED_PRODUCT_CATEGORY('','',(#409));
#408=PRODUCT('546483 LF/LOE-D-MINI','546483 LF/LOE-D-MINI',
'546483 LF/LOE-D-MINI',(#412));
#409=PRODUCT('359787 LF-D-MINI','359787 LF-D-MINI','359787 LF-D-MINI',(#413));
#410=PRODUCT_CATEGORY('','');
#411=PRODUCT_CATEGORY('','');
#412=PRODUCT_CONTEXT('',#415,'mechanical');
#413=PRODUCT_CONTEXT('',#415,'mechanical');
#414=APPLICATION_PROTOCOL_DEFINITION('international standard',
'automotive_design',2010,#415);
#415=APPLICATION_CONTEXT(
'core data for automotive mechanical design processes');
ENDSEC;
END-ISO-10303-21;
