ISO-10303-21;
HEADER;
/* Generated by software containing ST-Developer
 * from STEP Tools, Inc. (www.steptools.com) 
 */
/* OPTION: using custom renumber hook */

FILE_DESCRIPTION(
/* description */ ('STEP AP214'),
/* implementation_level */ '2;1');

FILE_NAME(
/* name */ '546489_LF_LOE-D-MIDI',
/* time_stamp */ '2024-08-29T20:51:35+02:00',
/* author */ ('License CC BY-ND 4.0'),
/* organization */ ('CADENAS'),
/* preprocessor_version */ 'ST-DEVELOPER v19.3',
/* originating_system */ 'PARTsolutions',
/* authorisation */ '  ');

FILE_SCHEMA (('AUTOMOTIVE_DESIGN {1 0 10303 214 3 1 1}'));
ENDSEC;

DATA;
#10=PROPERTY_DEFINITION_REPRESENTATION(#14,#12);
#11=PROPERTY_DEFINITION_REPRESENTATION(#15,#13);
#12=REPRESENTATION('',(#16),#349);
#13=REPRESENTATION('',(#17),#349);
#14=PROPERTY_DEFINITION('pmi validation property','',#356);
#15=PROPERTY_DEFINITION('pmi validation property','',#356);
#16=VALUE_REPRESENTATION_ITEM('number of annotations',COUNT_MEASURE(0.));
#17=VALUE_REPRESENTATION_ITEM('number of views',COUNT_MEASURE(0.));
#18=CONTEXT_DEPENDENT_SHAPE_REPRESENTATION(#22,#358);
#19=CONTEXT_DEPENDENT_SHAPE_REPRESENTATION(#23,#359);
#20=NEXT_ASSEMBLY_USAGE_OCCURRENCE('NAUO1','369989 LF-D-MIDI',
'369989 LF-D-MIDI',#360,#361,'');
#21=NEXT_ASSEMBLY_USAGE_OCCURRENCE('NAUO2','369989 LF-D-MIDI',
'369989 LF-D-MIDI',#360,#361,'');
#22=(
REPRESENTATION_RELATIONSHIP(' ',' ',#203,#202)
REPRESENTATION_RELATIONSHIP_WITH_TRANSFORMATION(#24)
SHAPE_REPRESENTATION_RELATIONSHIP()
);
#23=(
REPRESENTATION_RELATIONSHIP(' ',' ',#203,#202)
REPRESENTATION_RELATIONSHIP_WITH_TRANSFORMATION(#25)
SHAPE_REPRESENTATION_RELATIONSHIP()
);
#24=ITEM_DEFINED_TRANSFORMATION(' ',' ',#204,#234);
#25=ITEM_DEFINED_TRANSFORMATION(' ',' ',#204,#235);
#26=SHAPE_REPRESENTATION_RELATIONSHIP('','',#203,#27);
#27=ADVANCED_BREP_SHAPE_REPRESENTATION('',(#199),#350);
#28=VERTEX_LOOP('',#95);
#29=VERTEX_LOOP('',#97);
#30=CYLINDRICAL_SURFACE('',#210,3.65);
#31=CYLINDRICAL_SURFACE('',#214,3.75);
#32=CYLINDRICAL_SURFACE('',#218,3.65);
#33=CYLINDRICAL_SURFACE('',#226,2.067);
#34=CYLINDRICAL_SURFACE('',#231,2.067);
#35=CONICAL_SURFACE('',#208,3.15,0.785398163397448);
#36=CONICAL_SURFACE('',#220,3.65,0.785398163397448);
#37=CONICAL_SURFACE('',#224,2.5,0.785398163397449);
#38=CONICAL_SURFACE('',#228,2.067,1.0471975511966);
#39=CONICAL_SURFACE('',#229,0.,1.0471975511966);
#40=CONICAL_SURFACE('',#233,2.067,0.785398163397445);
#41=ORIENTED_EDGE('',*,*,#69,.F.);
#42=ORIENTED_EDGE('',*,*,#70,.T.);
#43=ORIENTED_EDGE('',*,*,#71,.F.);
#44=ORIENTED_EDGE('',*,*,#69,.T.);
#45=ORIENTED_EDGE('',*,*,#72,.F.);
#46=ORIENTED_EDGE('',*,*,#71,.T.);
#47=ORIENTED_EDGE('',*,*,#73,.F.);
#48=ORIENTED_EDGE('',*,*,#72,.T.);
#49=ORIENTED_EDGE('',*,*,#74,.F.);
#50=ORIENTED_EDGE('',*,*,#73,.T.);
#51=ORIENTED_EDGE('',*,*,#75,.F.);
#52=ORIENTED_EDGE('',*,*,#74,.T.);
#53=ORIENTED_EDGE('',*,*,#76,.F.);
#54=ORIENTED_EDGE('',*,*,#75,.T.);
#55=ORIENTED_EDGE('',*,*,#77,.F.);
#56=ORIENTED_EDGE('',*,*,#76,.T.);
#57=ORIENTED_EDGE('',*,*,#78,.F.);
#58=ORIENTED_EDGE('',*,*,#77,.T.);
#59=ORIENTED_EDGE('',*,*,#79,.T.);
#60=ORIENTED_EDGE('',*,*,#70,.F.);
#61=ORIENTED_EDGE('',*,*,#80,.T.);
#62=ORIENTED_EDGE('',*,*,#79,.F.);
#63=ORIENTED_EDGE('',*,*,#80,.F.);
#64=ORIENTED_EDGE('',*,*,#81,.T.);
#65=ORIENTED_EDGE('',*,*,#82,.T.);
#66=ORIENTED_EDGE('',*,*,#81,.F.);
#67=ORIENTED_EDGE('',*,*,#78,.T.);
#68=ORIENTED_EDGE('',*,*,#82,.F.);
#69=EDGE_CURVE('',#83,#83,#99,.T.);
#70=EDGE_CURVE('',#84,#84,#100,.T.);
#71=EDGE_CURVE('',#85,#85,#101,.T.);
#72=EDGE_CURVE('',#86,#86,#102,.T.);
#73=EDGE_CURVE('',#87,#87,#103,.T.);
#74=EDGE_CURVE('',#88,#88,#104,.T.);
#75=EDGE_CURVE('',#89,#89,#105,.T.);
#76=EDGE_CURVE('',#90,#90,#106,.T.);
#77=EDGE_CURVE('',#91,#91,#107,.T.);
#78=EDGE_CURVE('',#92,#92,#108,.T.);
#79=EDGE_CURVE('',#93,#93,#109,.T.);
#80=EDGE_CURVE('',#94,#94,#110,.T.);
#81=EDGE_CURVE('',#96,#96,#111,.T.);
#82=EDGE_CURVE('',#98,#98,#112,.T.);
#83=VERTEX_POINT('',#303);
#84=VERTEX_POINT('',#305);
#85=VERTEX_POINT('',#308);
#86=VERTEX_POINT('',#311);
#87=VERTEX_POINT('',#314);
#88=VERTEX_POINT('',#317);
#89=VERTEX_POINT('',#320);
#90=VERTEX_POINT('',#323);
#91=VERTEX_POINT('',#326);
#92=VERTEX_POINT('',#329);
#93=VERTEX_POINT('',#332);
#94=VERTEX_POINT('',#335);
#95=VERTEX_POINT('',#337);
#96=VERTEX_POINT('',#340);
#97=VERTEX_POINT('',#341);
#98=VERTEX_POINT('',#344);
#99=CIRCLE('',#206,3.15);
#100=CIRCLE('',#207,2.5);
#101=CIRCLE('',#209,3.65);
#102=CIRCLE('',#211,3.65);
#103=CIRCLE('',#213,3.75);
#104=CIRCLE('',#215,3.75);
#105=CIRCLE('',#217,3.65);
#106=CIRCLE('',#219,3.65);
#107=CIRCLE('',#221,3.15);
#108=CIRCLE('',#223,2.5);
#109=CIRCLE('',#225,2.067);
#110=CIRCLE('',#227,2.067);
#111=CIRCLE('',#230,2.067);
#112=CIRCLE('',#232,2.067);
#113=EDGE_LOOP('',(#41));
#114=EDGE_LOOP('',(#42));
#115=EDGE_LOOP('',(#43));
#116=EDGE_LOOP('',(#44));
#117=EDGE_LOOP('',(#45));
#118=EDGE_LOOP('',(#46));
#119=EDGE_LOOP('',(#47));
#120=EDGE_LOOP('',(#48));
#121=EDGE_LOOP('',(#49));
#122=EDGE_LOOP('',(#50));
#123=EDGE_LOOP('',(#51));
#124=EDGE_LOOP('',(#52));
#125=EDGE_LOOP('',(#53));
#126=EDGE_LOOP('',(#54));
#127=EDGE_LOOP('',(#55));
#128=EDGE_LOOP('',(#56));
#129=EDGE_LOOP('',(#57));
#130=EDGE_LOOP('',(#58));
#131=EDGE_LOOP('',(#59));
#132=EDGE_LOOP('',(#60));
#133=EDGE_LOOP('',(#61));
#134=EDGE_LOOP('',(#62));
#135=EDGE_LOOP('',(#63));
#136=EDGE_LOOP('',(#64));
#137=EDGE_LOOP('',(#65));
#138=EDGE_LOOP('',(#66));
#139=EDGE_LOOP('',(#67));
#140=EDGE_LOOP('',(#68));
#141=FACE_BOUND('',#113,.T.);
#142=FACE_BOUND('',#114,.T.);
#143=FACE_BOUND('',#115,.T.);
#144=FACE_BOUND('',#116,.T.);
#145=FACE_BOUND('',#117,.T.);
#146=FACE_BOUND('',#118,.T.);
#147=FACE_BOUND('',#119,.T.);
#148=FACE_BOUND('',#120,.T.);
#149=FACE_BOUND('',#121,.T.);
#150=FACE_BOUND('',#122,.T.);
#151=FACE_BOUND('',#123,.T.);
#152=FACE_BOUND('',#124,.T.);
#153=FACE_BOUND('',#125,.T.);
#154=FACE_BOUND('',#126,.T.);
#155=FACE_BOUND('',#127,.T.);
#156=FACE_BOUND('',#128,.T.);
#157=FACE_BOUND('',#129,.T.);
#158=FACE_BOUND('',#130,.T.);
#159=FACE_BOUND('',#131,.T.);
#160=FACE_BOUND('',#132,.T.);
#161=FACE_BOUND('',#133,.T.);
#162=FACE_BOUND('',#134,.T.);
#163=FACE_BOUND('',#28,.T.);
#164=FACE_BOUND('',#135,.T.);
#165=FACE_BOUND('',#136,.T.);
#166=FACE_BOUND('',#29,.T.);
#167=FACE_BOUND('',#137,.T.);
#168=FACE_BOUND('',#138,.T.);
#169=FACE_BOUND('',#139,.T.);
#170=FACE_BOUND('',#140,.T.);
#171=PLANE('',#205);
#172=PLANE('',#212);
#173=PLANE('',#216);
#174=PLANE('',#222);
#175=ADVANCED_FACE('',(#141,#142),#171,.F.);
#176=ADVANCED_FACE('',(#143,#144),#35,.T.);
#177=ADVANCED_FACE('',(#145,#146),#30,.T.);
#178=ADVANCED_FACE('',(#147,#148),#172,.F.);
#179=ADVANCED_FACE('',(#149,#150),#31,.T.);
#180=ADVANCED_FACE('',(#151,#152),#173,.F.);
#181=ADVANCED_FACE('',(#153,#154),#32,.T.);
#182=ADVANCED_FACE('',(#155,#156),#36,.T.);
#183=ADVANCED_FACE('',(#157,#158),#174,.F.);
#184=ADVANCED_FACE('',(#159,#160),#37,.F.);
#185=ADVANCED_FACE('',(#161,#162),#33,.F.);
#186=ADVANCED_FACE('',(#163,#164),#38,.F.);
#187=ADVANCED_FACE('',(#165,#166),#39,.F.);
#188=ADVANCED_FACE('',(#167,#168),#34,.F.);
#189=ADVANCED_FACE('',(#169,#170),#40,.F.);
#190=CLOSED_SHELL('',(#175,#176,#177,#178,#179,#180,#181,#182,#183,#184,
#185,#186,#187,#188,#189));
#191=STYLED_ITEM('',(#192),#199);
#192=PRESENTATION_STYLE_ASSIGNMENT((#193));
#193=SURFACE_STYLE_USAGE(.BOTH.,#194);
#194=SURFACE_SIDE_STYLE('',(#195));
#195=SURFACE_STYLE_FILL_AREA(#196);
#196=FILL_AREA_STYLE('',(#197));
#197=FILL_AREA_STYLE_COLOUR('',#198);
#198=COLOUR_RGB('',0.689999997615814,0.689999997615814,0.689999997615814);
#199=MANIFOLD_SOLID_BREP('369989 LF-D-MIDI',#190);
#200=SHAPE_DEFINITION_REPRESENTATION(#356,#202);
#201=SHAPE_DEFINITION_REPRESENTATION(#357,#203);
#202=SHAPE_REPRESENTATION('546489 LF/LOE-D-MIDI',(#204,#234,#235),#349);
#203=SHAPE_REPRESENTATION('369989 LF-D-MIDI',(#204),#350);
#204=AXIS2_PLACEMENT_3D('',#300,#236,#237);
#205=AXIS2_PLACEMENT_3D('',#301,#238,#239);
#206=AXIS2_PLACEMENT_3D('',#302,#240,#241);
#207=AXIS2_PLACEMENT_3D('',#304,#242,#243);
#208=AXIS2_PLACEMENT_3D('',#306,#244,#245);
#209=AXIS2_PLACEMENT_3D('',#307,#246,#247);
#210=AXIS2_PLACEMENT_3D('',#309,#248,#249);
#211=AXIS2_PLACEMENT_3D('',#310,#250,#251);
#212=AXIS2_PLACEMENT_3D('',#312,#252,#253);
#213=AXIS2_PLACEMENT_3D('',#313,#254,#255);
#214=AXIS2_PLACEMENT_3D('',#315,#256,#257);
#215=AXIS2_PLACEMENT_3D('',#316,#258,#259);
#216=AXIS2_PLACEMENT_3D('',#318,#260,#261);
#217=AXIS2_PLACEMENT_3D('',#319,#262,#263);
#218=AXIS2_PLACEMENT_3D('',#321,#264,#265);
#219=AXIS2_PLACEMENT_3D('',#322,#266,#267);
#220=AXIS2_PLACEMENT_3D('',#324,#268,#269);
#221=AXIS2_PLACEMENT_3D('',#325,#270,#271);
#222=AXIS2_PLACEMENT_3D('',#327,#272,#273);
#223=AXIS2_PLACEMENT_3D('',#328,#274,#275);
#224=AXIS2_PLACEMENT_3D('',#330,#276,#277);
#225=AXIS2_PLACEMENT_3D('',#331,#278,#279);
#226=AXIS2_PLACEMENT_3D('',#333,#280,#281);
#227=AXIS2_PLACEMENT_3D('',#334,#282,#283);
#228=AXIS2_PLACEMENT_3D('',#336,#284,#285);
#229=AXIS2_PLACEMENT_3D('',#338,#286,#287);
#230=AXIS2_PLACEMENT_3D('',#339,#288,#289);
#231=AXIS2_PLACEMENT_3D('',#342,#290,#291);
#232=AXIS2_PLACEMENT_3D('',#343,#292,#293);
#233=AXIS2_PLACEMENT_3D('',#345,#294,#295);
#234=AXIS2_PLACEMENT_3D('',#346,#296,#297);
#235=AXIS2_PLACEMENT_3D('',#347,#298,#299);
#236=DIRECTION('',(0.,0.,1.));
#237=DIRECTION('',(1.,0.,0.));
#238=DIRECTION('',(1.,0.,0.));
#239=DIRECTION('',(0.,0.,-1.));
#240=DIRECTION('',(1.,0.,0.));
#241=DIRECTION('',(0.,0.,-1.));
#242=DIRECTION('',(1.,0.,0.));
#243=DIRECTION('',(0.,0.,-1.));
#244=DIRECTION('',(1.,0.,0.));
#245=DIRECTION('',(0.,0.,-1.));
#246=DIRECTION('',(1.,0.,0.));
#247=DIRECTION('',(0.,0.,-1.));
#248=DIRECTION('',(1.,0.,0.));
#249=DIRECTION('',(0.,0.,-1.));
#250=DIRECTION('',(1.,0.,0.));
#251=DIRECTION('',(0.,0.,-1.));
#252=DIRECTION('',(1.,0.,0.));
#253=DIRECTION('',(0.,0.,-1.));
#254=DIRECTION('',(1.,0.,0.));
#255=DIRECTION('',(0.,0.,-1.));
#256=DIRECTION('',(1.,0.,0.));
#257=DIRECTION('',(0.,0.,-1.));
#258=DIRECTION('',(1.,0.,0.));
#259=DIRECTION('',(0.,0.,-1.));
#260=DIRECTION('',(-1.,0.,0.));
#261=DIRECTION('',(0.,0.,1.));
#262=DIRECTION('',(1.,0.,0.));
#263=DIRECTION('',(0.,0.,-1.));
#264=DIRECTION('',(1.,0.,0.));
#265=DIRECTION('',(0.,0.,-1.));
#266=DIRECTION('',(1.,0.,0.));
#267=DIRECTION('',(0.,0.,-1.));
#268=DIRECTION('',(-1.,0.,0.));
#269=DIRECTION('',(0.,0.,1.));
#270=DIRECTION('',(1.,0.,0.));
#271=DIRECTION('',(0.,0.,-1.));
#272=DIRECTION('',(-1.,0.,0.));
#273=DIRECTION('',(0.,0.,1.));
#274=DIRECTION('',(1.,0.,0.));
#275=DIRECTION('',(0.,0.,-1.));
#276=DIRECTION('',(-1.,0.,0.));
#277=DIRECTION('',(0.,0.,1.));
#278=DIRECTION('',(1.,0.,0.));
#279=DIRECTION('',(0.,0.,-1.));
#280=DIRECTION('',(1.,0.,0.));
#281=DIRECTION('',(0.,0.,-1.));
#282=DIRECTION('',(1.,0.,0.));
#283=DIRECTION('',(0.,0.,-1.));
#284=DIRECTION('',(-1.,0.,0.));
#285=DIRECTION('',(0.,0.,1.));
#286=DIRECTION('',(1.,0.,0.));
#287=DIRECTION('',(0.,0.,-1.));
#288=DIRECTION('',(1.,0.,0.));
#289=DIRECTION('',(0.,0.,-1.));
#290=DIRECTION('',(1.,0.,0.));
#291=DIRECTION('',(0.,0.,-1.));
#292=DIRECTION('',(1.,0.,0.));
#293=DIRECTION('',(0.,0.,-1.));
#294=DIRECTION('',(1.,0.,0.));
#295=DIRECTION('',(0.,0.,-1.));
#296=DIRECTION('',(0.,0.,1.));
#297=DIRECTION('',(1.,0.,0.));
#298=DIRECTION('',(0.,0.,1.));
#299=DIRECTION('',(1.,0.,0.));
#300=CARTESIAN_POINT('',(0.,0.,0.));
#301=CARTESIAN_POINT('',(0.,0.,0.));
#302=CARTESIAN_POINT('',(0.,0.,0.));
#303=CARTESIAN_POINT('',(0.,0.,-3.15));
#304=CARTESIAN_POINT('',(0.,0.,0.));
#305=CARTESIAN_POINT('',(0.,0.,-2.5));
#306=CARTESIAN_POINT('',(0.,0.,0.));
#307=CARTESIAN_POINT('',(0.5,0.,0.));
#308=CARTESIAN_POINT('',(0.5,0.,-3.65));
#309=CARTESIAN_POINT('',(54.7,0.,0.));
#310=CARTESIAN_POINT('',(25.6,0.,0.));
#311=CARTESIAN_POINT('',(25.6,0.,-3.65));
#312=CARTESIAN_POINT('',(25.6,3.65,0.));
#313=CARTESIAN_POINT('',(25.6,0.,0.));
#314=CARTESIAN_POINT('',(25.6,0.,-3.75));
#315=CARTESIAN_POINT('',(54.7,0.,0.));
#316=CARTESIAN_POINT('',(29.1,0.,0.));
#317=CARTESIAN_POINT('',(29.1,0.,-3.75));
#318=CARTESIAN_POINT('',(29.1,3.75,0.));
#319=CARTESIAN_POINT('',(29.1,0.,0.));
#320=CARTESIAN_POINT('',(29.1,0.,-3.65));
#321=CARTESIAN_POINT('',(54.7,0.,0.));
#322=CARTESIAN_POINT('',(54.2,0.,0.));
#323=CARTESIAN_POINT('',(54.2,0.,-3.65));
#324=CARTESIAN_POINT('',(54.2,0.,0.));
#325=CARTESIAN_POINT('',(54.7,0.,0.));
#326=CARTESIAN_POINT('',(54.7,0.,-3.15));
#327=CARTESIAN_POINT('',(54.7,3.15,0.));
#328=CARTESIAN_POINT('',(54.7,0.,0.));
#329=CARTESIAN_POINT('',(54.7,0.,-2.5));
#330=CARTESIAN_POINT('',(0.,0.,0.));
#331=CARTESIAN_POINT('',(0.432999999999999,0.,0.));
#332=CARTESIAN_POINT('',(0.432999999999999,0.,-2.067));
#333=CARTESIAN_POINT('',(15.193383006415,0.,0.));
#334=CARTESIAN_POINT('',(14.,0.,0.));
#335=CARTESIAN_POINT('',(14.,0.,-2.067));
#336=CARTESIAN_POINT('',(14.,0.,0.));
#337=CARTESIAN_POINT('',(15.193383006415,0.,0.));
#338=CARTESIAN_POINT('',(39.506616993585,0.,0.));
#339=CARTESIAN_POINT('',(40.7,0.,0.));
#340=CARTESIAN_POINT('',(40.7,0.,-2.067));
#341=CARTESIAN_POINT('',(39.506616993585,0.,0.));
#342=CARTESIAN_POINT('',(54.7,0.,0.));
#343=CARTESIAN_POINT('',(54.267,0.,0.));
#344=CARTESIAN_POINT('',(54.267,0.,-2.067));
#345=CARTESIAN_POINT('',(54.267,0.,0.));
#346=CARTESIAN_POINT('',(0.,0.,21.5));
#347=CARTESIAN_POINT('',(0.,0.,-21.5));
#348=MECHANICAL_DESIGN_GEOMETRIC_PRESENTATION_REPRESENTATION('',(#191),
#349);
#349=(
GEOMETRIC_REPRESENTATION_CONTEXT(3)
GLOBAL_UNCERTAINTY_ASSIGNED_CONTEXT((#351))
GLOBAL_UNIT_ASSIGNED_CONTEXT((#355,#354,#353))
REPRESENTATION_CONTEXT('546489 LF/LOE-D-MIDI','TOP_LEVEL_ASSEMBLY_PART')
);
#350=(
GEOMETRIC_REPRESENTATION_CONTEXT(3)
GLOBAL_UNCERTAINTY_ASSIGNED_CONTEXT((#352))
GLOBAL_UNIT_ASSIGNED_CONTEXT((#355,#354,#353))
REPRESENTATION_CONTEXT('369989 LF-D-MIDI','COMPONENT_PART')
);
#351=UNCERTAINTY_MEASURE_WITH_UNIT(LENGTH_MEASURE(0.005),#355,
'DISTANCE_ACCURACY_VALUE','Maximum Tolerance applied to model');
#352=UNCERTAINTY_MEASURE_WITH_UNIT(LENGTH_MEASURE(0.005),#355,
'DISTANCE_ACCURACY_VALUE','Maximum Tolerance applied to model');
#353=(
NAMED_UNIT(*)
SI_UNIT($,.STERADIAN.)
SOLID_ANGLE_UNIT()
);
#354=(
NAMED_UNIT(*)
PLANE_ANGLE_UNIT()
SI_UNIT($,.RADIAN.)
);
#355=(
LENGTH_UNIT()
NAMED_UNIT(*)
SI_UNIT(.MILLI.,.METRE.)
);
#356=PRODUCT_DEFINITION_SHAPE('','',#360);
#357=PRODUCT_DEFINITION_SHAPE('','',#361);
#358=PRODUCT_DEFINITION_SHAPE(' ','NAUO PRDDFN',#20);
#359=PRODUCT_DEFINITION_SHAPE(' ','NAUO PRDDFN',#21);
#360=PRODUCT_DEFINITION('','',#364,#362);
#361=PRODUCT_DEFINITION('','',#365,#363);
#362=PRODUCT_DEFINITION_CONTEXT('',#375,'design');
#363=PRODUCT_DEFINITION_CONTEXT('',#375,'design');
#364=PRODUCT_DEFINITION_FORMATION_WITH_SPECIFIED_SOURCE('','',#368,
 .NOT_KNOWN.);
#365=PRODUCT_DEFINITION_FORMATION_WITH_SPECIFIED_SOURCE('','',#369,
 .NOT_KNOWN.);
#366=PRODUCT_RELATED_PRODUCT_CATEGORY('','',(#368));
#367=PRODUCT_RELATED_PRODUCT_CATEGORY('','',(#369));
#368=PRODUCT('546489 LF/LOE-D-MIDI','546489 LF/LOE-D-MIDI',
'546489 LF/LOE-D-MIDI',(#372));
#369=PRODUCT('369989 LF-D-MIDI','369989 LF-D-MIDI','369989 LF-D-MIDI',(#373));
#370=PRODUCT_CATEGORY('','');
#371=PRODUCT_CATEGORY('','');
#372=PRODUCT_CONTEXT('',#375,'mechanical');
#373=PRODUCT_CONTEXT('',#375,'mechanical');
#374=APPLICATION_PROTOCOL_DEFINITION('international standard',
'automotive_design',2010,#375);
#375=APPLICATION_CONTEXT(
'core data for automotive mechanical design processes');
ENDSEC;
END-ISO-10303-21;
