ISO-10303-21;
HEADER;
/* Generated by software containing ST-Developer
 * from STEP Tools, Inc. (www.steptools.com) 
 */
/* OPTION: using custom renumber hook */

FILE_DESCRIPTION(
/* description */ ('STEP AP214'),
/* implementation_level */ '2;1');

FILE_NAME(
/* name */ '547264_HMBN-5-1M5',
/* time_stamp */ '2024-08-23T04:31:06+02:00',
/* author */ ('License CC BY-ND 4.0'),
/* organization */ ('CADENAS'),
/* preprocessor_version */ 'ST-DEVELOPER v19.3',
/* originating_system */ 'PARTsolutions',
/* authorisation */ '  ');

FILE_SCHEMA (('AUTOMOTIVE_DESIGN {1 0 10303 214 3 1 1}'));
ENDSEC;

DATA;
#10=PROPERTY_DEFINITION_REPRESENTATION(#14,#12);
#11=PROPERTY_DEFINITION_REPRESENTATION(#15,#13);
#12=REPRESENTATION('',(#16),#455);
#13=REPRESENTATION('',(#17),#455);
#14=PROPERTY_DEFINITION('pmi validation property','',#460);
#15=PROPERTY_DEFINITION('pmi validation property','',#460);
#16=VALUE_REPRESENTATION_ITEM('number of annotations',COUNT_MEASURE(0.));
#17=VALUE_REPRESENTATION_ITEM('number of views',COUNT_MEASURE(0.));
#18=SHAPE_REPRESENTATION_RELATIONSHIP('','',#268,#19);
#19=ADVANCED_BREP_SHAPE_REPRESENTATION('',(#266),#455);
#20=CONICAL_SURFACE('',#292,2.067,0.785398163397448);
#21=CONICAL_SURFACE('',#294,2.5,0.785398163397448);
#22=PLANE('',#273);
#23=PLANE('',#278);
#24=PLANE('',#283);
#25=PLANE('',#284);
#26=PLANE('',#286);
#27=PLANE('',#290);
#28=PLANE('',#291);
#29=CIRCLE('',#271,0.699999999999997);
#30=CIRCLE('',#272,0.699999999999997);
#31=CIRCLE('',#274,2.5);
#32=CIRCLE('',#276,0.699999999999995);
#33=CIRCLE('',#277,0.699999999999995);
#34=CIRCLE('',#279,2.5);
#35=CIRCLE('',#281,0.700000000000001);
#36=CIRCLE('',#282,0.700000000000001);
#37=CIRCLE('',#285,2.5);
#38=CIRCLE('',#288,0.699999999999999);
#39=CIRCLE('',#289,0.699999999999999);
#40=CIRCLE('',#293,2.067);
#41=CIRCLE('',#295,2.067);
#42=LINE('',#382,#60);
#43=LINE('',#386,#61);
#44=LINE('',#390,#62);
#45=LINE('',#394,#63);
#46=LINE('',#396,#64);
#47=LINE('',#408,#65);
#48=LINE('',#412,#66);
#49=LINE('',#416,#67);
#50=LINE('',#419,#68);
#51=LINE('',#421,#69);
#52=LINE('',#423,#70);
#53=LINE('',#427,#71);
#54=LINE('',#431,#72);
#55=LINE('',#432,#73);
#56=LINE('',#435,#74);
#57=LINE('',#437,#75);
#58=LINE('',#439,#76);
#59=LINE('',#441,#77);
#60=VECTOR('',#301,1000.);
#61=VECTOR('',#304,1000.);
#62=VECTOR('',#307,1000.);
#63=VECTOR('',#312,1000.);
#64=VECTOR('',#313,1000.);
#65=VECTOR('',#318,1000.);
#66=VECTOR('',#321,1000.);
#67=VECTOR('',#326,1000.);
#68=VECTOR('',#327,1000.);
#69=VECTOR('',#328,1000.);
#70=VECTOR('',#329,1000.);
#71=VECTOR('',#334,1000.);
#72=VECTOR('',#339,1000.);
#73=VECTOR('',#340,1000.);
#74=VECTOR('',#345,1000.);
#75=VECTOR('',#348,1000.);
#76=VECTOR('',#349,1000.);
#77=VECTOR('',#350,1000.);
#78=ORIENTED_EDGE('',*,*,#144,.F.);
#79=ORIENTED_EDGE('',*,*,#145,.F.);
#80=ORIENTED_EDGE('',*,*,#146,.F.);
#81=ORIENTED_EDGE('',*,*,#147,.T.);
#82=ORIENTED_EDGE('',*,*,#148,.T.);
#83=ORIENTED_EDGE('',*,*,#149,.F.);
#84=ORIENTED_EDGE('',*,*,#150,.F.);
#85=ORIENTED_EDGE('',*,*,#149,.T.);
#86=ORIENTED_EDGE('',*,*,#151,.T.);
#87=ORIENTED_EDGE('',*,*,#152,.F.);
#88=ORIENTED_EDGE('',*,*,#153,.F.);
#89=ORIENTED_EDGE('',*,*,#152,.T.);
#90=ORIENTED_EDGE('',*,*,#154,.T.);
#91=ORIENTED_EDGE('',*,*,#155,.F.);
#92=ORIENTED_EDGE('',*,*,#156,.F.);
#93=ORIENTED_EDGE('',*,*,#157,.T.);
#94=ORIENTED_EDGE('',*,*,#158,.T.);
#95=ORIENTED_EDGE('',*,*,#159,.T.);
#96=ORIENTED_EDGE('',*,*,#160,.F.);
#97=ORIENTED_EDGE('',*,*,#161,.F.);
#98=ORIENTED_EDGE('',*,*,#162,.T.);
#99=ORIENTED_EDGE('',*,*,#163,.T.);
#100=ORIENTED_EDGE('',*,*,#164,.F.);
#101=ORIENTED_EDGE('',*,*,#165,.F.);
#102=ORIENTED_EDGE('',*,*,#160,.T.);
#103=ORIENTED_EDGE('',*,*,#166,.T.);
#104=ORIENTED_EDGE('',*,*,#147,.F.);
#105=ORIENTED_EDGE('',*,*,#167,.F.);
#106=ORIENTED_EDGE('',*,*,#164,.T.);
#107=ORIENTED_EDGE('',*,*,#168,.F.);
#108=ORIENTED_EDGE('',*,*,#157,.F.);
#109=ORIENTED_EDGE('',*,*,#169,.F.);
#110=ORIENTED_EDGE('',*,*,#145,.T.);
#111=ORIENTED_EDGE('',*,*,#170,.T.);
#112=ORIENTED_EDGE('',*,*,#171,.F.);
#113=ORIENTED_EDGE('',*,*,#172,.F.);
#114=ORIENTED_EDGE('',*,*,#155,.T.);
#115=ORIENTED_EDGE('',*,*,#173,.T.);
#116=ORIENTED_EDGE('',*,*,#162,.F.);
#117=ORIENTED_EDGE('',*,*,#174,.F.);
#118=ORIENTED_EDGE('',*,*,#171,.T.);
#119=ORIENTED_EDGE('',*,*,#161,.T.);
#120=ORIENTED_EDGE('',*,*,#165,.T.);
#121=ORIENTED_EDGE('',*,*,#167,.T.);
#122=ORIENTED_EDGE('',*,*,#146,.T.);
#123=ORIENTED_EDGE('',*,*,#169,.T.);
#124=ORIENTED_EDGE('',*,*,#156,.T.);
#125=ORIENTED_EDGE('',*,*,#172,.T.);
#126=ORIENTED_EDGE('',*,*,#174,.T.);
#127=ORIENTED_EDGE('',*,*,#159,.F.);
#128=ORIENTED_EDGE('',*,*,#173,.F.);
#129=ORIENTED_EDGE('',*,*,#170,.F.);
#130=ORIENTED_EDGE('',*,*,#154,.F.);
#131=ORIENTED_EDGE('',*,*,#151,.F.);
#132=ORIENTED_EDGE('',*,*,#148,.F.);
#133=ORIENTED_EDGE('',*,*,#166,.F.);
#134=ORIENTED_EDGE('',*,*,#163,.F.);
#135=ORIENTED_EDGE('',*,*,#150,.T.);
#136=ORIENTED_EDGE('',*,*,#153,.T.);
#137=ORIENTED_EDGE('',*,*,#168,.T.);
#138=ORIENTED_EDGE('',*,*,#144,.T.);
#139=ORIENTED_EDGE('',*,*,#175,.F.);
#140=ORIENTED_EDGE('',*,*,#176,.T.);
#141=ORIENTED_EDGE('',*,*,#158,.F.);
#142=ORIENTED_EDGE('',*,*,#175,.T.);
#143=ORIENTED_EDGE('',*,*,#176,.F.);
#144=EDGE_CURVE('',#177,#178,#200,.T.);
#145=EDGE_CURVE('',#179,#177,#42,.T.);
#146=EDGE_CURVE('',#180,#179,#29,.T.);
#147=EDGE_CURVE('',#180,#181,#43,.T.);
#148=EDGE_CURVE('',#181,#182,#30,.T.);
#149=EDGE_CURVE('',#178,#182,#44,.T.);
#150=EDGE_CURVE('',#178,#183,#31,.T.);
#151=EDGE_CURVE('',#182,#184,#45,.T.);
#152=EDGE_CURVE('',#183,#184,#46,.T.);
#153=EDGE_CURVE('',#183,#185,#201,.T.);
#154=EDGE_CURVE('',#184,#186,#32,.T.);
#155=EDGE_CURVE('',#187,#186,#47,.T.);
#156=EDGE_CURVE('',#188,#187,#33,.T.);
#157=EDGE_CURVE('',#188,#185,#48,.T.);
#158=EDGE_CURVE('',#189,#189,#34,.T.);
#159=EDGE_CURVE('',#190,#191,#49,.T.);
#160=EDGE_CURVE('',#192,#191,#50,.T.);
#161=EDGE_CURVE('',#193,#192,#51,.T.);
#162=EDGE_CURVE('',#193,#190,#52,.T.);
#163=EDGE_CURVE('',#191,#194,#35,.T.);
#164=EDGE_CURVE('',#195,#194,#53,.T.);
#165=EDGE_CURVE('',#192,#195,#36,.T.);
#166=EDGE_CURVE('',#194,#181,#54,.T.);
#167=EDGE_CURVE('',#195,#180,#55,.T.);
#168=EDGE_CURVE('',#185,#177,#37,.T.);
#169=EDGE_CURVE('',#179,#188,#56,.T.);
#170=EDGE_CURVE('',#186,#196,#57,.T.);
#171=EDGE_CURVE('',#197,#196,#58,.T.);
#172=EDGE_CURVE('',#187,#197,#59,.T.);
#173=EDGE_CURVE('',#196,#190,#38,.T.);
#174=EDGE_CURVE('',#197,#193,#39,.T.);
#175=EDGE_CURVE('',#198,#198,#40,.T.);
#176=EDGE_CURVE('',#199,#199,#41,.T.);
#177=VERTEX_POINT('',#380);
#178=VERTEX_POINT('',#381);
#179=VERTEX_POINT('',#383);
#180=VERTEX_POINT('',#385);
#181=VERTEX_POINT('',#387);
#182=VERTEX_POINT('',#389);
#183=VERTEX_POINT('',#393);
#184=VERTEX_POINT('',#395);
#185=VERTEX_POINT('',#405);
#186=VERTEX_POINT('',#407);
#187=VERTEX_POINT('',#409);
#188=VERTEX_POINT('',#411);
#189=VERTEX_POINT('',#415);
#190=VERTEX_POINT('',#417);
#191=VERTEX_POINT('',#418);
#192=VERTEX_POINT('',#420);
#193=VERTEX_POINT('',#422);
#194=VERTEX_POINT('',#426);
#195=VERTEX_POINT('',#428);
#196=VERTEX_POINT('',#438);
#197=VERTEX_POINT('',#440);
#198=VERTEX_POINT('',#449);
#199=VERTEX_POINT('',#452);
#200=B_SPLINE_CURVE_WITH_KNOTS('',3,(#373,#374,#375,#376,#377,#378,#379),
 .UNSPECIFIED.,.F.,.F.,(4,1,1,1,4),(7.57473011378153E-5,0.000895033725102172,
0.00171432014906653,0.00253360657303088,0.00335289299699524),
 .UNSPECIFIED.);
#201=B_SPLINE_CURVE_WITH_KNOTS('',3,(#398,#399,#400,#401,#402,#403,#404),
 .UNSPECIFIED.,.F.,.F.,(4,1,1,1,4),(7.57473011378179E-5,0.000895033725102175,
0.00171432014906653,0.00253360657303089,0.00335289299699525),
 .UNSPECIFIED.);
#202=EDGE_LOOP('',(#78,#79,#80,#81,#82,#83));
#203=EDGE_LOOP('',(#84,#85,#86,#87));
#204=EDGE_LOOP('',(#88,#89,#90,#91,#92,#93));
#205=EDGE_LOOP('',(#94));
#206=EDGE_LOOP('',(#95,#96,#97,#98));
#207=EDGE_LOOP('',(#99,#100,#101,#102));
#208=EDGE_LOOP('',(#103,#104,#105,#106));
#209=EDGE_LOOP('',(#107,#108,#109,#110));
#210=EDGE_LOOP('',(#111,#112,#113,#114));
#211=EDGE_LOOP('',(#115,#116,#117,#118));
#212=EDGE_LOOP('',(#119,#120,#121,#122,#123,#124,#125,#126));
#213=EDGE_LOOP('',(#127,#128,#129,#130,#131,#132,#133,#134));
#214=EDGE_LOOP('',(#135,#136,#137,#138));
#215=EDGE_LOOP('',(#139));
#216=EDGE_LOOP('',(#140));
#217=EDGE_LOOP('',(#141));
#218=EDGE_LOOP('',(#142));
#219=EDGE_LOOP('',(#143));
#220=FACE_BOUND('',#202,.T.);
#221=FACE_BOUND('',#203,.T.);
#222=FACE_BOUND('',#204,.T.);
#223=FACE_BOUND('',#205,.T.);
#224=FACE_BOUND('',#206,.T.);
#225=FACE_BOUND('',#207,.T.);
#226=FACE_BOUND('',#208,.T.);
#227=FACE_BOUND('',#209,.T.);
#228=FACE_BOUND('',#210,.T.);
#229=FACE_BOUND('',#211,.T.);
#230=FACE_BOUND('',#212,.T.);
#231=FACE_BOUND('',#213,.T.);
#232=FACE_BOUND('',#214,.T.);
#233=FACE_BOUND('',#215,.T.);
#234=FACE_BOUND('',#216,.T.);
#235=FACE_BOUND('',#217,.T.);
#236=FACE_BOUND('',#218,.T.);
#237=FACE_BOUND('',#219,.T.);
#238=CYLINDRICAL_SURFACE('',#270,0.699999999999997);
#239=CYLINDRICAL_SURFACE('',#275,0.699999999999995);
#240=CYLINDRICAL_SURFACE('',#280,0.700000000000001);
#241=CYLINDRICAL_SURFACE('',#287,0.699999999999999);
#242=CYLINDRICAL_SURFACE('',#296,2.067);
#243=ADVANCED_FACE('',(#220),#238,.T.);
#244=ADVANCED_FACE('',(#221),#22,.F.);
#245=ADVANCED_FACE('',(#222),#239,.T.);
#246=ADVANCED_FACE('',(#223,#224),#23,.F.);
#247=ADVANCED_FACE('',(#225),#240,.T.);
#248=ADVANCED_FACE('',(#226),#24,.F.);
#249=ADVANCED_FACE('',(#227),#25,.F.);
#250=ADVANCED_FACE('',(#228),#26,.F.);
#251=ADVANCED_FACE('',(#229),#241,.T.);
#252=ADVANCED_FACE('',(#230),#27,.T.);
#253=ADVANCED_FACE('',(#231),#28,.F.);
#254=ADVANCED_FACE('',(#232,#233),#20,.F.);
#255=ADVANCED_FACE('',(#234,#235),#21,.F.);
#256=ADVANCED_FACE('',(#236,#237),#242,.F.);
#257=CLOSED_SHELL('',(#243,#244,#245,#246,#247,#248,#249,#250,#251,#252,
#253,#254,#255,#256));
#258=STYLED_ITEM('',(#259),#266);
#259=PRESENTATION_STYLE_ASSIGNMENT((#260));
#260=SURFACE_STYLE_USAGE(.BOTH.,#261);
#261=SURFACE_SIDE_STYLE('',(#262));
#262=SURFACE_STYLE_FILL_AREA(#263);
#263=FILL_AREA_STYLE('',(#264));
#264=FILL_AREA_STYLE_COLOUR('',#265);
#265=COLOUR_RGB('',0.689999997615814,0.689999997615814,0.689999997615814);
#266=MANIFOLD_SOLID_BREP('547264 HMBN-5-1M5',#257);
#267=SHAPE_DEFINITION_REPRESENTATION(#460,#268);
#268=SHAPE_REPRESENTATION('547264 HMBN-5-1M5',(#269),#455);
#269=AXIS2_PLACEMENT_3D('',#371,#297,#298);
#270=AXIS2_PLACEMENT_3D('',#372,#299,#300);
#271=AXIS2_PLACEMENT_3D('',#384,#302,#303);
#272=AXIS2_PLACEMENT_3D('',#388,#305,#306);
#273=AXIS2_PLACEMENT_3D('',#391,#308,#309);
#274=AXIS2_PLACEMENT_3D('',#392,#310,#311);
#275=AXIS2_PLACEMENT_3D('',#397,#314,#315);
#276=AXIS2_PLACEMENT_3D('',#406,#316,#317);
#277=AXIS2_PLACEMENT_3D('',#410,#319,#320);
#278=AXIS2_PLACEMENT_3D('',#413,#322,#323);
#279=AXIS2_PLACEMENT_3D('',#414,#324,#325);
#280=AXIS2_PLACEMENT_3D('',#424,#330,#331);
#281=AXIS2_PLACEMENT_3D('',#425,#332,#333);
#282=AXIS2_PLACEMENT_3D('',#429,#335,#336);
#283=AXIS2_PLACEMENT_3D('',#430,#337,#338);
#284=AXIS2_PLACEMENT_3D('',#433,#341,#342);
#285=AXIS2_PLACEMENT_3D('',#434,#343,#344);
#286=AXIS2_PLACEMENT_3D('',#436,#346,#347);
#287=AXIS2_PLACEMENT_3D('',#442,#351,#352);
#288=AXIS2_PLACEMENT_3D('',#443,#353,#354);
#289=AXIS2_PLACEMENT_3D('',#444,#355,#356);
#290=AXIS2_PLACEMENT_3D('',#445,#357,#358);
#291=AXIS2_PLACEMENT_3D('',#446,#359,#360);
#292=AXIS2_PLACEMENT_3D('',#447,#361,#362);
#293=AXIS2_PLACEMENT_3D('',#448,#363,#364);
#294=AXIS2_PLACEMENT_3D('',#450,#365,#366);
#295=AXIS2_PLACEMENT_3D('',#451,#367,#368);
#296=AXIS2_PLACEMENT_3D('',#453,#369,#370);
#297=DIRECTION('',(0.,0.,1.));
#298=DIRECTION('',(1.,0.,0.));
#299=DIRECTION('',(0.,0.,-1.));
#300=DIRECTION('',(-1.,0.,0.));
#301=DIRECTION('',(0.,0.,-1.));
#302=DIRECTION('',(0.,0.,1.));
#303=DIRECTION('',(1.,0.,0.));
#304=DIRECTION('',(0.,0.,-1.));
#305=DIRECTION('',(0.,0.,1.));
#306=DIRECTION('',(1.,0.,0.));
#307=DIRECTION('',(0.,0.,-1.));
#308=DIRECTION('',(0.,1.,0.));
#309=DIRECTION('',(0.,0.,1.));
#310=DIRECTION('',(0.,-1.,0.));
#311=DIRECTION('',(0.,0.,-1.));
#312=DIRECTION('',(1.,0.,0.));
#313=DIRECTION('',(0.,0.,-1.));
#314=DIRECTION('',(0.,0.,-1.));
#315=DIRECTION('',(-1.,0.,0.));
#316=DIRECTION('',(0.,0.,1.));
#317=DIRECTION('',(1.,0.,0.));
#318=DIRECTION('',(0.,0.,-1.));
#319=DIRECTION('',(0.,0.,1.));
#320=DIRECTION('',(1.,0.,0.));
#321=DIRECTION('',(0.,0.,-1.));
#322=DIRECTION('',(0.,-1.,0.));
#323=DIRECTION('',(0.,0.,-1.));
#324=DIRECTION('',(0.,-1.,0.));
#325=DIRECTION('',(0.,0.,-1.));
#326=DIRECTION('',(-1.,0.,0.));
#327=DIRECTION('',(0.,0.,-1.));
#328=DIRECTION('',(-1.,0.,0.));
#329=DIRECTION('',(0.,0.,-1.));
#330=DIRECTION('',(0.,0.,-1.));
#331=DIRECTION('',(-1.,0.,0.));
#332=DIRECTION('',(0.,0.,1.));
#333=DIRECTION('',(1.,0.,0.));
#334=DIRECTION('',(0.,0.,-1.));
#335=DIRECTION('',(0.,0.,1.));
#336=DIRECTION('',(1.,0.,0.));
#337=DIRECTION('',(0.707106781186547,0.707106781186548,0.));
#338=DIRECTION('',(-0.707106781186548,0.707106781186547,0.));
#339=DIRECTION('',(0.707106781186548,-0.707106781186547,0.));
#340=DIRECTION('',(0.707106781186548,-0.707106781186547,0.));
#341=DIRECTION('',(0.,1.,0.));
#342=DIRECTION('',(0.,0.,1.));
#343=DIRECTION('',(0.,-1.,0.));
#344=DIRECTION('',(0.,0.,-1.));
#345=DIRECTION('',(1.,0.,0.));
#346=DIRECTION('',(-0.707106781186548,0.707106781186547,0.));
#347=DIRECTION('',(-0.707106781186547,-0.707106781186548,0.));
#348=DIRECTION('',(0.707106781186547,0.707106781186548,0.));
#349=DIRECTION('',(0.,0.,-1.));
#350=DIRECTION('',(0.707106781186547,0.707106781186548,0.));
#351=DIRECTION('',(0.,0.,-1.));
#352=DIRECTION('',(-1.,0.,0.));
#353=DIRECTION('',(0.,0.,1.));
#354=DIRECTION('',(1.,0.,0.));
#355=DIRECTION('',(0.,0.,1.));
#356=DIRECTION('',(1.,0.,0.));
#357=DIRECTION('',(0.,0.,1.));
#358=DIRECTION('',(1.,0.,0.));
#359=DIRECTION('',(0.,0.,1.));
#360=DIRECTION('',(1.,0.,0.));
#361=DIRECTION('',(0.,-1.,0.));
#362=DIRECTION('',(0.,0.,-1.));
#363=DIRECTION('',(0.,-1.,0.));
#364=DIRECTION('',(0.,0.,-1.));
#365=DIRECTION('',(0.,1.,0.));
#366=DIRECTION('',(0.,0.,1.));
#367=DIRECTION('',(0.,-1.,0.));
#368=DIRECTION('',(0.,0.,-1.));
#369=DIRECTION('',(0.,-1.,0.));
#370=DIRECTION('',(0.,0.,-1.));
#371=CARTESIAN_POINT('',(0.,0.,0.));
#372=CARTESIAN_POINT('',(-1.96005050633883,0.699999999999997,7.25));
#373=CARTESIAN_POINT('',(-1.96005050633883,1.00861431723363E-16,1.55183826882858));
#374=CARTESIAN_POINT('',(-2.13025039077481,4.22705053256305E-16,1.33686717527554));
#375=CARTESIAN_POINT('',(-2.31501457247759,0.0913192630840675,0.814008731097375));
#376=CARTESIAN_POINT('',(-2.39516963940822,0.151534167160008,0.0022674713235078));
#377=CARTESIAN_POINT('',(-2.3152335333865,0.0916140123647818,-0.813259313516766));
#378=CARTESIAN_POINT('',(-2.13106545717859,-2.63581462927063E-12,-1.33583770503826));
#379=CARTESIAN_POINT('',(-1.96005050634136,-3.2528639592242E-12,-1.55183826883062));
#380=CARTESIAN_POINT('',(-1.96005050633883,0.,1.55183826882858));
#381=CARTESIAN_POINT('',(-1.96005050633883,0.,-1.55183826882858));
#382=CARTESIAN_POINT('',(-1.96005050633883,1.0842021724855E-16,7.25));
#383=CARTESIAN_POINT('',(-1.96005050633883,1.0842021724855E-16,7.25));
#384=CARTESIAN_POINT('',(-1.96005050633883,0.699999999999997,7.25));
#385=CARTESIAN_POINT('',(-2.45502525316942,0.205025253169417,7.25));
#386=CARTESIAN_POINT('',(-2.45502525316942,0.205025253169417,7.25));
#387=CARTESIAN_POINT('',(-2.45502525316942,0.205025253169417,-7.25));
#388=CARTESIAN_POINT('',(-1.96005050633883,0.699999999999997,-7.25));
#389=CARTESIAN_POINT('',(-1.96005050633883,1.0842021724855E-16,-7.25));
#390=CARTESIAN_POINT('',(-1.96005050633883,1.0842021724855E-16,7.25));
#391=CARTESIAN_POINT('',(-1.96005050633883,0.,7.25));
#392=CARTESIAN_POINT('',(0.,0.,0.));
#393=CARTESIAN_POINT('',(1.96005050633884,0.,-1.55183826882858));
#394=CARTESIAN_POINT('',(-1.96005050633883,0.,-7.25));
#395=CARTESIAN_POINT('',(1.96005050633883,0.,-7.25));
#396=CARTESIAN_POINT('',(1.96005050633883,0.,7.25));
#397=CARTESIAN_POINT('',(1.96005050633884,0.699999999999995,7.25));
#398=CARTESIAN_POINT('',(1.96005050633884,-2.46913554210953E-17,-1.55183826882858));
#399=CARTESIAN_POINT('',(2.13025039077481,-1.19561026837916E-15,-1.33686717527554));
#400=CARTESIAN_POINT('',(2.31501457247759,0.0913192630840684,-0.814008731097372));
#401=CARTESIAN_POINT('',(2.39516963940822,0.151534167160007,-0.00226747132350627));
#402=CARTESIAN_POINT('',(2.3152335333865,0.091614012364781,0.813259313516766));
#403=CARTESIAN_POINT('',(2.13106545717859,-2.63419491955175E-12,1.33583770503826));
#404=CARTESIAN_POINT('',(1.96005050634137,-3.25295606330386E-12,1.55183826883062));
#405=CARTESIAN_POINT('',(1.96005050633884,0.,1.55183826882858));
#406=CARTESIAN_POINT('',(1.96005050633884,0.699999999999995,-7.25));
#407=CARTESIAN_POINT('',(2.45502525316942,0.205025253169416,-7.25));
#408=CARTESIAN_POINT('',(2.45502525316942,0.205025253169416,7.25));
#409=CARTESIAN_POINT('',(2.45502525316942,0.205025253169416,7.25));
#410=CARTESIAN_POINT('',(1.96005050633884,0.699999999999995,7.25));
#411=CARTESIAN_POINT('',(1.96005050633883,0.,7.25));
#412=CARTESIAN_POINT('',(1.96005050633883,0.,7.25));
#413=CARTESIAN_POINT('',(4.56005050633883,4.,7.25));
#414=CARTESIAN_POINT('',(0.,4.,0.));
#415=CARTESIAN_POINT('',(0.,4.,-2.5));
#416=CARTESIAN_POINT('',(4.56005050633883,4.,-7.25));
#417=CARTESIAN_POINT('',(4.56005050633883,4.,-7.25));
#418=CARTESIAN_POINT('',(-4.56005050633883,4.,-7.25));
#419=CARTESIAN_POINT('',(-4.56005050633883,4.,7.25));
#420=CARTESIAN_POINT('',(-4.56005050633883,4.,7.25));
#421=CARTESIAN_POINT('',(4.56005050633883,4.,7.25));
#422=CARTESIAN_POINT('',(4.56005050633883,4.,7.25));
#423=CARTESIAN_POINT('',(4.56005050633883,4.,7.25));
#424=CARTESIAN_POINT('',(-4.56005050633883,3.3,7.25));
#425=CARTESIAN_POINT('',(-4.56005050633883,3.3,-7.25));
#426=CARTESIAN_POINT('',(-5.05502525316942,2.80502525316942,-7.25));
#427=CARTESIAN_POINT('',(-5.05502525316942,2.80502525316942,7.25));
#428=CARTESIAN_POINT('',(-5.05502525316942,2.80502525316942,7.25));
#429=CARTESIAN_POINT('',(-4.56005050633883,3.3,7.25));
#430=CARTESIAN_POINT('',(-5.05502525316942,2.80502525316942,7.25));
#431=CARTESIAN_POINT('',(-5.05502525316942,2.80502525316942,-7.25));
#432=CARTESIAN_POINT('',(-5.05502525316942,2.80502525316942,7.25));
#433=CARTESIAN_POINT('',(-1.96005050633883,0.,7.25));
#434=CARTESIAN_POINT('',(0.,0.,0.));
#435=CARTESIAN_POINT('',(-1.96005050633883,0.,7.25));
#436=CARTESIAN_POINT('',(2.45502525316942,0.205025253169417,7.25));
#437=CARTESIAN_POINT('',(2.45502525316942,0.205025253169417,-7.25));
#438=CARTESIAN_POINT('',(5.05502525316942,2.80502525316942,-7.25));
#439=CARTESIAN_POINT('',(5.05502525316942,2.80502525316942,7.25));
#440=CARTESIAN_POINT('',(5.05502525316942,2.80502525316942,7.25));
#441=CARTESIAN_POINT('',(2.45502525316942,0.205025253169417,7.25));
#442=CARTESIAN_POINT('',(4.56005050633883,3.3,7.25));
#443=CARTESIAN_POINT('',(4.56005050633883,3.3,-7.25));
#444=CARTESIAN_POINT('',(4.56005050633883,3.3,7.25));
#445=CARTESIAN_POINT('',(-4.56005050633883,3.3,7.25));
#446=CARTESIAN_POINT('',(-4.56005050633883,3.3,-7.25));
#447=CARTESIAN_POINT('',(0.,0.433,0.));
#448=CARTESIAN_POINT('',(0.,0.433,0.));
#449=CARTESIAN_POINT('',(0.,0.433,-2.067));
#450=CARTESIAN_POINT('',(0.,4.,0.));
#451=CARTESIAN_POINT('',(0.,3.567,0.));
#452=CARTESIAN_POINT('',(0.,3.567,-2.067));
#453=CARTESIAN_POINT('',(0.,0.,0.));
#454=MECHANICAL_DESIGN_GEOMETRIC_PRESENTATION_REPRESENTATION('',(#258),
#455);
#455=(
GEOMETRIC_REPRESENTATION_CONTEXT(3)
GLOBAL_UNCERTAINTY_ASSIGNED_CONTEXT((#456))
GLOBAL_UNIT_ASSIGNED_CONTEXT((#459,#458,#457))
REPRESENTATION_CONTEXT('547264 HMBN-5-1M5','TOP_LEVEL_ASSEMBLY_PART')
);
#456=UNCERTAINTY_MEASURE_WITH_UNIT(LENGTH_MEASURE(0.005),#459,
'DISTANCE_ACCURACY_VALUE','Maximum Tolerance applied to model');
#457=(
NAMED_UNIT(*)
SI_UNIT($,.STERADIAN.)
SOLID_ANGLE_UNIT()
);
#458=(
NAMED_UNIT(*)
PLANE_ANGLE_UNIT()
SI_UNIT($,.RADIAN.)
);
#459=(
LENGTH_UNIT()
NAMED_UNIT(*)
SI_UNIT(.MILLI.,.METRE.)
);
#460=PRODUCT_DEFINITION_SHAPE('','',#461);
#461=PRODUCT_DEFINITION('','',#463,#462);
#462=PRODUCT_DEFINITION_CONTEXT('',#469,'design');
#463=PRODUCT_DEFINITION_FORMATION_WITH_SPECIFIED_SOURCE('','',#465,
 .NOT_KNOWN.);
#464=PRODUCT_RELATED_PRODUCT_CATEGORY('','',(#465));
#465=PRODUCT('547264 HMBN-5-1M5','547264 HMBN-5-1M5',
'547264 HMBN-5-1M5',(#467));
#466=PRODUCT_CATEGORY('','');
#467=PRODUCT_CONTEXT('',#469,'mechanical');
#468=APPLICATION_PROTOCOL_DEFINITION('international standard',
'automotive_design',2010,#469);
#469=APPLICATION_CONTEXT(
'core data for automotive mechanical design processes');
ENDSEC;
END-ISO-10303-21;
