ISO-10303-21;
HEADER;
/* Generated by software containing ST-Developer
 * from STEP Tools, Inc. (www.steptools.com) 
 */
/* OPTION: using custom renumber hook */

FILE_DESCRIPTION(
/* description */ ('STEP AP214'),
/* implementation_level */ '2;1');

FILE_NAME(
/* name */ '547923_MS6-LFM-BI',
/* time_stamp */ '2024-09-10T17:17:55+02:00',
/* author */ ('License CC BY-ND 4.0'),
/* organization */ ('CADENAS'),
/* preprocessor_version */ 'ST-DEVELOPER v19.3',
/* originating_system */ 'PARTsolutions',
/* authorisation */ '  ');

FILE_SCHEMA (('AUTOMOTIVE_DESIGN {1 0 10303 214 3 1 1}'));
ENDSEC;

DATA;
#10=PROPERTY_DEFINITION_REPRESENTATION(#14,#12);
#11=PROPERTY_DEFINITION_REPRESENTATION(#15,#13);
#12=REPRESENTATION('',(#16),#503);
#13=REPRESENTATION('',(#17),#503);
#14=PROPERTY_DEFINITION('pmi validation property','',#508);
#15=PROPERTY_DEFINITION('pmi validation property','',#508);
#16=VALUE_REPRESENTATION_ITEM('number of annotations',COUNT_MEASURE(0.));
#17=VALUE_REPRESENTATION_ITEM('number of views',COUNT_MEASURE(0.));
#18=SHAPE_REPRESENTATION_RELATIONSHIP('','',#340,#19);
#19=ADVANCED_BREP_SHAPE_REPRESENTATION('',(#338),#503);
#20=TOROIDAL_SURFACE('',#357,11.825,0.825);
#21=CYLINDRICAL_SURFACE('',#347,11.);
#22=CYLINDRICAL_SURFACE('',#353,12.);
#23=CYLINDRICAL_SURFACE('',#361,16.);
#24=CYLINDRICAL_SURFACE('',#365,14.6);
#25=CYLINDRICAL_SURFACE('',#369,16.);
#26=CYLINDRICAL_SURFACE('',#374,5.25);
#27=CONICAL_SURFACE('',#345,10.5,0.785398163397448);
#28=CONICAL_SURFACE('',#351,11.08,0.785398163397446);
#29=CONICAL_SURFACE('',#372,9.5,0.523598775598298);
#30=ORIENTED_EDGE('',*,*,#64,.F.);
#31=ORIENTED_EDGE('',*,*,#65,.T.);
#32=ORIENTED_EDGE('',*,*,#66,.F.);
#33=ORIENTED_EDGE('',*,*,#64,.T.);
#34=ORIENTED_EDGE('',*,*,#67,.F.);
#35=ORIENTED_EDGE('',*,*,#66,.T.);
#36=ORIENTED_EDGE('',*,*,#68,.F.);
#37=ORIENTED_EDGE('',*,*,#67,.T.);
#38=ORIENTED_EDGE('',*,*,#69,.F.);
#39=ORIENTED_EDGE('',*,*,#68,.T.);
#40=ORIENTED_EDGE('',*,*,#70,.F.);
#41=ORIENTED_EDGE('',*,*,#69,.T.);
#42=ORIENTED_EDGE('',*,*,#71,.F.);
#43=ORIENTED_EDGE('',*,*,#70,.T.);
#44=ORIENTED_EDGE('',*,*,#72,.F.);
#45=ORIENTED_EDGE('',*,*,#71,.T.);
#46=ORIENTED_EDGE('',*,*,#73,.F.);
#47=ORIENTED_EDGE('',*,*,#72,.T.);
#48=ORIENTED_EDGE('',*,*,#74,.F.);
#49=ORIENTED_EDGE('',*,*,#73,.T.);
#50=ORIENTED_EDGE('',*,*,#75,.F.);
#51=ORIENTED_EDGE('',*,*,#74,.T.);
#52=ORIENTED_EDGE('',*,*,#76,.F.);
#53=ORIENTED_EDGE('',*,*,#75,.T.);
#54=ORIENTED_EDGE('',*,*,#77,.F.);
#55=ORIENTED_EDGE('',*,*,#76,.T.);
#56=ORIENTED_EDGE('',*,*,#78,.F.);
#57=ORIENTED_EDGE('',*,*,#77,.T.);
#58=ORIENTED_EDGE('',*,*,#78,.T.);
#59=ORIENTED_EDGE('',*,*,#79,.T.);
#60=ORIENTED_EDGE('',*,*,#65,.F.);
#61=ORIENTED_EDGE('',*,*,#80,.T.);
#62=ORIENTED_EDGE('',*,*,#79,.F.);
#63=ORIENTED_EDGE('',*,*,#80,.F.);
#64=EDGE_CURVE('',#81,#81,#98,.T.);
#65=EDGE_CURVE('',#82,#82,#99,.T.);
#66=EDGE_CURVE('',#83,#83,#100,.T.);
#67=EDGE_CURVE('',#84,#84,#101,.T.);
#68=EDGE_CURVE('',#85,#85,#102,.T.);
#69=EDGE_CURVE('',#86,#86,#103,.T.);
#70=EDGE_CURVE('',#87,#87,#104,.T.);
#71=EDGE_CURVE('',#88,#88,#105,.T.);
#72=EDGE_CURVE('',#89,#89,#106,.T.);
#73=EDGE_CURVE('',#90,#90,#107,.T.);
#74=EDGE_CURVE('',#91,#91,#108,.T.);
#75=EDGE_CURVE('',#92,#92,#109,.T.);
#76=EDGE_CURVE('',#93,#93,#110,.T.);
#77=EDGE_CURVE('',#94,#94,#111,.T.);
#78=EDGE_CURVE('',#95,#95,#112,.T.);
#79=EDGE_CURVE('',#96,#96,#113,.T.);
#80=EDGE_CURVE('',#97,#97,#114,.T.);
#81=VERTEX_POINT('',#452);
#82=VERTEX_POINT('',#454);
#83=VERTEX_POINT('',#457);
#84=VERTEX_POINT('',#460);
#85=VERTEX_POINT('',#463);
#86=VERTEX_POINT('',#466);
#87=VERTEX_POINT('',#469);
#88=VERTEX_POINT('',#472);
#89=VERTEX_POINT('',#475);
#90=VERTEX_POINT('',#478);
#91=VERTEX_POINT('',#481);
#92=VERTEX_POINT('',#484);
#93=VERTEX_POINT('',#487);
#94=VERTEX_POINT('',#490);
#95=VERTEX_POINT('',#493);
#96=VERTEX_POINT('',#497);
#97=VERTEX_POINT('',#500);
#98=CIRCLE('',#343,10.5);
#99=CIRCLE('',#344,9.5);
#100=CIRCLE('',#346,11.);
#101=CIRCLE('',#348,11.);
#102=CIRCLE('',#350,11.08);
#103=CIRCLE('',#352,12.);
#104=CIRCLE('',#354,12.);
#105=CIRCLE('',#356,11.825);
#106=CIRCLE('',#358,11.825);
#107=CIRCLE('',#360,16.);
#108=CIRCLE('',#362,16.);
#109=CIRCLE('',#364,14.6);
#110=CIRCLE('',#366,14.6);
#111=CIRCLE('',#368,16.);
#112=CIRCLE('',#370,16.);
#113=CIRCLE('',#373,5.25);
#114=CIRCLE('',#375,5.25);
#115=EDGE_LOOP('',(#30));
#116=EDGE_LOOP('',(#31));
#117=EDGE_LOOP('',(#32));
#118=EDGE_LOOP('',(#33));
#119=EDGE_LOOP('',(#34));
#120=EDGE_LOOP('',(#35));
#121=EDGE_LOOP('',(#36));
#122=EDGE_LOOP('',(#37));
#123=EDGE_LOOP('',(#38));
#124=EDGE_LOOP('',(#39));
#125=EDGE_LOOP('',(#40));
#126=EDGE_LOOP('',(#41));
#127=EDGE_LOOP('',(#42));
#128=EDGE_LOOP('',(#43));
#129=EDGE_LOOP('',(#44));
#130=EDGE_LOOP('',(#45));
#131=EDGE_LOOP('',(#46));
#132=EDGE_LOOP('',(#47));
#133=EDGE_LOOP('',(#48));
#134=EDGE_LOOP('',(#49));
#135=EDGE_LOOP('',(#50));
#136=EDGE_LOOP('',(#51));
#137=EDGE_LOOP('',(#52));
#138=EDGE_LOOP('',(#53));
#139=EDGE_LOOP('',(#54));
#140=EDGE_LOOP('',(#55));
#141=EDGE_LOOP('',(#56));
#142=EDGE_LOOP('',(#57));
#143=EDGE_LOOP('',(#58));
#144=EDGE_LOOP('',(#59));
#145=EDGE_LOOP('',(#60));
#146=EDGE_LOOP('',(#61));
#147=EDGE_LOOP('',(#62));
#148=EDGE_LOOP('',(#63));
#149=FACE_BOUND('',#115,.T.);
#150=FACE_BOUND('',#116,.T.);
#151=FACE_BOUND('',#117,.T.);
#152=FACE_BOUND('',#118,.T.);
#153=FACE_BOUND('',#119,.T.);
#154=FACE_BOUND('',#120,.T.);
#155=FACE_BOUND('',#121,.T.);
#156=FACE_BOUND('',#122,.T.);
#157=FACE_BOUND('',#123,.T.);
#158=FACE_BOUND('',#124,.T.);
#159=FACE_BOUND('',#125,.T.);
#160=FACE_BOUND('',#126,.T.);
#161=FACE_BOUND('',#127,.T.);
#162=FACE_BOUND('',#128,.T.);
#163=FACE_BOUND('',#129,.T.);
#164=FACE_BOUND('',#130,.T.);
#165=FACE_BOUND('',#131,.T.);
#166=FACE_BOUND('',#132,.T.);
#167=FACE_BOUND('',#133,.T.);
#168=FACE_BOUND('',#134,.T.);
#169=FACE_BOUND('',#135,.T.);
#170=FACE_BOUND('',#136,.T.);
#171=FACE_BOUND('',#137,.T.);
#172=FACE_BOUND('',#138,.T.);
#173=FACE_BOUND('',#139,.T.);
#174=FACE_BOUND('',#140,.T.);
#175=FACE_BOUND('',#141,.T.);
#176=FACE_BOUND('',#142,.T.);
#177=FACE_BOUND('',#143,.T.);
#178=FACE_BOUND('',#144,.T.);
#179=FACE_BOUND('',#145,.T.);
#180=FACE_BOUND('',#146,.T.);
#181=FACE_BOUND('',#147,.T.);
#182=FACE_BOUND('',#148,.T.);
#183=PLANE('',#342);
#184=PLANE('',#349);
#185=PLANE('',#355);
#186=PLANE('',#359);
#187=PLANE('',#363);
#188=PLANE('',#367);
#189=PLANE('',#371);
#190=PLANE('',#376);
#191=STYLED_ITEM('',(#209),#319);
#192=STYLED_ITEM('',(#210),#320);
#193=STYLED_ITEM('',(#211),#321);
#194=STYLED_ITEM('',(#212),#322);
#195=STYLED_ITEM('',(#213),#323);
#196=STYLED_ITEM('',(#214),#324);
#197=STYLED_ITEM('',(#215),#325);
#198=STYLED_ITEM('',(#216),#326);
#199=STYLED_ITEM('',(#217),#327);
#200=STYLED_ITEM('',(#218),#328);
#201=STYLED_ITEM('',(#219),#329);
#202=STYLED_ITEM('',(#220),#330);
#203=STYLED_ITEM('',(#221),#331);
#204=STYLED_ITEM('',(#222),#332);
#205=STYLED_ITEM('',(#223),#333);
#206=STYLED_ITEM('',(#224),#334);
#207=STYLED_ITEM('',(#225),#335);
#208=STYLED_ITEM('',(#226),#336);
#209=PRESENTATION_STYLE_ASSIGNMENT((#227));
#210=PRESENTATION_STYLE_ASSIGNMENT((#228));
#211=PRESENTATION_STYLE_ASSIGNMENT((#229));
#212=PRESENTATION_STYLE_ASSIGNMENT((#230));
#213=PRESENTATION_STYLE_ASSIGNMENT((#231));
#214=PRESENTATION_STYLE_ASSIGNMENT((#232));
#215=PRESENTATION_STYLE_ASSIGNMENT((#233));
#216=PRESENTATION_STYLE_ASSIGNMENT((#234));
#217=PRESENTATION_STYLE_ASSIGNMENT((#235));
#218=PRESENTATION_STYLE_ASSIGNMENT((#236));
#219=PRESENTATION_STYLE_ASSIGNMENT((#237));
#220=PRESENTATION_STYLE_ASSIGNMENT((#238));
#221=PRESENTATION_STYLE_ASSIGNMENT((#239));
#222=PRESENTATION_STYLE_ASSIGNMENT((#240));
#223=PRESENTATION_STYLE_ASSIGNMENT((#241));
#224=PRESENTATION_STYLE_ASSIGNMENT((#242));
#225=PRESENTATION_STYLE_ASSIGNMENT((#243));
#226=PRESENTATION_STYLE_ASSIGNMENT((#244));
#227=SURFACE_STYLE_USAGE(.BOTH.,#245);
#228=SURFACE_STYLE_USAGE(.BOTH.,#246);
#229=SURFACE_STYLE_USAGE(.BOTH.,#247);
#230=SURFACE_STYLE_USAGE(.BOTH.,#248);
#231=SURFACE_STYLE_USAGE(.BOTH.,#249);
#232=SURFACE_STYLE_USAGE(.BOTH.,#250);
#233=SURFACE_STYLE_USAGE(.BOTH.,#251);
#234=SURFACE_STYLE_USAGE(.BOTH.,#252);
#235=SURFACE_STYLE_USAGE(.BOTH.,#253);
#236=SURFACE_STYLE_USAGE(.BOTH.,#254);
#237=SURFACE_STYLE_USAGE(.BOTH.,#255);
#238=SURFACE_STYLE_USAGE(.BOTH.,#256);
#239=SURFACE_STYLE_USAGE(.BOTH.,#257);
#240=SURFACE_STYLE_USAGE(.BOTH.,#258);
#241=SURFACE_STYLE_USAGE(.BOTH.,#259);
#242=SURFACE_STYLE_USAGE(.BOTH.,#260);
#243=SURFACE_STYLE_USAGE(.BOTH.,#261);
#244=SURFACE_STYLE_USAGE(.BOTH.,#262);
#245=SURFACE_SIDE_STYLE('',(#263));
#246=SURFACE_SIDE_STYLE('',(#264));
#247=SURFACE_SIDE_STYLE('',(#265));
#248=SURFACE_SIDE_STYLE('',(#266));
#249=SURFACE_SIDE_STYLE('',(#267));
#250=SURFACE_SIDE_STYLE('',(#268));
#251=SURFACE_SIDE_STYLE('',(#269));
#252=SURFACE_SIDE_STYLE('',(#270));
#253=SURFACE_SIDE_STYLE('',(#271));
#254=SURFACE_SIDE_STYLE('',(#272));
#255=SURFACE_SIDE_STYLE('',(#273));
#256=SURFACE_SIDE_STYLE('',(#274));
#257=SURFACE_SIDE_STYLE('',(#275));
#258=SURFACE_SIDE_STYLE('',(#276));
#259=SURFACE_SIDE_STYLE('',(#277));
#260=SURFACE_SIDE_STYLE('',(#278));
#261=SURFACE_SIDE_STYLE('',(#279));
#262=SURFACE_SIDE_STYLE('',(#280));
#263=SURFACE_STYLE_FILL_AREA(#281);
#264=SURFACE_STYLE_FILL_AREA(#282);
#265=SURFACE_STYLE_FILL_AREA(#283);
#266=SURFACE_STYLE_FILL_AREA(#284);
#267=SURFACE_STYLE_FILL_AREA(#285);
#268=SURFACE_STYLE_FILL_AREA(#286);
#269=SURFACE_STYLE_FILL_AREA(#287);
#270=SURFACE_STYLE_FILL_AREA(#288);
#271=SURFACE_STYLE_FILL_AREA(#289);
#272=SURFACE_STYLE_FILL_AREA(#290);
#273=SURFACE_STYLE_FILL_AREA(#291);
#274=SURFACE_STYLE_FILL_AREA(#292);
#275=SURFACE_STYLE_FILL_AREA(#293);
#276=SURFACE_STYLE_FILL_AREA(#294);
#277=SURFACE_STYLE_FILL_AREA(#295);
#278=SURFACE_STYLE_FILL_AREA(#296);
#279=SURFACE_STYLE_FILL_AREA(#297);
#280=SURFACE_STYLE_FILL_AREA(#298);
#281=FILL_AREA_STYLE('',(#299));
#282=FILL_AREA_STYLE('',(#300));
#283=FILL_AREA_STYLE('',(#301));
#284=FILL_AREA_STYLE('',(#302));
#285=FILL_AREA_STYLE('',(#303));
#286=FILL_AREA_STYLE('',(#304));
#287=FILL_AREA_STYLE('',(#305));
#288=FILL_AREA_STYLE('',(#306));
#289=FILL_AREA_STYLE('',(#307));
#290=FILL_AREA_STYLE('',(#308));
#291=FILL_AREA_STYLE('',(#309));
#292=FILL_AREA_STYLE('',(#310));
#293=FILL_AREA_STYLE('',(#311));
#294=FILL_AREA_STYLE('',(#312));
#295=FILL_AREA_STYLE('',(#313));
#296=FILL_AREA_STYLE('',(#314));
#297=FILL_AREA_STYLE('',(#315));
#298=FILL_AREA_STYLE('',(#316));
#299=FILL_AREA_STYLE_COLOUR('',#317);
#300=FILL_AREA_STYLE_COLOUR('',#317);
#301=FILL_AREA_STYLE_COLOUR('',#317);
#302=FILL_AREA_STYLE_COLOUR('',#317);
#303=FILL_AREA_STYLE_COLOUR('',#317);
#304=FILL_AREA_STYLE_COLOUR('',#317);
#305=FILL_AREA_STYLE_COLOUR('',#317);
#306=FILL_AREA_STYLE_COLOUR('',#317);
#307=FILL_AREA_STYLE_COLOUR('',#317);
#308=FILL_AREA_STYLE_COLOUR('',#317);
#309=FILL_AREA_STYLE_COLOUR('',#317);
#310=FILL_AREA_STYLE_COLOUR('',#318);
#311=FILL_AREA_STYLE_COLOUR('',#317);
#312=FILL_AREA_STYLE_COLOUR('',#317);
#313=FILL_AREA_STYLE_COLOUR('',#317);
#314=FILL_AREA_STYLE_COLOUR('',#317);
#315=FILL_AREA_STYLE_COLOUR('',#317);
#316=FILL_AREA_STYLE_COLOUR('',#317);
#317=COLOUR_RGB('',0.,0.600000023841858,1.);
#318=COLOUR_RGB('',0.,0.60000002384186,1.);
#319=ADVANCED_FACE('',(#149,#150),#183,.F.);
#320=ADVANCED_FACE('',(#151,#152),#27,.T.);
#321=ADVANCED_FACE('',(#153,#154),#21,.T.);
#322=ADVANCED_FACE('',(#155,#156),#184,.F.);
#323=ADVANCED_FACE('',(#157,#158),#28,.T.);
#324=ADVANCED_FACE('',(#159,#160),#22,.T.);
#325=ADVANCED_FACE('',(#161,#162),#185,.F.);
#326=ADVANCED_FACE('',(#163,#164),#20,.F.);
#327=ADVANCED_FACE('',(#165,#166),#186,.F.);
#328=ADVANCED_FACE('',(#167,#168),#23,.T.);
#329=ADVANCED_FACE('',(#169,#170),#187,.F.);
#330=ADVANCED_FACE('',(#171,#172),#24,.T.);
#331=ADVANCED_FACE('',(#173,#174),#188,.F.);
#332=ADVANCED_FACE('',(#175,#176),#25,.T.);
#333=ADVANCED_FACE('',(#177),#189,.F.);
#334=ADVANCED_FACE('',(#178,#179),#29,.F.);
#335=ADVANCED_FACE('',(#180,#181),#26,.F.);
#336=ADVANCED_FACE('',(#182),#190,.T.);
#337=CLOSED_SHELL('',(#319,#320,#321,#322,#323,#324,#325,#326,#327,#328,
#329,#330,#331,#332,#333,#334,#335,#336));
#338=MANIFOLD_SOLID_BREP('547923 MS6-LFM-BI',#337);
#339=SHAPE_DEFINITION_REPRESENTATION(#508,#340);
#340=SHAPE_REPRESENTATION('547923 MS6-LFM-BI',(#341),#503);
#341=AXIS2_PLACEMENT_3D('',#449,#377,#378);
#342=AXIS2_PLACEMENT_3D('',#450,#379,#380);
#343=AXIS2_PLACEMENT_3D('',#451,#381,#382);
#344=AXIS2_PLACEMENT_3D('',#453,#383,#384);
#345=AXIS2_PLACEMENT_3D('',#455,#385,#386);
#346=AXIS2_PLACEMENT_3D('',#456,#387,#388);
#347=AXIS2_PLACEMENT_3D('',#458,#389,#390);
#348=AXIS2_PLACEMENT_3D('',#459,#391,#392);
#349=AXIS2_PLACEMENT_3D('',#461,#393,#394);
#350=AXIS2_PLACEMENT_3D('',#462,#395,#396);
#351=AXIS2_PLACEMENT_3D('',#464,#397,#398);
#352=AXIS2_PLACEMENT_3D('',#465,#399,#400);
#353=AXIS2_PLACEMENT_3D('',#467,#401,#402);
#354=AXIS2_PLACEMENT_3D('',#468,#403,#404);
#355=AXIS2_PLACEMENT_3D('',#470,#405,#406);
#356=AXIS2_PLACEMENT_3D('',#471,#407,#408);
#357=AXIS2_PLACEMENT_3D('',#473,#409,#410);
#358=AXIS2_PLACEMENT_3D('',#474,#411,#412);
#359=AXIS2_PLACEMENT_3D('',#476,#413,#414);
#360=AXIS2_PLACEMENT_3D('',#477,#415,#416);
#361=AXIS2_PLACEMENT_3D('',#479,#417,#418);
#362=AXIS2_PLACEMENT_3D('',#480,#419,#420);
#363=AXIS2_PLACEMENT_3D('',#482,#421,#422);
#364=AXIS2_PLACEMENT_3D('',#483,#423,#424);
#365=AXIS2_PLACEMENT_3D('',#485,#425,#426);
#366=AXIS2_PLACEMENT_3D('',#486,#427,#428);
#367=AXIS2_PLACEMENT_3D('',#488,#429,#430);
#368=AXIS2_PLACEMENT_3D('',#489,#431,#432);
#369=AXIS2_PLACEMENT_3D('',#491,#433,#434);
#370=AXIS2_PLACEMENT_3D('',#492,#435,#436);
#371=AXIS2_PLACEMENT_3D('',#494,#437,#438);
#372=AXIS2_PLACEMENT_3D('',#495,#439,#440);
#373=AXIS2_PLACEMENT_3D('',#496,#441,#442);
#374=AXIS2_PLACEMENT_3D('',#498,#443,#444);
#375=AXIS2_PLACEMENT_3D('',#499,#445,#446);
#376=AXIS2_PLACEMENT_3D('',#501,#447,#448);
#377=DIRECTION('',(0.,0.,1.));
#378=DIRECTION('',(1.,0.,0.));
#379=DIRECTION('',(0.,0.,-1.));
#380=DIRECTION('',(-1.,0.,0.));
#381=DIRECTION('',(0.,0.,-1.));
#382=DIRECTION('',(-1.,0.,0.));
#383=DIRECTION('',(0.,0.,-1.));
#384=DIRECTION('',(-1.,0.,0.));
#385=DIRECTION('',(0.,0.,-1.));
#386=DIRECTION('',(-1.,0.,0.));
#387=DIRECTION('',(0.,0.,-1.));
#388=DIRECTION('',(-1.,0.,0.));
#389=DIRECTION('',(0.,0.,-1.));
#390=DIRECTION('',(-1.,0.,0.));
#391=DIRECTION('',(0.,0.,-1.));
#392=DIRECTION('',(-1.,0.,0.));
#393=DIRECTION('',(0.,0.,-1.));
#394=DIRECTION('',(-1.,0.,0.));
#395=DIRECTION('',(0.,0.,-1.));
#396=DIRECTION('',(-1.,0.,0.));
#397=DIRECTION('',(0.,0.,-1.));
#398=DIRECTION('',(-1.,0.,0.));
#399=DIRECTION('',(0.,0.,-1.));
#400=DIRECTION('',(-1.,0.,0.));
#401=DIRECTION('',(0.,0.,-1.));
#402=DIRECTION('',(-1.,0.,0.));
#403=DIRECTION('',(0.,0.,-1.));
#404=DIRECTION('',(-1.,0.,0.));
#405=DIRECTION('',(0.,0.,1.));
#406=DIRECTION('',(1.,0.,0.));
#407=DIRECTION('',(0.,0.,-1.));
#408=DIRECTION('',(-1.,0.,0.));
#409=DIRECTION('',(0.,0.,-1.));
#410=DIRECTION('',(-1.,0.,0.));
#411=DIRECTION('',(0.,0.,-1.));
#412=DIRECTION('',(-1.,0.,0.));
#413=DIRECTION('',(0.,0.,-1.));
#414=DIRECTION('',(-1.,0.,0.));
#415=DIRECTION('',(0.,0.,-1.));
#416=DIRECTION('',(-1.,0.,0.));
#417=DIRECTION('',(0.,0.,-1.));
#418=DIRECTION('',(-1.,0.,0.));
#419=DIRECTION('',(0.,0.,-1.));
#420=DIRECTION('',(-1.,0.,0.));
#421=DIRECTION('',(0.,0.,1.));
#422=DIRECTION('',(1.,0.,0.));
#423=DIRECTION('',(0.,0.,-1.));
#424=DIRECTION('',(-1.,0.,0.));
#425=DIRECTION('',(0.,0.,-1.));
#426=DIRECTION('',(-1.,0.,0.));
#427=DIRECTION('',(0.,0.,-1.));
#428=DIRECTION('',(-1.,0.,0.));
#429=DIRECTION('',(0.,0.,-1.));
#430=DIRECTION('',(-1.,0.,0.));
#431=DIRECTION('',(0.,0.,-1.));
#432=DIRECTION('',(-1.,0.,0.));
#433=DIRECTION('',(0.,0.,-1.));
#434=DIRECTION('',(-1.,0.,0.));
#435=DIRECTION('',(0.,0.,-1.));
#436=DIRECTION('',(-1.,0.,0.));
#437=DIRECTION('',(0.,0.,1.));
#438=DIRECTION('',(1.,0.,0.));
#439=DIRECTION('',(0.,0.,1.));
#440=DIRECTION('',(1.,0.,0.));
#441=DIRECTION('',(0.,0.,-1.));
#442=DIRECTION('',(-1.,0.,0.));
#443=DIRECTION('',(0.,0.,-1.));
#444=DIRECTION('',(-1.,0.,0.));
#445=DIRECTION('',(0.,0.,-1.));
#446=DIRECTION('',(-1.,0.,0.));
#447=DIRECTION('',(0.,0.,1.));
#448=DIRECTION('',(1.,0.,0.));
#449=CARTESIAN_POINT('',(0.,0.,0.));
#450=CARTESIAN_POINT('',(0.,0.,7.5));
#451=CARTESIAN_POINT('',(0.,0.,7.49999999999999));
#452=CARTESIAN_POINT('',(-10.5,0.,7.49999999999999));
#453=CARTESIAN_POINT('',(0.,0.,7.50000000000001));
#454=CARTESIAN_POINT('',(-9.5,0.,7.50000000000001));
#455=CARTESIAN_POINT('',(0.,0.,7.49999999999999));
#456=CARTESIAN_POINT('',(0.,0.,6.99999999999999));
#457=CARTESIAN_POINT('',(-11.,0.,6.99999999999999));
#458=CARTESIAN_POINT('',(0.,0.,-74.));
#459=CARTESIAN_POINT('',(0.,0.,6.50000000000001));
#460=CARTESIAN_POINT('',(-11.,0.,6.50000000000001));
#461=CARTESIAN_POINT('',(0.,11.,6.5));
#462=CARTESIAN_POINT('',(0.,0.,6.50000000000001));
#463=CARTESIAN_POINT('',(-11.08,0.,6.50000000000001));
#464=CARTESIAN_POINT('',(0.,0.,6.50000000000001));
#465=CARTESIAN_POINT('',(0.,0.,5.58));
#466=CARTESIAN_POINT('',(-12.,0.,5.58));
#467=CARTESIAN_POINT('',(0.,0.,-74.));
#468=CARTESIAN_POINT('',(0.,0.,1.65));
#469=CARTESIAN_POINT('',(-12.,0.,1.65));
#470=CARTESIAN_POINT('',(0.,12.,1.65));
#471=CARTESIAN_POINT('',(0.,0.,1.65));
#472=CARTESIAN_POINT('',(-11.825,0.,1.65));
#473=CARTESIAN_POINT('',(0.,0.,0.825));
#474=CARTESIAN_POINT('',(0.,0.,0.));
#475=CARTESIAN_POINT('',(-11.825,0.,0.));
#476=CARTESIAN_POINT('',(0.,11.825,0.));
#477=CARTESIAN_POINT('',(0.,0.,0.));
#478=CARTESIAN_POINT('',(-16.,0.,0.));
#479=CARTESIAN_POINT('',(0.,0.,-74.));
#480=CARTESIAN_POINT('',(0.,0.,-6.50000000000001));
#481=CARTESIAN_POINT('',(-16.,0.,-6.50000000000001));
#482=CARTESIAN_POINT('',(0.,16.,-6.5));
#483=CARTESIAN_POINT('',(0.,0.,-6.50000000000001));
#484=CARTESIAN_POINT('',(-14.6,0.,-6.50000000000001));
#485=CARTESIAN_POINT('',(0.,0.,-74.));
#486=CARTESIAN_POINT('',(0.,0.,-67.5));
#487=CARTESIAN_POINT('',(-14.6,0.,-67.5));
#488=CARTESIAN_POINT('',(0.,14.6,-67.5));
#489=CARTESIAN_POINT('',(0.,0.,-67.5));
#490=CARTESIAN_POINT('',(-16.,0.,-67.5));
#491=CARTESIAN_POINT('',(0.,0.,-74.));
#492=CARTESIAN_POINT('',(0.,0.,-74.));
#493=CARTESIAN_POINT('',(-16.,0.,-74.));
#494=CARTESIAN_POINT('',(0.,16.,-74.));
#495=CARTESIAN_POINT('',(0.,0.,7.50000000000001));
#496=CARTESIAN_POINT('',(0.,0.,0.13878406783227));
#497=CARTESIAN_POINT('',(-5.25,0.,0.13878406783227));
#498=CARTESIAN_POINT('',(0.,0.,-67.5));
#499=CARTESIAN_POINT('',(0.,0.,-67.5));
#500=CARTESIAN_POINT('',(-5.25,0.,-67.5));
#501=CARTESIAN_POINT('',(0.,5.25,-67.5));
#502=MECHANICAL_DESIGN_GEOMETRIC_PRESENTATION_REPRESENTATION('',(#191,#192,
#193,#194,#195,#196,#197,#198,#199,#200,#201,#202,#203,#204,#205,#206,#207,
#208),#503);
#503=(
GEOMETRIC_REPRESENTATION_CONTEXT(3)
GLOBAL_UNCERTAINTY_ASSIGNED_CONTEXT((#504))
GLOBAL_UNIT_ASSIGNED_CONTEXT((#507,#506,#505))
REPRESENTATION_CONTEXT('547923 MS6-LFM-BI','TOP_LEVEL_ASSEMBLY_PART')
);
#504=UNCERTAINTY_MEASURE_WITH_UNIT(LENGTH_MEASURE(0.005),#507,
'DISTANCE_ACCURACY_VALUE','Maximum Tolerance applied to model');
#505=(
NAMED_UNIT(*)
SI_UNIT($,.STERADIAN.)
SOLID_ANGLE_UNIT()
);
#506=(
NAMED_UNIT(*)
PLANE_ANGLE_UNIT()
SI_UNIT($,.RADIAN.)
);
#507=(
LENGTH_UNIT()
NAMED_UNIT(*)
SI_UNIT(.MILLI.,.METRE.)
);
#508=PRODUCT_DEFINITION_SHAPE('','',#509);
#509=PRODUCT_DEFINITION('','',#511,#510);
#510=PRODUCT_DEFINITION_CONTEXT('',#517,'design');
#511=PRODUCT_DEFINITION_FORMATION_WITH_SPECIFIED_SOURCE('','',#513,
 .NOT_KNOWN.);
#512=PRODUCT_RELATED_PRODUCT_CATEGORY('','',(#513));
#513=PRODUCT('547923 MS6-LFM-BI','547923 MS6-LFM-BI',
'547923 MS6-LFM-BI',(#515));
#514=PRODUCT_CATEGORY('','');
#515=PRODUCT_CONTEXT('',#517,'mechanical');
#516=APPLICATION_PROTOCOL_DEFINITION('international standard',
'automotive_design',2010,#517);
#517=APPLICATION_CONTEXT(
'core data for automotive mechanical design processes');
ENDSEC;
END-ISO-10303-21;
