ISO-10303-21;
HEADER;
/* Generated by software containing ST-Developer
 * from STEP Tools, Inc. (www.steptools.com) 
 */
/* OPTION: using custom renumber hook */

FILE_DESCRIPTION(
/* description */ ('STEP AP214'),
/* implementation_level */ '2;1');

FILE_NAME(
/* name */ '552093_MS6-LFM-A-HF',
/* time_stamp */ '2024-09-10T17:15:42+02:00',
/* author */ ('License CC BY-ND 4.0'),
/* organization */ ('CADENAS'),
/* preprocessor_version */ 'ST-DEVELOPER v19.3',
/* originating_system */ 'PARTsolutions',
/* authorisation */ '  ');

FILE_SCHEMA (('AUTOMOTIVE_DESIGN {1 0 10303 214 3 1 1}'));
ENDSEC;

DATA;
#10=PROPERTY_DEFINITION_REPRESENTATION(#14,#12);
#11=PROPERTY_DEFINITION_REPRESENTATION(#15,#13);
#12=REPRESENTATION('',(#16),#666);
#13=REPRESENTATION('',(#17),#666);
#14=PROPERTY_DEFINITION('pmi validation property','',#671);
#15=PROPERTY_DEFINITION('pmi validation property','',#671);
#16=VALUE_REPRESENTATION_ITEM('number of annotations',COUNT_MEASURE(0.));
#17=VALUE_REPRESENTATION_ITEM('number of views',COUNT_MEASURE(0.));
#18=SHAPE_REPRESENTATION_RELATIONSHIP('','',#449,#19);
#19=ADVANCED_BREP_SHAPE_REPRESENTATION('',(#447),#666);
#20=CONICAL_SURFACE('',#487,10.05,0.261799387799149);
#21=CONICAL_SURFACE('',#491,11.5,0.785398163397448);
#22=CYLINDRICAL_SURFACE('',#456,15.5);
#23=CYLINDRICAL_SURFACE('',#462,15.65);
#24=CYLINDRICAL_SURFACE('',#468,15.65);
#25=CYLINDRICAL_SURFACE('',#474,10.);
#26=CYLINDRICAL_SURFACE('',#480,11.74);
#27=CYLINDRICAL_SURFACE('',#483,6.99999999999999);
#28=CYLINDRICAL_SURFACE('',#493,12.);
#29=CYLINDRICAL_SURFACE('',#497,11.);
#30=TOROIDAL_SURFACE('',#454,15.,0.499999999999945);
#31=TOROIDAL_SURFACE('',#460,15.35,0.300000000000022);
#32=TOROIDAL_SURFACE('',#464,15.35,0.300000000000002);
#33=TOROIDAL_SURFACE('',#470,15.15,0.499999999999997);
#34=TOROIDAL_SURFACE('',#477,11.74,0.750000000000028);
#35=TOROIDAL_SURFACE('',#485,16.9999999999998,9.99999999999981);
#36=ORIENTED_EDGE('',*,*,#82,.F.);
#37=ORIENTED_EDGE('',*,*,#83,.T.);
#38=ORIENTED_EDGE('',*,*,#82,.T.);
#39=ORIENTED_EDGE('',*,*,#84,.F.);
#40=ORIENTED_EDGE('',*,*,#85,.F.);
#41=ORIENTED_EDGE('',*,*,#84,.T.);
#42=ORIENTED_EDGE('',*,*,#86,.F.);
#43=ORIENTED_EDGE('',*,*,#85,.T.);
#44=ORIENTED_EDGE('',*,*,#86,.T.);
#45=ORIENTED_EDGE('',*,*,#87,.F.);
#46=ORIENTED_EDGE('',*,*,#88,.F.);
#47=ORIENTED_EDGE('',*,*,#87,.T.);
#48=ORIENTED_EDGE('',*,*,#88,.T.);
#49=ORIENTED_EDGE('',*,*,#89,.F.);
#50=ORIENTED_EDGE('',*,*,#90,.F.);
#51=ORIENTED_EDGE('',*,*,#89,.T.);
#52=ORIENTED_EDGE('',*,*,#91,.F.);
#53=ORIENTED_EDGE('',*,*,#90,.T.);
#54=ORIENTED_EDGE('',*,*,#91,.T.);
#55=ORIENTED_EDGE('',*,*,#92,.F.);
#56=ORIENTED_EDGE('',*,*,#93,.F.);
#57=ORIENTED_EDGE('',*,*,#92,.T.);
#58=ORIENTED_EDGE('',*,*,#94,.F.);
#59=ORIENTED_EDGE('',*,*,#93,.T.);
#60=ORIENTED_EDGE('',*,*,#94,.T.);
#61=ORIENTED_EDGE('',*,*,#95,.F.);
#62=ORIENTED_EDGE('',*,*,#96,.F.);
#63=ORIENTED_EDGE('',*,*,#96,.T.);
#64=ORIENTED_EDGE('',*,*,#83,.F.);
#65=ORIENTED_EDGE('',*,*,#97,.F.);
#66=ORIENTED_EDGE('',*,*,#97,.T.);
#67=ORIENTED_EDGE('',*,*,#98,.F.);
#68=ORIENTED_EDGE('',*,*,#98,.T.);
#69=ORIENTED_EDGE('',*,*,#99,.F.);
#70=ORIENTED_EDGE('',*,*,#99,.T.);
#71=ORIENTED_EDGE('',*,*,#100,.F.);
#72=ORIENTED_EDGE('',*,*,#101,.F.);
#73=ORIENTED_EDGE('',*,*,#100,.T.);
#74=ORIENTED_EDGE('',*,*,#102,.F.);
#75=ORIENTED_EDGE('',*,*,#101,.T.);
#76=ORIENTED_EDGE('',*,*,#103,.F.);
#77=ORIENTED_EDGE('',*,*,#102,.T.);
#78=ORIENTED_EDGE('',*,*,#104,.F.);
#79=ORIENTED_EDGE('',*,*,#103,.T.);
#80=ORIENTED_EDGE('',*,*,#95,.T.);
#81=ORIENTED_EDGE('',*,*,#104,.T.);
#82=EDGE_CURVE('',#105,#105,#128,.T.);
#83=EDGE_CURVE('',#106,#106,#129,.T.);
#84=EDGE_CURVE('',#107,#107,#130,.T.);
#85=EDGE_CURVE('',#108,#108,#131,.T.);
#86=EDGE_CURVE('',#109,#109,#132,.T.);
#87=EDGE_CURVE('',#110,#110,#133,.T.);
#88=EDGE_CURVE('',#111,#111,#134,.T.);
#89=EDGE_CURVE('',#112,#112,#135,.T.);
#90=EDGE_CURVE('',#113,#113,#136,.T.);
#91=EDGE_CURVE('',#114,#114,#137,.T.);
#92=EDGE_CURVE('',#115,#115,#138,.T.);
#93=EDGE_CURVE('',#116,#116,#139,.T.);
#94=EDGE_CURVE('',#117,#117,#140,.T.);
#95=EDGE_CURVE('',#118,#118,#141,.F.);
#96=EDGE_CURVE('',#119,#119,#142,.T.);
#97=EDGE_CURVE('',#120,#120,#143,.T.);
#98=EDGE_CURVE('',#121,#121,#144,.T.);
#99=EDGE_CURVE('',#122,#122,#145,.T.);
#100=EDGE_CURVE('',#123,#123,#146,.T.);
#101=EDGE_CURVE('',#124,#124,#147,.T.);
#102=EDGE_CURVE('',#125,#125,#148,.T.);
#103=EDGE_CURVE('',#126,#126,#149,.T.);
#104=EDGE_CURVE('',#127,#127,#150,.T.);
#105=VERTEX_POINT('',#597);
#106=VERTEX_POINT('',#599);
#107=VERTEX_POINT('',#602);
#108=VERTEX_POINT('',#605);
#109=VERTEX_POINT('',#608);
#110=VERTEX_POINT('',#611);
#111=VERTEX_POINT('',#614);
#112=VERTEX_POINT('',#617);
#113=VERTEX_POINT('',#620);
#114=VERTEX_POINT('',#623);
#115=VERTEX_POINT('',#626);
#116=VERTEX_POINT('',#629);
#117=VERTEX_POINT('',#632);
#118=VERTEX_POINT('',#636);
#119=VERTEX_POINT('',#638);
#120=VERTEX_POINT('',#642);
#121=VERTEX_POINT('',#645);
#122=VERTEX_POINT('',#648);
#123=VERTEX_POINT('',#651);
#124=VERTEX_POINT('',#654);
#125=VERTEX_POINT('',#657);
#126=VERTEX_POINT('',#660);
#127=VERTEX_POINT('',#663);
#128=CIRCLE('',#452,15.);
#129=CIRCLE('',#453,11.74);
#130=CIRCLE('',#455,15.5);
#131=CIRCLE('',#457,15.5);
#132=CIRCLE('',#459,15.35);
#133=CIRCLE('',#461,15.65);
#134=CIRCLE('',#463,15.65);
#135=CIRCLE('',#465,15.35);
#136=CIRCLE('',#467,15.65);
#137=CIRCLE('',#469,15.65);
#138=CIRCLE('',#471,15.15);
#139=CIRCLE('',#473,10.);
#140=CIRCLE('',#475,10.);
#141=CIRCLE('',#478,11.);
#142=CIRCLE('',#479,11.74);
#143=CIRCLE('',#482,7.);
#144=CIRCLE('',#484,6.99999999999999);
#145=CIRCLE('',#486,7.34074173710931);
#146=CIRCLE('',#488,10.05);
#147=CIRCLE('',#490,11.5);
#148=CIRCLE('',#492,12.);
#149=CIRCLE('',#494,12.);
#150=CIRCLE('',#496,11.);
#151=EDGE_LOOP('',(#36));
#152=EDGE_LOOP('',(#37));
#153=EDGE_LOOP('',(#38));
#154=EDGE_LOOP('',(#39));
#155=EDGE_LOOP('',(#40));
#156=EDGE_LOOP('',(#41));
#157=EDGE_LOOP('',(#42));
#158=EDGE_LOOP('',(#43));
#159=EDGE_LOOP('',(#44));
#160=EDGE_LOOP('',(#45));
#161=EDGE_LOOP('',(#46));
#162=EDGE_LOOP('',(#47));
#163=EDGE_LOOP('',(#48));
#164=EDGE_LOOP('',(#49));
#165=EDGE_LOOP('',(#50));
#166=EDGE_LOOP('',(#51));
#167=EDGE_LOOP('',(#52));
#168=EDGE_LOOP('',(#53));
#169=EDGE_LOOP('',(#54));
#170=EDGE_LOOP('',(#55));
#171=EDGE_LOOP('',(#56));
#172=EDGE_LOOP('',(#57));
#173=EDGE_LOOP('',(#58));
#174=EDGE_LOOP('',(#59));
#175=EDGE_LOOP('',(#60));
#176=EDGE_LOOP('',(#61));
#177=EDGE_LOOP('',(#62));
#178=EDGE_LOOP('',(#63));
#179=EDGE_LOOP('',(#64));
#180=EDGE_LOOP('',(#65));
#181=EDGE_LOOP('',(#66));
#182=EDGE_LOOP('',(#67));
#183=EDGE_LOOP('',(#68));
#184=EDGE_LOOP('',(#69));
#185=EDGE_LOOP('',(#70));
#186=EDGE_LOOP('',(#71));
#187=EDGE_LOOP('',(#72));
#188=EDGE_LOOP('',(#73));
#189=EDGE_LOOP('',(#74));
#190=EDGE_LOOP('',(#75));
#191=EDGE_LOOP('',(#76));
#192=EDGE_LOOP('',(#77));
#193=EDGE_LOOP('',(#78));
#194=EDGE_LOOP('',(#79));
#195=EDGE_LOOP('',(#80));
#196=EDGE_LOOP('',(#81));
#197=FACE_BOUND('',#151,.T.);
#198=FACE_BOUND('',#152,.T.);
#199=FACE_BOUND('',#153,.T.);
#200=FACE_BOUND('',#154,.T.);
#201=FACE_BOUND('',#155,.T.);
#202=FACE_BOUND('',#156,.T.);
#203=FACE_BOUND('',#157,.T.);
#204=FACE_BOUND('',#158,.T.);
#205=FACE_BOUND('',#159,.T.);
#206=FACE_BOUND('',#160,.T.);
#207=FACE_BOUND('',#161,.T.);
#208=FACE_BOUND('',#162,.T.);
#209=FACE_BOUND('',#163,.T.);
#210=FACE_BOUND('',#164,.T.);
#211=FACE_BOUND('',#165,.T.);
#212=FACE_BOUND('',#166,.T.);
#213=FACE_BOUND('',#167,.T.);
#214=FACE_BOUND('',#168,.T.);
#215=FACE_BOUND('',#169,.T.);
#216=FACE_BOUND('',#170,.T.);
#217=FACE_BOUND('',#171,.T.);
#218=FACE_BOUND('',#172,.T.);
#219=FACE_BOUND('',#173,.T.);
#220=FACE_BOUND('',#174,.T.);
#221=FACE_BOUND('',#175,.T.);
#222=FACE_BOUND('',#176,.T.);
#223=FACE_BOUND('',#177,.T.);
#224=FACE_BOUND('',#178,.T.);
#225=FACE_BOUND('',#179,.T.);
#226=FACE_BOUND('',#180,.T.);
#227=FACE_BOUND('',#181,.T.);
#228=FACE_BOUND('',#182,.T.);
#229=FACE_BOUND('',#183,.T.);
#230=FACE_BOUND('',#184,.T.);
#231=FACE_BOUND('',#185,.T.);
#232=FACE_BOUND('',#186,.T.);
#233=FACE_BOUND('',#187,.T.);
#234=FACE_BOUND('',#188,.T.);
#235=FACE_BOUND('',#189,.T.);
#236=FACE_BOUND('',#190,.T.);
#237=FACE_BOUND('',#191,.T.);
#238=FACE_BOUND('',#192,.T.);
#239=FACE_BOUND('',#193,.T.);
#240=FACE_BOUND('',#194,.T.);
#241=FACE_BOUND('',#195,.T.);
#242=FACE_BOUND('',#196,.T.);
#243=PLANE('',#451);
#244=PLANE('',#458);
#245=PLANE('',#466);
#246=PLANE('',#472);
#247=PLANE('',#476);
#248=PLANE('',#481);
#249=PLANE('',#489);
#250=PLANE('',#495);
#251=STYLED_ITEM('',(#275),#422);
#252=STYLED_ITEM('',(#276),#423);
#253=STYLED_ITEM('',(#277),#424);
#254=STYLED_ITEM('',(#278),#425);
#255=STYLED_ITEM('',(#279),#426);
#256=STYLED_ITEM('',(#280),#427);
#257=STYLED_ITEM('',(#281),#428);
#258=STYLED_ITEM('',(#282),#429);
#259=STYLED_ITEM('',(#283),#430);
#260=STYLED_ITEM('',(#284),#431);
#261=STYLED_ITEM('',(#285),#432);
#262=STYLED_ITEM('',(#286),#433);
#263=STYLED_ITEM('',(#287),#434);
#264=STYLED_ITEM('',(#288),#435);
#265=STYLED_ITEM('',(#289),#436);
#266=STYLED_ITEM('',(#290),#437);
#267=STYLED_ITEM('',(#291),#438);
#268=STYLED_ITEM('',(#292),#439);
#269=STYLED_ITEM('',(#293),#440);
#270=STYLED_ITEM('',(#294),#441);
#271=STYLED_ITEM('',(#295),#442);
#272=STYLED_ITEM('',(#296),#443);
#273=STYLED_ITEM('',(#297),#444);
#274=STYLED_ITEM('',(#298),#445);
#275=PRESENTATION_STYLE_ASSIGNMENT((#299));
#276=PRESENTATION_STYLE_ASSIGNMENT((#300));
#277=PRESENTATION_STYLE_ASSIGNMENT((#301));
#278=PRESENTATION_STYLE_ASSIGNMENT((#302));
#279=PRESENTATION_STYLE_ASSIGNMENT((#303));
#280=PRESENTATION_STYLE_ASSIGNMENT((#304));
#281=PRESENTATION_STYLE_ASSIGNMENT((#305));
#282=PRESENTATION_STYLE_ASSIGNMENT((#306));
#283=PRESENTATION_STYLE_ASSIGNMENT((#307));
#284=PRESENTATION_STYLE_ASSIGNMENT((#308));
#285=PRESENTATION_STYLE_ASSIGNMENT((#309));
#286=PRESENTATION_STYLE_ASSIGNMENT((#310));
#287=PRESENTATION_STYLE_ASSIGNMENT((#311));
#288=PRESENTATION_STYLE_ASSIGNMENT((#312));
#289=PRESENTATION_STYLE_ASSIGNMENT((#313));
#290=PRESENTATION_STYLE_ASSIGNMENT((#314));
#291=PRESENTATION_STYLE_ASSIGNMENT((#315));
#292=PRESENTATION_STYLE_ASSIGNMENT((#316));
#293=PRESENTATION_STYLE_ASSIGNMENT((#317));
#294=PRESENTATION_STYLE_ASSIGNMENT((#318));
#295=PRESENTATION_STYLE_ASSIGNMENT((#319));
#296=PRESENTATION_STYLE_ASSIGNMENT((#320));
#297=PRESENTATION_STYLE_ASSIGNMENT((#321));
#298=PRESENTATION_STYLE_ASSIGNMENT((#322));
#299=SURFACE_STYLE_USAGE(.BOTH.,#323);
#300=SURFACE_STYLE_USAGE(.BOTH.,#324);
#301=SURFACE_STYLE_USAGE(.BOTH.,#325);
#302=SURFACE_STYLE_USAGE(.BOTH.,#326);
#303=SURFACE_STYLE_USAGE(.BOTH.,#327);
#304=SURFACE_STYLE_USAGE(.BOTH.,#328);
#305=SURFACE_STYLE_USAGE(.BOTH.,#329);
#306=SURFACE_STYLE_USAGE(.BOTH.,#330);
#307=SURFACE_STYLE_USAGE(.BOTH.,#331);
#308=SURFACE_STYLE_USAGE(.BOTH.,#332);
#309=SURFACE_STYLE_USAGE(.BOTH.,#333);
#310=SURFACE_STYLE_USAGE(.BOTH.,#334);
#311=SURFACE_STYLE_USAGE(.BOTH.,#335);
#312=SURFACE_STYLE_USAGE(.BOTH.,#336);
#313=SURFACE_STYLE_USAGE(.BOTH.,#337);
#314=SURFACE_STYLE_USAGE(.BOTH.,#338);
#315=SURFACE_STYLE_USAGE(.BOTH.,#339);
#316=SURFACE_STYLE_USAGE(.BOTH.,#340);
#317=SURFACE_STYLE_USAGE(.BOTH.,#341);
#318=SURFACE_STYLE_USAGE(.BOTH.,#342);
#319=SURFACE_STYLE_USAGE(.BOTH.,#343);
#320=SURFACE_STYLE_USAGE(.BOTH.,#344);
#321=SURFACE_STYLE_USAGE(.BOTH.,#345);
#322=SURFACE_STYLE_USAGE(.BOTH.,#346);
#323=SURFACE_SIDE_STYLE('',(#347));
#324=SURFACE_SIDE_STYLE('',(#348));
#325=SURFACE_SIDE_STYLE('',(#349));
#326=SURFACE_SIDE_STYLE('',(#350));
#327=SURFACE_SIDE_STYLE('',(#351));
#328=SURFACE_SIDE_STYLE('',(#352));
#329=SURFACE_SIDE_STYLE('',(#353));
#330=SURFACE_SIDE_STYLE('',(#354));
#331=SURFACE_SIDE_STYLE('',(#355));
#332=SURFACE_SIDE_STYLE('',(#356));
#333=SURFACE_SIDE_STYLE('',(#357));
#334=SURFACE_SIDE_STYLE('',(#358));
#335=SURFACE_SIDE_STYLE('',(#359));
#336=SURFACE_SIDE_STYLE('',(#360));
#337=SURFACE_SIDE_STYLE('',(#361));
#338=SURFACE_SIDE_STYLE('',(#362));
#339=SURFACE_SIDE_STYLE('',(#363));
#340=SURFACE_SIDE_STYLE('',(#364));
#341=SURFACE_SIDE_STYLE('',(#365));
#342=SURFACE_SIDE_STYLE('',(#366));
#343=SURFACE_SIDE_STYLE('',(#367));
#344=SURFACE_SIDE_STYLE('',(#368));
#345=SURFACE_SIDE_STYLE('',(#369));
#346=SURFACE_SIDE_STYLE('',(#370));
#347=SURFACE_STYLE_FILL_AREA(#371);
#348=SURFACE_STYLE_FILL_AREA(#372);
#349=SURFACE_STYLE_FILL_AREA(#373);
#350=SURFACE_STYLE_FILL_AREA(#374);
#351=SURFACE_STYLE_FILL_AREA(#375);
#352=SURFACE_STYLE_FILL_AREA(#376);
#353=SURFACE_STYLE_FILL_AREA(#377);
#354=SURFACE_STYLE_FILL_AREA(#378);
#355=SURFACE_STYLE_FILL_AREA(#379);
#356=SURFACE_STYLE_FILL_AREA(#380);
#357=SURFACE_STYLE_FILL_AREA(#381);
#358=SURFACE_STYLE_FILL_AREA(#382);
#359=SURFACE_STYLE_FILL_AREA(#383);
#360=SURFACE_STYLE_FILL_AREA(#384);
#361=SURFACE_STYLE_FILL_AREA(#385);
#362=SURFACE_STYLE_FILL_AREA(#386);
#363=SURFACE_STYLE_FILL_AREA(#387);
#364=SURFACE_STYLE_FILL_AREA(#388);
#365=SURFACE_STYLE_FILL_AREA(#389);
#366=SURFACE_STYLE_FILL_AREA(#390);
#367=SURFACE_STYLE_FILL_AREA(#391);
#368=SURFACE_STYLE_FILL_AREA(#392);
#369=SURFACE_STYLE_FILL_AREA(#393);
#370=SURFACE_STYLE_FILL_AREA(#394);
#371=FILL_AREA_STYLE('',(#395));
#372=FILL_AREA_STYLE('',(#396));
#373=FILL_AREA_STYLE('',(#397));
#374=FILL_AREA_STYLE('',(#398));
#375=FILL_AREA_STYLE('',(#399));
#376=FILL_AREA_STYLE('',(#400));
#377=FILL_AREA_STYLE('',(#401));
#378=FILL_AREA_STYLE('',(#402));
#379=FILL_AREA_STYLE('',(#403));
#380=FILL_AREA_STYLE('',(#404));
#381=FILL_AREA_STYLE('',(#405));
#382=FILL_AREA_STYLE('',(#406));
#383=FILL_AREA_STYLE('',(#407));
#384=FILL_AREA_STYLE('',(#408));
#385=FILL_AREA_STYLE('',(#409));
#386=FILL_AREA_STYLE('',(#410));
#387=FILL_AREA_STYLE('',(#411));
#388=FILL_AREA_STYLE('',(#412));
#389=FILL_AREA_STYLE('',(#413));
#390=FILL_AREA_STYLE('',(#414));
#391=FILL_AREA_STYLE('',(#415));
#392=FILL_AREA_STYLE('',(#416));
#393=FILL_AREA_STYLE('',(#417));
#394=FILL_AREA_STYLE('',(#418));
#395=FILL_AREA_STYLE_COLOUR('',#419);
#396=FILL_AREA_STYLE_COLOUR('',#419);
#397=FILL_AREA_STYLE_COLOUR('',#419);
#398=FILL_AREA_STYLE_COLOUR('',#419);
#399=FILL_AREA_STYLE_COLOUR('',#419);
#400=FILL_AREA_STYLE_COLOUR('',#420);
#401=FILL_AREA_STYLE_COLOUR('',#419);
#402=FILL_AREA_STYLE_COLOUR('',#419);
#403=FILL_AREA_STYLE_COLOUR('',#419);
#404=FILL_AREA_STYLE_COLOUR('',#419);
#405=FILL_AREA_STYLE_COLOUR('',#419);
#406=FILL_AREA_STYLE_COLOUR('',#419);
#407=FILL_AREA_STYLE_COLOUR('',#419);
#408=FILL_AREA_STYLE_COLOUR('',#421);
#409=FILL_AREA_STYLE_COLOUR('',#419);
#410=FILL_AREA_STYLE_COLOUR('',#419);
#411=FILL_AREA_STYLE_COLOUR('',#419);
#412=FILL_AREA_STYLE_COLOUR('',#419);
#413=FILL_AREA_STYLE_COLOUR('',#419);
#414=FILL_AREA_STYLE_COLOUR('',#419);
#415=FILL_AREA_STYLE_COLOUR('',#419);
#416=FILL_AREA_STYLE_COLOUR('',#419);
#417=FILL_AREA_STYLE_COLOUR('',#419);
#418=FILL_AREA_STYLE_COLOUR('',#419);
#419=COLOUR_RGB('',0.689999997615814,0.689999997615814,0.689999997615814);
#420=COLOUR_RGB('',0.75300002098083,0.75300002098083,0.75300002098083);
#421=COLOUR_RGB('',0.50199997425079,0.50199997425079,0.50199997425079);
#422=ADVANCED_FACE('',(#197,#198),#243,.F.);
#423=ADVANCED_FACE('',(#199,#200),#30,.T.);
#424=ADVANCED_FACE('',(#201,#202),#22,.T.);
#425=ADVANCED_FACE('',(#203,#204),#244,.F.);
#426=ADVANCED_FACE('',(#205,#206),#31,.T.);
#427=ADVANCED_FACE('',(#207,#208),#23,.T.);
#428=ADVANCED_FACE('',(#209,#210),#32,.T.);
#429=ADVANCED_FACE('',(#211,#212),#245,.F.);
#430=ADVANCED_FACE('',(#213,#214),#24,.T.);
#431=ADVANCED_FACE('',(#215,#216),#33,.T.);
#432=ADVANCED_FACE('',(#217,#218),#246,.F.);
#433=ADVANCED_FACE('',(#219,#220),#25,.T.);
#434=ADVANCED_FACE('',(#221),#247,.F.);
#435=ADVANCED_FACE('',(#222,#223),#34,.T.);
#436=ADVANCED_FACE('',(#224,#225),#26,.T.);
#437=ADVANCED_FACE('',(#226),#248,.T.);
#438=ADVANCED_FACE('',(#227,#228),#27,.F.);
#439=ADVANCED_FACE('',(#229,#230),#35,.T.);
#440=ADVANCED_FACE('',(#231,#232),#20,.F.);
#441=ADVANCED_FACE('',(#233,#234),#249,.F.);
#442=ADVANCED_FACE('',(#235,#236),#21,.T.);
#443=ADVANCED_FACE('',(#237,#238),#28,.T.);
#444=ADVANCED_FACE('',(#239,#240),#250,.F.);
#445=ADVANCED_FACE('',(#241,#242),#29,.T.);
#446=CLOSED_SHELL('',(#422,#423,#424,#425,#426,#427,#428,#429,#430,#431,
#432,#433,#434,#435,#436,#437,#438,#439,#440,#441,#442,#443,#444,#445));
#447=MANIFOLD_SOLID_BREP('552093 MS6-LFM-A-HF',#446);
#448=SHAPE_DEFINITION_REPRESENTATION(#671,#449);
#449=SHAPE_REPRESENTATION('552093 MS6-LFM-A-HF',(#450),#666);
#450=AXIS2_PLACEMENT_3D('',#594,#498,#499);
#451=AXIS2_PLACEMENT_3D('',#595,#500,#501);
#452=AXIS2_PLACEMENT_3D('',#596,#502,#503);
#453=AXIS2_PLACEMENT_3D('',#598,#504,#505);
#454=AXIS2_PLACEMENT_3D('',#600,#506,#507);
#455=AXIS2_PLACEMENT_3D('',#601,#508,#509);
#456=AXIS2_PLACEMENT_3D('',#603,#510,#511);
#457=AXIS2_PLACEMENT_3D('',#604,#512,#513);
#458=AXIS2_PLACEMENT_3D('',#606,#514,#515);
#459=AXIS2_PLACEMENT_3D('',#607,#516,#517);
#460=AXIS2_PLACEMENT_3D('',#609,#518,#519);
#461=AXIS2_PLACEMENT_3D('',#610,#520,#521);
#462=AXIS2_PLACEMENT_3D('',#612,#522,#523);
#463=AXIS2_PLACEMENT_3D('',#613,#524,#525);
#464=AXIS2_PLACEMENT_3D('',#615,#526,#527);
#465=AXIS2_PLACEMENT_3D('',#616,#528,#529);
#466=AXIS2_PLACEMENT_3D('',#618,#530,#531);
#467=AXIS2_PLACEMENT_3D('',#619,#532,#533);
#468=AXIS2_PLACEMENT_3D('',#621,#534,#535);
#469=AXIS2_PLACEMENT_3D('',#622,#536,#537);
#470=AXIS2_PLACEMENT_3D('',#624,#538,#539);
#471=AXIS2_PLACEMENT_3D('',#625,#540,#541);
#472=AXIS2_PLACEMENT_3D('',#627,#542,#543);
#473=AXIS2_PLACEMENT_3D('',#628,#544,#545);
#474=AXIS2_PLACEMENT_3D('',#630,#546,#547);
#475=AXIS2_PLACEMENT_3D('',#631,#548,#549);
#476=AXIS2_PLACEMENT_3D('',#633,#550,#551);
#477=AXIS2_PLACEMENT_3D('',#634,#552,#553);
#478=AXIS2_PLACEMENT_3D('',#635,#554,#555);
#479=AXIS2_PLACEMENT_3D('',#637,#556,#557);
#480=AXIS2_PLACEMENT_3D('',#639,#558,#559);
#481=AXIS2_PLACEMENT_3D('',#640,#560,#561);
#482=AXIS2_PLACEMENT_3D('',#641,#562,#563);
#483=AXIS2_PLACEMENT_3D('',#643,#564,#565);
#484=AXIS2_PLACEMENT_3D('',#644,#566,#567);
#485=AXIS2_PLACEMENT_3D('',#646,#568,#569);
#486=AXIS2_PLACEMENT_3D('',#647,#570,#571);
#487=AXIS2_PLACEMENT_3D('',#649,#572,#573);
#488=AXIS2_PLACEMENT_3D('',#650,#574,#575);
#489=AXIS2_PLACEMENT_3D('',#652,#576,#577);
#490=AXIS2_PLACEMENT_3D('',#653,#578,#579);
#491=AXIS2_PLACEMENT_3D('',#655,#580,#581);
#492=AXIS2_PLACEMENT_3D('',#656,#582,#583);
#493=AXIS2_PLACEMENT_3D('',#658,#584,#585);
#494=AXIS2_PLACEMENT_3D('',#659,#586,#587);
#495=AXIS2_PLACEMENT_3D('',#661,#588,#589);
#496=AXIS2_PLACEMENT_3D('',#662,#590,#591);
#497=AXIS2_PLACEMENT_3D('',#664,#592,#593);
#498=DIRECTION('',(0.,0.,1.));
#499=DIRECTION('',(1.,0.,0.));
#500=DIRECTION('',(0.,-1.,0.));
#501=DIRECTION('',(0.,0.,-1.));
#502=DIRECTION('',(0.,-1.,0.));
#503=DIRECTION('',(0.,0.,-1.));
#504=DIRECTION('',(0.,-1.,0.));
#505=DIRECTION('',(0.,0.,-1.));
#506=DIRECTION('',(0.,-1.,0.));
#507=DIRECTION('',(0.,0.,-1.));
#508=DIRECTION('',(0.,-1.,0.));
#509=DIRECTION('',(0.,0.,-1.));
#510=DIRECTION('',(0.,-1.,0.));
#511=DIRECTION('',(0.,0.,-1.));
#512=DIRECTION('',(0.,-1.,0.));
#513=DIRECTION('',(0.,0.,-1.));
#514=DIRECTION('',(0.,1.,0.));
#515=DIRECTION('',(0.,0.,1.));
#516=DIRECTION('',(0.,-1.,0.));
#517=DIRECTION('',(0.,0.,-1.));
#518=DIRECTION('',(0.,-1.,0.));
#519=DIRECTION('',(0.,0.,-1.));
#520=DIRECTION('',(0.,-1.,0.));
#521=DIRECTION('',(0.,0.,-1.));
#522=DIRECTION('',(0.,-1.,0.));
#523=DIRECTION('',(0.,0.,-1.));
#524=DIRECTION('',(0.,-1.,0.));
#525=DIRECTION('',(0.,0.,-1.));
#526=DIRECTION('',(0.,-1.,0.));
#527=DIRECTION('',(0.,0.,-1.));
#528=DIRECTION('',(0.,-1.,0.));
#529=DIRECTION('',(0.,0.,-1.));
#530=DIRECTION('',(0.,-1.,0.));
#531=DIRECTION('',(0.,0.,-1.));
#532=DIRECTION('',(0.,-1.,0.));
#533=DIRECTION('',(0.,0.,-1.));
#534=DIRECTION('',(0.,-1.,0.));
#535=DIRECTION('',(0.,0.,-1.));
#536=DIRECTION('',(0.,-1.,0.));
#537=DIRECTION('',(0.,0.,-1.));
#538=DIRECTION('',(0.,-1.,0.));
#539=DIRECTION('',(0.,0.,-1.));
#540=DIRECTION('',(0.,-1.,0.));
#541=DIRECTION('',(0.,0.,-1.));
#542=DIRECTION('',(0.,1.,0.));
#543=DIRECTION('',(0.,0.,1.));
#544=DIRECTION('',(0.,-1.,0.));
#545=DIRECTION('',(0.,0.,-1.));
#546=DIRECTION('',(0.,-1.,0.));
#547=DIRECTION('',(0.,0.,-1.));
#548=DIRECTION('',(0.,-1.,0.));
#549=DIRECTION('',(0.,0.,-1.));
#550=DIRECTION('',(0.,1.,0.));
#551=DIRECTION('',(0.,0.,1.));
#552=DIRECTION('',(0.,-1.,0.));
#553=DIRECTION('',(0.,0.,-1.));
#554=DIRECTION('',(0.,-1.,0.));
#555=DIRECTION('',(0.,0.,-1.));
#556=DIRECTION('',(0.,-1.,0.));
#557=DIRECTION('',(0.,0.,-1.));
#558=DIRECTION('',(0.,-1.,0.));
#559=DIRECTION('',(0.,0.,-1.));
#560=DIRECTION('',(0.,1.,0.));
#561=DIRECTION('',(0.,0.,1.));
#562=DIRECTION('',(0.,-1.,0.));
#563=DIRECTION('',(0.,0.,-1.));
#564=DIRECTION('',(0.,-1.,0.));
#565=DIRECTION('',(0.,0.,-1.));
#566=DIRECTION('',(0.,-1.,0.));
#567=DIRECTION('',(0.,0.,-1.));
#568=DIRECTION('',(0.,-1.,0.));
#569=DIRECTION('',(0.,0.,-1.));
#570=DIRECTION('',(0.,-1.,0.));
#571=DIRECTION('',(0.,0.,-1.));
#572=DIRECTION('',(0.,1.,0.));
#573=DIRECTION('',(0.,0.,1.));
#574=DIRECTION('',(0.,-1.,0.));
#575=DIRECTION('',(0.,0.,-1.));
#576=DIRECTION('',(0.,-1.,0.));
#577=DIRECTION('',(0.,0.,-1.));
#578=DIRECTION('',(0.,-1.,0.));
#579=DIRECTION('',(0.,0.,-1.));
#580=DIRECTION('',(0.,-1.,0.));
#581=DIRECTION('',(0.,0.,-1.));
#582=DIRECTION('',(0.,-1.,0.));
#583=DIRECTION('',(0.,0.,-1.));
#584=DIRECTION('',(0.,-1.,0.));
#585=DIRECTION('',(0.,0.,-1.));
#586=DIRECTION('',(0.,-1.,0.));
#587=DIRECTION('',(0.,0.,-1.));
#588=DIRECTION('',(0.,1.,0.));
#589=DIRECTION('',(0.,0.,1.));
#590=DIRECTION('',(0.,-1.,0.));
#591=DIRECTION('',(0.,0.,-1.));
#592=DIRECTION('',(0.,-1.,0.));
#593=DIRECTION('',(0.,0.,-1.));
#594=CARTESIAN_POINT('',(0.,0.,0.));
#595=CARTESIAN_POINT('',(0.,193.,-11.2));
#596=CARTESIAN_POINT('',(0.,193.,0.));
#597=CARTESIAN_POINT('',(0.,193.,-15.));
#598=CARTESIAN_POINT('',(0.,193.,0.));
#599=CARTESIAN_POINT('',(0.,193.,-11.74));
#600=CARTESIAN_POINT('',(0.,192.5,0.));
#601=CARTESIAN_POINT('',(0.,192.5,0.));
#602=CARTESIAN_POINT('',(0.,192.5,-15.5));
#603=CARTESIAN_POINT('',(0.,186.5,0.));
#604=CARTESIAN_POINT('',(0.,186.5,0.));
#605=CARTESIAN_POINT('',(0.,186.5,-15.5));
#606=CARTESIAN_POINT('',(0.,186.5,-15.5));
#607=CARTESIAN_POINT('',(0.,186.5,0.));
#608=CARTESIAN_POINT('',(0.,186.5,-15.35));
#609=CARTESIAN_POINT('',(0.,186.2,0.));
#610=CARTESIAN_POINT('',(0.,186.2,0.));
#611=CARTESIAN_POINT('',(0.,186.2,-15.65));
#612=CARTESIAN_POINT('',(0.,-0.3,0.));
#613=CARTESIAN_POINT('',(0.,6.80000000000003,0.));
#614=CARTESIAN_POINT('',(0.,6.80000000000003,-15.65));
#615=CARTESIAN_POINT('',(0.,6.8,0.));
#616=CARTESIAN_POINT('',(0.,6.5,0.));
#617=CARTESIAN_POINT('',(0.,6.5,-15.35));
#618=CARTESIAN_POINT('',(0.,6.5,-15.35));
#619=CARTESIAN_POINT('',(0.,6.5,0.));
#620=CARTESIAN_POINT('',(0.,6.5,-15.65));
#621=CARTESIAN_POINT('',(0.,-0.3,0.));
#622=CARTESIAN_POINT('',(0.,0.5,0.));
#623=CARTESIAN_POINT('',(0.,0.5,-15.65));
#624=CARTESIAN_POINT('',(0.,0.499999999999997,0.));
#625=CARTESIAN_POINT('',(0.,-1.0842021724855E-16,0.));
#626=CARTESIAN_POINT('',(0.,-1.0842021724855E-16,-15.15));
#627=CARTESIAN_POINT('',(0.,-5.42101086242752E-17,-15.15));
#628=CARTESIAN_POINT('',(0.,0.,0.));
#629=CARTESIAN_POINT('',(0.,0.,-10.));
#630=CARTESIAN_POINT('',(0.,-0.3,0.));
#631=CARTESIAN_POINT('',(0.,-0.3,0.));
#632=CARTESIAN_POINT('',(0.,-0.3,-10.));
#633=CARTESIAN_POINT('',(0.,-0.3,-10.));
#634=CARTESIAN_POINT('',(0.,193.76,0.));
#635=CARTESIAN_POINT('',(0.,193.882065556157,0.));
#636=CARTESIAN_POINT('',(0.,193.882065556157,-11.));
#637=CARTESIAN_POINT('',(0.,193.01,0.));
#638=CARTESIAN_POINT('',(0.,193.01,-11.74));
#639=CARTESIAN_POINT('',(0.,-50.,0.));
#640=CARTESIAN_POINT('',(0.,6.5,-7.));
#641=CARTESIAN_POINT('',(0.,6.50000000000001,0.));
#642=CARTESIAN_POINT('',(0.,6.50000000000001,-7.));
#643=CARTESIAN_POINT('',(0.,6.5,0.));
#644=CARTESIAN_POINT('',(0.,189.800720061041,0.));
#645=CARTESIAN_POINT('',(0.,189.800720061041,-6.99999999999999));
#646=CARTESIAN_POINT('',(0.,189.800720061041,0.));
#647=CARTESIAN_POINT('',(0.,192.388910512066,0.));
#648=CARTESIAN_POINT('',(0.,192.388910512066,-7.34074173710931));
#649=CARTESIAN_POINT('',(0.,202.5,0.));
#650=CARTESIAN_POINT('',(0.,202.5,0.));
#651=CARTESIAN_POINT('',(0.,202.5,-10.05));
#652=CARTESIAN_POINT('',(0.,202.5,0.));
#653=CARTESIAN_POINT('',(0.,202.5,0.));
#654=CARTESIAN_POINT('',(0.,202.5,-11.5));
#655=CARTESIAN_POINT('',(0.,202.5,0.));
#656=CARTESIAN_POINT('',(0.,202.,0.));
#657=CARTESIAN_POINT('',(0.,202.,-12.));
#658=CARTESIAN_POINT('',(0.,186.5,0.));
#659=CARTESIAN_POINT('',(0.,194.65,0.));
#660=CARTESIAN_POINT('',(0.,194.65,-12.));
#661=CARTESIAN_POINT('',(0.,194.65,-12.));
#662=CARTESIAN_POINT('',(0.,194.65,0.));
#663=CARTESIAN_POINT('',(0.,194.65,-11.));
#664=CARTESIAN_POINT('',(0.,186.5,0.));
#665=MECHANICAL_DESIGN_GEOMETRIC_PRESENTATION_REPRESENTATION('',(#251,#252,
#253,#254,#255,#256,#257,#258,#259,#260,#261,#262,#263,#264,#265,#266,#267,
#268,#269,#270,#271,#272,#273,#274),#666);
#666=(
GEOMETRIC_REPRESENTATION_CONTEXT(3)
GLOBAL_UNCERTAINTY_ASSIGNED_CONTEXT((#667))
GLOBAL_UNIT_ASSIGNED_CONTEXT((#670,#669,#668))
REPRESENTATION_CONTEXT('552093 MS6-LFM-A-HF','TOP_LEVEL_ASSEMBLY_PART')
);
#667=UNCERTAINTY_MEASURE_WITH_UNIT(LENGTH_MEASURE(0.005),#670,
'DISTANCE_ACCURACY_VALUE','Maximum Tolerance applied to model');
#668=(
NAMED_UNIT(*)
SI_UNIT($,.STERADIAN.)
SOLID_ANGLE_UNIT()
);
#669=(
NAMED_UNIT(*)
PLANE_ANGLE_UNIT()
SI_UNIT($,.RADIAN.)
);
#670=(
LENGTH_UNIT()
NAMED_UNIT(*)
SI_UNIT(.MILLI.,.METRE.)
);
#671=PRODUCT_DEFINITION_SHAPE('','',#672);
#672=PRODUCT_DEFINITION('','',#674,#673);
#673=PRODUCT_DEFINITION_CONTEXT('',#680,'design');
#674=PRODUCT_DEFINITION_FORMATION_WITH_SPECIFIED_SOURCE('','',#676,
 .NOT_KNOWN.);
#675=PRODUCT_RELATED_PRODUCT_CATEGORY('','',(#676));
#676=PRODUCT('552093 MS6-LFM-A-HF','552093 MS6-LFM-A-HF',
'552093 MS6-LFM-A-HF',(#678));
#677=PRODUCT_CATEGORY('','');
#678=PRODUCT_CONTEXT('',#680,'mechanical');
#679=APPLICATION_PROTOCOL_DEFINITION('international standard',
'automotive_design',2010,#680);
#680=APPLICATION_CONTEXT(
'core data for automotive mechanical design processes');
ENDSEC;
END-ISO-10303-21;
