ISO-10303-21;
HEADER;
/* Generated by software containing ST-Developer
 * from STEP Tools, Inc. (www.steptools.com) 
 */
/* OPTION: using custom renumber hook */

FILE_DESCRIPTION(
/* description */ ('STEP AP214'),
/* implementation_level */ '2;1');

FILE_NAME(
/* name */ '553144_VAF-DB-HR-1_8-1_4',
/* time_stamp */ '2024-09-13T10:52:14+02:00',
/* author */ ('License CC BY-ND 4.0'),
/* organization */ ('CADENAS'),
/* preprocessor_version */ 'ST-DEVELOPER v19.3',
/* originating_system */ 'PARTsolutions',
/* authorisation */ '  ');

FILE_SCHEMA (('AUTOMOTIVE_DESIGN {1 0 10303 214 3 1 1}'));
ENDSEC;

DATA;
#10=PROPERTY_DEFINITION_REPRESENTATION(#14,#12);
#11=PROPERTY_DEFINITION_REPRESENTATION(#15,#13);
#12=REPRESENTATION('',(#16),#775);
#13=REPRESENTATION('',(#17),#775);
#14=PROPERTY_DEFINITION('pmi validation property','',#780);
#15=PROPERTY_DEFINITION('pmi validation property','',#780);
#16=VALUE_REPRESENTATION_ITEM('number of annotations',COUNT_MEASURE(0.));
#17=VALUE_REPRESENTATION_ITEM('number of views',COUNT_MEASURE(0.));
#18=SHAPE_REPRESENTATION_RELATIONSHIP('','',#467,#19);
#19=ADVANCED_BREP_SHAPE_REPRESENTATION('',(#465),#775);
#20=CYLINDRICAL_SURFACE('',#484,3.);
#21=CYLINDRICAL_SURFACE('',#497,1.5);
#22=CYLINDRICAL_SURFACE('',#502,5.);
#23=CYLINDRICAL_SURFACE('',#503,5.);
#24=CYLINDRICAL_SURFACE('',#504,16.5);
#25=CYLINDRICAL_SURFACE('',#505,2.75);
#26=CYLINDRICAL_SURFACE('',#507,2.75);
#27=CYLINDRICAL_SURFACE('',#509,2.75);
#28=CYLINDRICAL_SURFACE('',#511,2.75);
#29=CYLINDRICAL_SURFACE('',#513,1.75);
#30=CYLINDRICAL_SURFACE('',#514,1.75);
#31=CYLINDRICAL_SURFACE('',#515,8.5);
#32=LINE('',#653,#68);
#33=LINE('',#657,#69);
#34=LINE('',#658,#70);
#35=LINE('',#661,#71);
#36=LINE('',#663,#72);
#37=LINE('',#667,#73);
#38=LINE('',#673,#74);
#39=LINE('',#677,#75);
#40=LINE('',#682,#76);
#41=LINE('',#686,#77);
#42=LINE('',#687,#78);
#43=LINE('',#692,#79);
#44=LINE('',#694,#80);
#45=LINE('',#696,#81);
#46=LINE('',#702,#82);
#47=LINE('',#706,#83);
#48=LINE('',#708,#84);
#49=LINE('',#709,#85);
#50=LINE('',#713,#86);
#51=LINE('',#723,#87);
#52=LINE('',#727,#88);
#53=LINE('',#738,#89);
#54=LINE('',#740,#90);
#55=LINE('',#742,#91);
#56=LINE('',#747,#92);
#57=LINE('',#748,#93);
#58=LINE('',#750,#94);
#59=LINE('',#751,#95);
#60=LINE('',#756,#96);
#61=LINE('',#757,#97);
#62=LINE('',#759,#98);
#63=LINE('',#761,#99);
#64=LINE('',#764,#100);
#65=LINE('',#765,#101);
#66=LINE('',#767,#102);
#67=LINE('',#769,#103);
#68=VECTOR('',#522,1000.);
#69=VECTOR('',#525,1000.);
#70=VECTOR('',#526,1000.);
#71=VECTOR('',#527,1000.);
#72=VECTOR('',#528,1000.);
#73=VECTOR('',#531,1000.);
#74=VECTOR('',#536,1000.);
#75=VECTOR('',#539,1000.);
#76=VECTOR('',#544,1000.);
#77=VECTOR('',#547,1000.);
#78=VECTOR('',#548,1000.);
#79=VECTOR('',#551,1000.);
#80=VECTOR('',#552,1000.);
#81=VECTOR('',#553,1000.);
#82=VECTOR('',#558,1000.);
#83=VECTOR('',#561,1000.);
#84=VECTOR('',#564,1000.);
#85=VECTOR('',#565,1000.);
#86=VECTOR('',#570,1000.);
#87=VECTOR('',#581,1000.);
#88=VECTOR('',#584,1000.);
#89=VECTOR('',#595,1000.);
#90=VECTOR('',#596,1000.);
#91=VECTOR('',#597,1000.);
#92=VECTOR('',#606,1000.);
#93=VECTOR('',#607,1000.);
#94=VECTOR('',#610,1000.);
#95=VECTOR('',#611,1000.);
#96=VECTOR('',#620,1000.);
#97=VECTOR('',#621,1000.);
#98=VECTOR('',#624,1000.);
#99=VECTOR('',#627,1000.);
#100=VECTOR('',#632,1000.);
#101=VECTOR('',#633,1000.);
#102=VECTOR('',#636,1000.);
#103=VECTOR('',#639,1000.);
#104=ORIENTED_EDGE('',*,*,#224,.F.);
#105=ORIENTED_EDGE('',*,*,#225,.F.);
#106=ORIENTED_EDGE('',*,*,#226,.F.);
#107=ORIENTED_EDGE('',*,*,#227,.F.);
#108=ORIENTED_EDGE('',*,*,#228,.T.);
#109=ORIENTED_EDGE('',*,*,#229,.F.);
#110=ORIENTED_EDGE('',*,*,#230,.F.);
#111=ORIENTED_EDGE('',*,*,#231,.T.);
#112=ORIENTED_EDGE('',*,*,#232,.T.);
#113=ORIENTED_EDGE('',*,*,#233,.T.);
#114=ORIENTED_EDGE('',*,*,#234,.F.);
#115=ORIENTED_EDGE('',*,*,#235,.F.);
#116=ORIENTED_EDGE('',*,*,#236,.F.);
#117=ORIENTED_EDGE('',*,*,#237,.F.);
#118=ORIENTED_EDGE('',*,*,#238,.F.);
#119=ORIENTED_EDGE('',*,*,#239,.F.);
#120=ORIENTED_EDGE('',*,*,#240,.F.);
#121=ORIENTED_EDGE('',*,*,#241,.F.);
#122=ORIENTED_EDGE('',*,*,#242,.F.);
#123=ORIENTED_EDGE('',*,*,#243,.T.);
#124=ORIENTED_EDGE('',*,*,#244,.F.);
#125=ORIENTED_EDGE('',*,*,#245,.T.);
#126=ORIENTED_EDGE('',*,*,#246,.T.);
#127=ORIENTED_EDGE('',*,*,#247,.T.);
#128=ORIENTED_EDGE('',*,*,#248,.F.);
#129=ORIENTED_EDGE('',*,*,#249,.F.);
#130=ORIENTED_EDGE('',*,*,#250,.F.);
#131=ORIENTED_EDGE('',*,*,#251,.F.);
#132=ORIENTED_EDGE('',*,*,#232,.F.);
#133=ORIENTED_EDGE('',*,*,#252,.F.);
#134=ORIENTED_EDGE('',*,*,#242,.T.);
#135=ORIENTED_EDGE('',*,*,#253,.T.);
#136=ORIENTED_EDGE('',*,*,#254,.T.);
#137=ORIENTED_EDGE('',*,*,#255,.F.);
#138=ORIENTED_EDGE('',*,*,#256,.F.);
#139=ORIENTED_EDGE('',*,*,#229,.T.);
#140=ORIENTED_EDGE('',*,*,#257,.F.);
#141=ORIENTED_EDGE('',*,*,#258,.F.);
#142=ORIENTED_EDGE('',*,*,#259,.F.);
#143=ORIENTED_EDGE('',*,*,#260,.T.);
#144=ORIENTED_EDGE('',*,*,#261,.T.);
#145=ORIENTED_EDGE('',*,*,#262,.F.);
#146=ORIENTED_EDGE('',*,*,#255,.T.);
#147=ORIENTED_EDGE('',*,*,#263,.T.);
#148=ORIENTED_EDGE('',*,*,#264,.F.);
#149=ORIENTED_EDGE('',*,*,#265,.F.);
#150=ORIENTED_EDGE('',*,*,#266,.T.);
#151=ORIENTED_EDGE('',*,*,#267,.T.);
#152=ORIENTED_EDGE('',*,*,#268,.F.);
#153=ORIENTED_EDGE('',*,*,#269,.F.);
#154=ORIENTED_EDGE('',*,*,#270,.F.);
#155=ORIENTED_EDGE('',*,*,#245,.F.);
#156=ORIENTED_EDGE('',*,*,#271,.T.);
#157=ORIENTED_EDGE('',*,*,#268,.T.);
#158=ORIENTED_EDGE('',*,*,#230,.T.);
#159=ORIENTED_EDGE('',*,*,#256,.T.);
#160=ORIENTED_EDGE('',*,*,#262,.T.);
#161=ORIENTED_EDGE('',*,*,#272,.T.);
#162=ORIENTED_EDGE('',*,*,#269,.T.);
#163=ORIENTED_EDGE('',*,*,#271,.F.);
#164=ORIENTED_EDGE('',*,*,#244,.T.);
#165=ORIENTED_EDGE('',*,*,#273,.F.);
#166=ORIENTED_EDGE('',*,*,#274,.T.);
#167=ORIENTED_EDGE('',*,*,#246,.F.);
#168=ORIENTED_EDGE('',*,*,#270,.T.);
#169=ORIENTED_EDGE('',*,*,#267,.F.);
#170=ORIENTED_EDGE('',*,*,#275,.F.);
#171=ORIENTED_EDGE('',*,*,#260,.F.);
#172=ORIENTED_EDGE('',*,*,#254,.F.);
#173=ORIENTED_EDGE('',*,*,#228,.F.);
#174=ORIENTED_EDGE('',*,*,#253,.F.);
#175=ORIENTED_EDGE('',*,*,#247,.F.);
#176=ORIENTED_EDGE('',*,*,#274,.F.);
#177=ORIENTED_EDGE('',*,*,#233,.F.);
#178=ORIENTED_EDGE('',*,*,#273,.T.);
#179=ORIENTED_EDGE('',*,*,#243,.F.);
#180=ORIENTED_EDGE('',*,*,#252,.T.);
#181=ORIENTED_EDGE('',*,*,#231,.F.);
#182=ORIENTED_EDGE('',*,*,#261,.F.);
#183=ORIENTED_EDGE('',*,*,#275,.T.);
#184=ORIENTED_EDGE('',*,*,#266,.F.);
#185=ORIENTED_EDGE('',*,*,#272,.F.);
#186=ORIENTED_EDGE('',*,*,#224,.T.);
#187=ORIENTED_EDGE('',*,*,#276,.F.);
#188=ORIENTED_EDGE('',*,*,#238,.T.);
#189=ORIENTED_EDGE('',*,*,#277,.T.);
#190=ORIENTED_EDGE('',*,*,#225,.T.);
#191=ORIENTED_EDGE('',*,*,#277,.F.);
#192=ORIENTED_EDGE('',*,*,#241,.T.);
#193=ORIENTED_EDGE('',*,*,#278,.T.);
#194=ORIENTED_EDGE('',*,*,#226,.T.);
#195=ORIENTED_EDGE('',*,*,#278,.F.);
#196=ORIENTED_EDGE('',*,*,#240,.T.);
#197=ORIENTED_EDGE('',*,*,#279,.T.);
#198=ORIENTED_EDGE('',*,*,#227,.T.);
#199=ORIENTED_EDGE('',*,*,#279,.F.);
#200=ORIENTED_EDGE('',*,*,#239,.T.);
#201=ORIENTED_EDGE('',*,*,#276,.T.);
#202=ORIENTED_EDGE('',*,*,#234,.T.);
#203=ORIENTED_EDGE('',*,*,#280,.F.);
#204=ORIENTED_EDGE('',*,*,#248,.T.);
#205=ORIENTED_EDGE('',*,*,#281,.T.);
#206=ORIENTED_EDGE('',*,*,#235,.T.);
#207=ORIENTED_EDGE('',*,*,#281,.F.);
#208=ORIENTED_EDGE('',*,*,#251,.T.);
#209=ORIENTED_EDGE('',*,*,#282,.T.);
#210=ORIENTED_EDGE('',*,*,#236,.T.);
#211=ORIENTED_EDGE('',*,*,#282,.F.);
#212=ORIENTED_EDGE('',*,*,#250,.T.);
#213=ORIENTED_EDGE('',*,*,#283,.T.);
#214=ORIENTED_EDGE('',*,*,#237,.T.);
#215=ORIENTED_EDGE('',*,*,#283,.F.);
#216=ORIENTED_EDGE('',*,*,#249,.T.);
#217=ORIENTED_EDGE('',*,*,#280,.T.);
#218=ORIENTED_EDGE('',*,*,#265,.T.);
#219=ORIENTED_EDGE('',*,*,#259,.T.);
#220=ORIENTED_EDGE('',*,*,#264,.T.);
#221=ORIENTED_EDGE('',*,*,#258,.T.);
#222=ORIENTED_EDGE('',*,*,#257,.T.);
#223=ORIENTED_EDGE('',*,*,#263,.F.);
#224=EDGE_CURVE('',#284,#285,#326,.F.);
#225=EDGE_CURVE('',#286,#284,#32,.T.);
#226=EDGE_CURVE('',#287,#286,#327,.F.);
#227=EDGE_CURVE('',#285,#287,#33,.T.);
#228=EDGE_CURVE('',#288,#289,#34,.T.);
#229=EDGE_CURVE('',#290,#289,#35,.T.);
#230=EDGE_CURVE('',#291,#290,#36,.T.);
#231=EDGE_CURVE('',#291,#292,#328,.F.);
#232=EDGE_CURVE('',#292,#293,#37,.T.);
#233=EDGE_CURVE('',#293,#288,#329,.F.);
#234=EDGE_CURVE('',#294,#295,#330,.F.);
#235=EDGE_CURVE('',#296,#294,#38,.T.);
#236=EDGE_CURVE('',#297,#296,#331,.F.);
#237=EDGE_CURVE('',#295,#297,#39,.T.);
#238=EDGE_CURVE('',#298,#299,#332,.F.);
#239=EDGE_CURVE('',#300,#298,#40,.T.);
#240=EDGE_CURVE('',#301,#300,#333,.F.);
#241=EDGE_CURVE('',#299,#301,#41,.T.);
#242=EDGE_CURVE('',#302,#303,#42,.T.);
#243=EDGE_CURVE('',#302,#304,#334,.F.);
#244=EDGE_CURVE('',#305,#304,#43,.T.);
#245=EDGE_CURVE('',#305,#306,#44,.T.);
#246=EDGE_CURVE('',#306,#307,#45,.T.);
#247=EDGE_CURVE('',#307,#303,#335,.F.);
#248=EDGE_CURVE('',#308,#309,#336,.F.);
#249=EDGE_CURVE('',#310,#308,#46,.T.);
#250=EDGE_CURVE('',#311,#310,#337,.F.);
#251=EDGE_CURVE('',#309,#311,#47,.T.);
#252=EDGE_CURVE('',#302,#292,#48,.T.);
#253=EDGE_CURVE('',#303,#293,#49,.T.);
#254=EDGE_CURVE('',#289,#312,#338,.T.);
#255=EDGE_CURVE('',#313,#312,#50,.T.);
#256=EDGE_CURVE('',#290,#313,#339,.T.);
#257=EDGE_CURVE('',#314,#314,#340,.T.);
#258=EDGE_CURVE('',#315,#315,#341,.F.);
#259=EDGE_CURVE('',#316,#316,#342,.F.);
#260=EDGE_CURVE('',#312,#317,#51,.T.);
#261=EDGE_CURVE('',#317,#318,#343,.F.);
#262=EDGE_CURVE('',#313,#318,#52,.T.);
#263=EDGE_CURVE('',#319,#319,#344,.T.);
#264=EDGE_CURVE('',#320,#320,#345,.F.);
#265=EDGE_CURVE('',#321,#321,#346,.F.);
#266=EDGE_CURVE('',#322,#323,#347,.F.);
#267=EDGE_CURVE('',#323,#324,#53,.T.);
#268=EDGE_CURVE('',#325,#324,#54,.T.);
#269=EDGE_CURVE('',#322,#325,#55,.T.);
#270=EDGE_CURVE('',#306,#324,#348,.T.);
#271=EDGE_CURVE('',#305,#325,#349,.T.);
#272=EDGE_CURVE('',#318,#322,#56,.F.);
#273=EDGE_CURVE('',#291,#304,#57,.F.);
#274=EDGE_CURVE('',#288,#307,#58,.F.);
#275=EDGE_CURVE('',#317,#323,#59,.F.);
#276=EDGE_CURVE('',#298,#285,#60,.T.);
#277=EDGE_CURVE('',#299,#284,#61,.T.);
#278=EDGE_CURVE('',#301,#286,#62,.T.);
#279=EDGE_CURVE('',#300,#287,#63,.T.);
#280=EDGE_CURVE('',#308,#295,#64,.T.);
#281=EDGE_CURVE('',#309,#294,#65,.T.);
#282=EDGE_CURVE('',#311,#296,#66,.T.);
#283=EDGE_CURVE('',#310,#297,#67,.T.);
#284=VERTEX_POINT('',#651);
#285=VERTEX_POINT('',#652);
#286=VERTEX_POINT('',#654);
#287=VERTEX_POINT('',#656);
#288=VERTEX_POINT('',#659);
#289=VERTEX_POINT('',#660);
#290=VERTEX_POINT('',#662);
#291=VERTEX_POINT('',#664);
#292=VERTEX_POINT('',#666);
#293=VERTEX_POINT('',#668);
#294=VERTEX_POINT('',#671);
#295=VERTEX_POINT('',#672);
#296=VERTEX_POINT('',#674);
#297=VERTEX_POINT('',#676);
#298=VERTEX_POINT('',#680);
#299=VERTEX_POINT('',#681);
#300=VERTEX_POINT('',#683);
#301=VERTEX_POINT('',#685);
#302=VERTEX_POINT('',#688);
#303=VERTEX_POINT('',#689);
#304=VERTEX_POINT('',#691);
#305=VERTEX_POINT('',#693);
#306=VERTEX_POINT('',#695);
#307=VERTEX_POINT('',#697);
#308=VERTEX_POINT('',#700);
#309=VERTEX_POINT('',#701);
#310=VERTEX_POINT('',#703);
#311=VERTEX_POINT('',#705);
#312=VERTEX_POINT('',#712);
#313=VERTEX_POINT('',#714);
#314=VERTEX_POINT('',#718);
#315=VERTEX_POINT('',#720);
#316=VERTEX_POINT('',#722);
#317=VERTEX_POINT('',#724);
#318=VERTEX_POINT('',#726);
#319=VERTEX_POINT('',#730);
#320=VERTEX_POINT('',#732);
#321=VERTEX_POINT('',#734);
#322=VERTEX_POINT('',#736);
#323=VERTEX_POINT('',#737);
#324=VERTEX_POINT('',#739);
#325=VERTEX_POINT('',#741);
#326=CIRCLE('',#470,2.75);
#327=CIRCLE('',#471,2.75);
#328=CIRCLE('',#472,5.);
#329=CIRCLE('',#473,5.);
#330=CIRCLE('',#474,2.75);
#331=CIRCLE('',#475,2.75);
#332=CIRCLE('',#477,2.75);
#333=CIRCLE('',#478,2.75);
#334=CIRCLE('',#479,5.);
#335=CIRCLE('',#480,5.);
#336=CIRCLE('',#481,2.75);
#337=CIRCLE('',#482,2.75);
#338=CIRCLE('',#485,3.);
#339=CIRCLE('',#486,3.);
#340=CIRCLE('',#488,8.5);
#341=CIRCLE('',#489,1.75);
#342=CIRCLE('',#490,1.75);
#343=CIRCLE('',#491,16.5);
#344=CIRCLE('',#493,8.5);
#345=CIRCLE('',#494,1.75);
#346=CIRCLE('',#495,1.75);
#347=CIRCLE('',#496,16.5);
#348=CIRCLE('',#498,1.5);
#349=CIRCLE('',#499,1.5);
#350=EDGE_LOOP('',(#104,#105,#106,#107));
#351=EDGE_LOOP('',(#108,#109,#110,#111,#112,#113));
#352=EDGE_LOOP('',(#114,#115,#116,#117));
#353=EDGE_LOOP('',(#118,#119,#120,#121));
#354=EDGE_LOOP('',(#122,#123,#124,#125,#126,#127));
#355=EDGE_LOOP('',(#128,#129,#130,#131));
#356=EDGE_LOOP('',(#132,#133,#134,#135));
#357=EDGE_LOOP('',(#136,#137,#138,#139));
#358=EDGE_LOOP('',(#140));
#359=EDGE_LOOP('',(#141));
#360=EDGE_LOOP('',(#142));
#361=EDGE_LOOP('',(#143,#144,#145,#146));
#362=EDGE_LOOP('',(#147));
#363=EDGE_LOOP('',(#148));
#364=EDGE_LOOP('',(#149));
#365=EDGE_LOOP('',(#150,#151,#152,#153));
#366=EDGE_LOOP('',(#154,#155,#156,#157));
#367=EDGE_LOOP('',(#158,#159,#160,#161,#162,#163,#164,#165));
#368=EDGE_LOOP('',(#166,#167,#168,#169,#170,#171,#172,#173));
#369=EDGE_LOOP('',(#174,#175,#176,#177));
#370=EDGE_LOOP('',(#178,#179,#180,#181));
#371=EDGE_LOOP('',(#182,#183,#184,#185));
#372=EDGE_LOOP('',(#186,#187,#188,#189));
#373=EDGE_LOOP('',(#190,#191,#192,#193));
#374=EDGE_LOOP('',(#194,#195,#196,#197));
#375=EDGE_LOOP('',(#198,#199,#200,#201));
#376=EDGE_LOOP('',(#202,#203,#204,#205));
#377=EDGE_LOOP('',(#206,#207,#208,#209));
#378=EDGE_LOOP('',(#210,#211,#212,#213));
#379=EDGE_LOOP('',(#214,#215,#216,#217));
#380=EDGE_LOOP('',(#218));
#381=EDGE_LOOP('',(#219));
#382=EDGE_LOOP('',(#220));
#383=EDGE_LOOP('',(#221));
#384=EDGE_LOOP('',(#222));
#385=EDGE_LOOP('',(#223));
#386=FACE_BOUND('',#350,.T.);
#387=FACE_BOUND('',#351,.T.);
#388=FACE_BOUND('',#352,.T.);
#389=FACE_BOUND('',#353,.T.);
#390=FACE_BOUND('',#354,.T.);
#391=FACE_BOUND('',#355,.T.);
#392=FACE_BOUND('',#356,.T.);
#393=FACE_BOUND('',#357,.T.);
#394=FACE_BOUND('',#358,.T.);
#395=FACE_BOUND('',#359,.T.);
#396=FACE_BOUND('',#360,.T.);
#397=FACE_BOUND('',#361,.T.);
#398=FACE_BOUND('',#362,.T.);
#399=FACE_BOUND('',#363,.T.);
#400=FACE_BOUND('',#364,.T.);
#401=FACE_BOUND('',#365,.T.);
#402=FACE_BOUND('',#366,.T.);
#403=FACE_BOUND('',#367,.T.);
#404=FACE_BOUND('',#368,.T.);
#405=FACE_BOUND('',#369,.T.);
#406=FACE_BOUND('',#370,.T.);
#407=FACE_BOUND('',#371,.T.);
#408=FACE_BOUND('',#372,.T.);
#409=FACE_BOUND('',#373,.T.);
#410=FACE_BOUND('',#374,.T.);
#411=FACE_BOUND('',#375,.T.);
#412=FACE_BOUND('',#376,.T.);
#413=FACE_BOUND('',#377,.T.);
#414=FACE_BOUND('',#378,.T.);
#415=FACE_BOUND('',#379,.T.);
#416=FACE_BOUND('',#380,.T.);
#417=FACE_BOUND('',#381,.T.);
#418=FACE_BOUND('',#382,.T.);
#419=FACE_BOUND('',#383,.T.);
#420=FACE_BOUND('',#384,.T.);
#421=FACE_BOUND('',#385,.T.);
#422=PLANE('',#469);
#423=PLANE('',#476);
#424=PLANE('',#483);
#425=PLANE('',#487);
#426=PLANE('',#492);
#427=PLANE('',#500);
#428=PLANE('',#501);
#429=PLANE('',#506);
#430=PLANE('',#508);
#431=PLANE('',#510);
#432=PLANE('',#512);
#433=ADVANCED_FACE('',(#386,#387,#388),#422,.F.);
#434=ADVANCED_FACE('',(#389,#390,#391),#423,.F.);
#435=ADVANCED_FACE('',(#392),#424,.F.);
#436=ADVANCED_FACE('',(#393),#20,.T.);
#437=ADVANCED_FACE('',(#394,#395,#396,#397),#425,.F.);
#438=ADVANCED_FACE('',(#398,#399,#400,#401),#426,.F.);
#439=ADVANCED_FACE('',(#402),#21,.F.);
#440=ADVANCED_FACE('',(#403),#427,.T.);
#441=ADVANCED_FACE('',(#404),#428,.F.);
#442=ADVANCED_FACE('',(#405),#22,.T.);
#443=ADVANCED_FACE('',(#406),#23,.T.);
#444=ADVANCED_FACE('',(#407),#24,.T.);
#445=ADVANCED_FACE('',(#408),#25,.F.);
#446=ADVANCED_FACE('',(#409),#429,.T.);
#447=ADVANCED_FACE('',(#410),#26,.F.);
#448=ADVANCED_FACE('',(#411),#430,.T.);
#449=ADVANCED_FACE('',(#412),#27,.F.);
#450=ADVANCED_FACE('',(#413),#431,.T.);
#451=ADVANCED_FACE('',(#414),#28,.F.);
#452=ADVANCED_FACE('',(#415),#432,.T.);
#453=ADVANCED_FACE('',(#416,#417),#29,.F.);
#454=ADVANCED_FACE('',(#418,#419),#30,.F.);
#455=ADVANCED_FACE('',(#420,#421),#31,.F.);
#456=CLOSED_SHELL('',(#433,#434,#435,#436,#437,#438,#439,#440,#441,#442,
#443,#444,#445,#446,#447,#448,#449,#450,#451,#452,#453,#454,#455));
#457=STYLED_ITEM('',(#458),#465);
#458=PRESENTATION_STYLE_ASSIGNMENT((#459));
#459=SURFACE_STYLE_USAGE(.BOTH.,#460);
#460=SURFACE_SIDE_STYLE('',(#461));
#461=SURFACE_STYLE_FILL_AREA(#462);
#462=FILL_AREA_STYLE('',(#463));
#463=FILL_AREA_STYLE_COLOUR('',#464);
#464=COLOUR_RGB('',0.689999997615814,0.689999997615814,0.689999997615814);
#465=MANIFOLD_SOLID_BREP('553144 VAF-DB-HR-1/8-1/4',#456);
#466=SHAPE_DEFINITION_REPRESENTATION(#780,#467);
#467=SHAPE_REPRESENTATION('553144 VAF-DB-HR-1/8-1/4',(#468),#775);
#468=AXIS2_PLACEMENT_3D('',#648,#516,#517);
#469=AXIS2_PLACEMENT_3D('',#649,#518,#519);
#470=AXIS2_PLACEMENT_3D('',#650,#520,#521);
#471=AXIS2_PLACEMENT_3D('',#655,#523,#524);
#472=AXIS2_PLACEMENT_3D('',#665,#529,#530);
#473=AXIS2_PLACEMENT_3D('',#669,#532,#533);
#474=AXIS2_PLACEMENT_3D('',#670,#534,#535);
#475=AXIS2_PLACEMENT_3D('',#675,#537,#538);
#476=AXIS2_PLACEMENT_3D('',#678,#540,#541);
#477=AXIS2_PLACEMENT_3D('',#679,#542,#543);
#478=AXIS2_PLACEMENT_3D('',#684,#545,#546);
#479=AXIS2_PLACEMENT_3D('',#690,#549,#550);
#480=AXIS2_PLACEMENT_3D('',#698,#554,#555);
#481=AXIS2_PLACEMENT_3D('',#699,#556,#557);
#482=AXIS2_PLACEMENT_3D('',#704,#559,#560);
#483=AXIS2_PLACEMENT_3D('',#707,#562,#563);
#484=AXIS2_PLACEMENT_3D('',#710,#566,#567);
#485=AXIS2_PLACEMENT_3D('',#711,#568,#569);
#486=AXIS2_PLACEMENT_3D('',#715,#571,#572);
#487=AXIS2_PLACEMENT_3D('',#716,#573,#574);
#488=AXIS2_PLACEMENT_3D('',#717,#575,#576);
#489=AXIS2_PLACEMENT_3D('',#719,#577,#578);
#490=AXIS2_PLACEMENT_3D('',#721,#579,#580);
#491=AXIS2_PLACEMENT_3D('',#725,#582,#583);
#492=AXIS2_PLACEMENT_3D('',#728,#585,#586);
#493=AXIS2_PLACEMENT_3D('',#729,#587,#588);
#494=AXIS2_PLACEMENT_3D('',#731,#589,#590);
#495=AXIS2_PLACEMENT_3D('',#733,#591,#592);
#496=AXIS2_PLACEMENT_3D('',#735,#593,#594);
#497=AXIS2_PLACEMENT_3D('',#743,#598,#599);
#498=AXIS2_PLACEMENT_3D('',#744,#600,#601);
#499=AXIS2_PLACEMENT_3D('',#745,#602,#603);
#500=AXIS2_PLACEMENT_3D('',#746,#604,#605);
#501=AXIS2_PLACEMENT_3D('',#749,#608,#609);
#502=AXIS2_PLACEMENT_3D('',#752,#612,#613);
#503=AXIS2_PLACEMENT_3D('',#753,#614,#615);
#504=AXIS2_PLACEMENT_3D('',#754,#616,#617);
#505=AXIS2_PLACEMENT_3D('',#755,#618,#619);
#506=AXIS2_PLACEMENT_3D('',#758,#622,#623);
#507=AXIS2_PLACEMENT_3D('',#760,#625,#626);
#508=AXIS2_PLACEMENT_3D('',#762,#628,#629);
#509=AXIS2_PLACEMENT_3D('',#763,#630,#631);
#510=AXIS2_PLACEMENT_3D('',#766,#634,#635);
#511=AXIS2_PLACEMENT_3D('',#768,#637,#638);
#512=AXIS2_PLACEMENT_3D('',#770,#640,#641);
#513=AXIS2_PLACEMENT_3D('',#771,#642,#643);
#514=AXIS2_PLACEMENT_3D('',#772,#644,#645);
#515=AXIS2_PLACEMENT_3D('',#773,#646,#647);
#516=DIRECTION('',(0.,0.,1.));
#517=DIRECTION('',(1.,0.,0.));
#518=DIRECTION('',(1.,0.,0.));
#519=DIRECTION('',(0.,0.,-1.));
#520=DIRECTION('',(1.,0.,0.));
#521=DIRECTION('',(0.,0.,-1.));
#522=DIRECTION('',(0.,1.,0.));
#523=DIRECTION('',(1.,0.,0.));
#524=DIRECTION('',(0.,0.,-1.));
#525=DIRECTION('',(0.,-1.,0.));
#526=DIRECTION('',(0.,-1.,0.));
#527=DIRECTION('',(0.,0.,-1.));
#528=DIRECTION('',(0.,-1.,0.));
#529=DIRECTION('',(1.,0.,0.));
#530=DIRECTION('',(0.,0.,-1.));
#531=DIRECTION('',(0.,0.,-1.));
#532=DIRECTION('',(1.,0.,0.));
#533=DIRECTION('',(0.,0.,-1.));
#534=DIRECTION('',(1.,0.,0.));
#535=DIRECTION('',(0.,0.,-1.));
#536=DIRECTION('',(0.,1.,0.));
#537=DIRECTION('',(1.,0.,0.));
#538=DIRECTION('',(0.,0.,-1.));
#539=DIRECTION('',(0.,-1.,0.));
#540=DIRECTION('',(-1.,0.,0.));
#541=DIRECTION('',(0.,0.,1.));
#542=DIRECTION('',(-1.,0.,0.));
#543=DIRECTION('',(0.,0.,1.));
#544=DIRECTION('',(0.,1.,0.));
#545=DIRECTION('',(-1.,0.,0.));
#546=DIRECTION('',(0.,0.,1.));
#547=DIRECTION('',(0.,-1.,0.));
#548=DIRECTION('',(0.,0.,-1.));
#549=DIRECTION('',(-1.,0.,0.));
#550=DIRECTION('',(0.,0.,1.));
#551=DIRECTION('',(0.,1.,0.));
#552=DIRECTION('',(0.,0.,-1.));
#553=DIRECTION('',(0.,1.,0.));
#554=DIRECTION('',(-1.,0.,0.));
#555=DIRECTION('',(0.,0.,1.));
#556=DIRECTION('',(-1.,0.,0.));
#557=DIRECTION('',(0.,0.,1.));
#558=DIRECTION('',(0.,1.,0.));
#559=DIRECTION('',(-1.,0.,0.));
#560=DIRECTION('',(0.,0.,1.));
#561=DIRECTION('',(0.,-1.,0.));
#562=DIRECTION('',(0.,-1.,0.));
#563=DIRECTION('',(0.,0.,-1.));
#564=DIRECTION('',(-1.,0.,0.));
#565=DIRECTION('',(-1.,0.,0.));
#566=DIRECTION('',(0.,0.,-1.));
#567=DIRECTION('',(-1.,0.,0.));
#568=DIRECTION('',(0.,0.,1.));
#569=DIRECTION('',(1.,0.,0.));
#570=DIRECTION('',(0.,0.,-1.));
#571=DIRECTION('',(0.,0.,1.));
#572=DIRECTION('',(1.,0.,0.));
#573=DIRECTION('',(0.,1.,0.));
#574=DIRECTION('',(0.,0.,1.));
#575=DIRECTION('',(0.,-1.,0.));
#576=DIRECTION('',(0.,0.,-1.));
#577=DIRECTION('',(0.,1.,0.));
#578=DIRECTION('',(0.,0.,1.));
#579=DIRECTION('',(0.,1.,0.));
#580=DIRECTION('',(0.,0.,1.));
#581=DIRECTION('',(1.,0.,0.));
#582=DIRECTION('',(0.,1.,0.));
#583=DIRECTION('',(0.,0.,1.));
#584=DIRECTION('',(1.,0.,0.));
#585=DIRECTION('',(0.,-1.,0.));
#586=DIRECTION('',(0.,0.,-1.));
#587=DIRECTION('',(0.,-1.,0.));
#588=DIRECTION('',(0.,0.,-1.));
#589=DIRECTION('',(0.,-1.,0.));
#590=DIRECTION('',(0.,0.,-1.));
#591=DIRECTION('',(0.,-1.,0.));
#592=DIRECTION('',(0.,0.,-1.));
#593=DIRECTION('',(0.,-1.,0.));
#594=DIRECTION('',(0.,0.,-1.));
#595=DIRECTION('',(-1.,0.,0.));
#596=DIRECTION('',(0.,0.,-1.));
#597=DIRECTION('',(-1.,0.,0.));
#598=DIRECTION('',(0.,0.,-1.));
#599=DIRECTION('',(-1.,0.,0.));
#600=DIRECTION('',(0.,0.,1.));
#601=DIRECTION('',(1.,0.,0.));
#602=DIRECTION('',(0.,0.,1.));
#603=DIRECTION('',(1.,0.,0.));
#604=DIRECTION('',(0.,0.,1.));
#605=DIRECTION('',(1.,0.,0.));
#606=DIRECTION('',(0.,-1.,0.));
#607=DIRECTION('',(-1.,0.,0.));
#608=DIRECTION('',(0.,0.,1.));
#609=DIRECTION('',(1.,0.,0.));
#610=DIRECTION('',(-1.,0.,0.));
#611=DIRECTION('',(0.,-1.,0.));
#612=DIRECTION('',(-1.,0.,0.));
#613=DIRECTION('',(0.,0.,1.));
#614=DIRECTION('',(-1.,0.,0.));
#615=DIRECTION('',(0.,0.,1.));
#616=DIRECTION('',(0.,-1.,0.));
#617=DIRECTION('',(0.,0.,-1.));
#618=DIRECTION('',(-1.,0.,0.));
#619=DIRECTION('',(0.,0.,1.));
#620=DIRECTION('',(-1.,0.,0.));
#621=DIRECTION('',(-1.,0.,0.));
#622=DIRECTION('',(0.,0.,-1.));
#623=DIRECTION('',(-1.,0.,0.));
#624=DIRECTION('',(-1.,0.,0.));
#625=DIRECTION('',(-1.,0.,0.));
#626=DIRECTION('',(0.,0.,1.));
#627=DIRECTION('',(-1.,0.,0.));
#628=DIRECTION('',(0.,0.,1.));
#629=DIRECTION('',(1.,0.,0.));
#630=DIRECTION('',(-1.,0.,0.));
#631=DIRECTION('',(0.,0.,1.));
#632=DIRECTION('',(-1.,0.,0.));
#633=DIRECTION('',(-1.,0.,0.));
#634=DIRECTION('',(0.,0.,-1.));
#635=DIRECTION('',(-1.,0.,0.));
#636=DIRECTION('',(-1.,0.,0.));
#637=DIRECTION('',(-1.,0.,0.));
#638=DIRECTION('',(0.,0.,1.));
#639=DIRECTION('',(-1.,0.,0.));
#640=DIRECTION('',(0.,0.,1.));
#641=DIRECTION('',(1.,0.,0.));
#642=DIRECTION('',(0.,-1.,0.));
#643=DIRECTION('',(0.,0.,-1.));
#644=DIRECTION('',(0.,-1.,0.));
#645=DIRECTION('',(0.,0.,-1.));
#646=DIRECTION('',(0.,-1.,0.));
#647=DIRECTION('',(0.,0.,-1.));
#648=CARTESIAN_POINT('',(0.,0.,0.));
#649=CARTESIAN_POINT('',(0.,30.,16.5));
#650=CARTESIAN_POINT('',(0.,23.,10.));
#651=CARTESIAN_POINT('',(0.,23.,12.75));
#652=CARTESIAN_POINT('',(0.,23.,7.25));
#653=CARTESIAN_POINT('',(0.,30.,12.75));
#654=CARTESIAN_POINT('',(0.,8.5,12.75));
#655=CARTESIAN_POINT('',(0.,8.5,10.));
#656=CARTESIAN_POINT('',(0.,8.5,7.25));
#657=CARTESIAN_POINT('',(0.,30.,7.25));
#658=CARTESIAN_POINT('',(0.,30.,-16.5));
#659=CARTESIAN_POINT('',(0.,25.,-16.5));
#660=CARTESIAN_POINT('',(0.,3.,-16.5));
#661=CARTESIAN_POINT('',(0.,3.,16.5));
#662=CARTESIAN_POINT('',(0.,3.,16.5));
#663=CARTESIAN_POINT('',(0.,30.,16.5));
#664=CARTESIAN_POINT('',(0.,25.,16.5));
#665=CARTESIAN_POINT('',(0.,25.,11.5));
#666=CARTESIAN_POINT('',(0.,30.,11.5));
#667=CARTESIAN_POINT('',(0.,30.,16.5));
#668=CARTESIAN_POINT('',(0.,30.,-11.5));
#669=CARTESIAN_POINT('',(0.,25.,-11.5));
#670=CARTESIAN_POINT('',(0.,23.,-10.));
#671=CARTESIAN_POINT('',(0.,23.,-7.25));
#672=CARTESIAN_POINT('',(0.,23.,-12.75));
#673=CARTESIAN_POINT('',(0.,30.,-7.25));
#674=CARTESIAN_POINT('',(0.,8.5,-7.25));
#675=CARTESIAN_POINT('',(0.,8.5,-10.));
#676=CARTESIAN_POINT('',(0.,8.5,-12.75));
#677=CARTESIAN_POINT('',(0.,30.,-12.75));
#678=CARTESIAN_POINT('',(1.5,3.,16.5));
#679=CARTESIAN_POINT('',(1.5,23.,10.));
#680=CARTESIAN_POINT('',(1.5,23.,7.25));
#681=CARTESIAN_POINT('',(1.5,23.,12.75));
#682=CARTESIAN_POINT('',(1.5,3.,7.25));
#683=CARTESIAN_POINT('',(1.5,8.5,7.25));
#684=CARTESIAN_POINT('',(1.5,8.5,10.));
#685=CARTESIAN_POINT('',(1.5,8.5,12.75));
#686=CARTESIAN_POINT('',(1.5,3.,12.75));
#687=CARTESIAN_POINT('',(1.5,30.,16.5));
#688=CARTESIAN_POINT('',(1.5,30.,11.5));
#689=CARTESIAN_POINT('',(1.5,30.,-11.5));
#690=CARTESIAN_POINT('',(1.5,25.,11.5));
#691=CARTESIAN_POINT('',(1.5,25.,16.5));
#692=CARTESIAN_POINT('',(1.5,3.,16.5));
#693=CARTESIAN_POINT('',(1.5,3.,16.5));
#694=CARTESIAN_POINT('',(1.5,3.,16.5));
#695=CARTESIAN_POINT('',(1.5,3.,-16.5));
#696=CARTESIAN_POINT('',(1.5,3.,-16.5));
#697=CARTESIAN_POINT('',(1.5,25.,-16.5));
#698=CARTESIAN_POINT('',(1.5,25.,-11.5));
#699=CARTESIAN_POINT('',(1.5,23.,-10.));
#700=CARTESIAN_POINT('',(1.5,23.,-12.75));
#701=CARTESIAN_POINT('',(1.5,23.,-7.25));
#702=CARTESIAN_POINT('',(1.5,3.,-12.75));
#703=CARTESIAN_POINT('',(1.5,8.5,-12.75));
#704=CARTESIAN_POINT('',(1.5,8.5,-10.));
#705=CARTESIAN_POINT('',(1.5,8.5,-7.25));
#706=CARTESIAN_POINT('',(1.5,3.,-7.25));
#707=CARTESIAN_POINT('',(1.5,30.,16.5));
#708=CARTESIAN_POINT('',(16.5,30.,11.5));
#709=CARTESIAN_POINT('',(16.5,30.,-11.5));
#710=CARTESIAN_POINT('',(3.,3.,16.5));
#711=CARTESIAN_POINT('',(3.,3.,-16.5));
#712=CARTESIAN_POINT('',(3.,0.,-16.5));
#713=CARTESIAN_POINT('',(3.,0.,16.5));
#714=CARTESIAN_POINT('',(3.,0.,16.5));
#715=CARTESIAN_POINT('',(3.,3.,16.5));
#716=CARTESIAN_POINT('',(3.,0.,16.5));
#717=CARTESIAN_POINT('',(40.5,0.,0.));
#718=CARTESIAN_POINT('',(40.5,0.,-8.5));
#719=CARTESIAN_POINT('',(52.,0.,0.));
#720=CARTESIAN_POINT('',(52.,0.,1.75));
#721=CARTESIAN_POINT('',(29.,0.,0.));
#722=CARTESIAN_POINT('',(29.,0.,1.75));
#723=CARTESIAN_POINT('',(3.,0.,-16.5));
#724=CARTESIAN_POINT('',(40.5,0.,-16.5));
#725=CARTESIAN_POINT('',(40.5,0.,-1.38777878078145E-14));
#726=CARTESIAN_POINT('',(40.5,0.,16.5));
#727=CARTESIAN_POINT('',(3.,0.,16.5));
#728=CARTESIAN_POINT('',(57.,1.5,16.5));
#729=CARTESIAN_POINT('',(40.5,1.5,0.));
#730=CARTESIAN_POINT('',(40.5,1.5,-8.5));
#731=CARTESIAN_POINT('',(52.,1.5,0.));
#732=CARTESIAN_POINT('',(52.,1.5,-1.75));
#733=CARTESIAN_POINT('',(29.,1.5,0.));
#734=CARTESIAN_POINT('',(29.,1.5,-1.75));
#735=CARTESIAN_POINT('',(40.5,1.5,-1.38777878078145E-14));
#736=CARTESIAN_POINT('',(40.5,1.5,16.5));
#737=CARTESIAN_POINT('',(40.5,1.5,-16.5));
#738=CARTESIAN_POINT('',(57.,1.5,-16.5));
#739=CARTESIAN_POINT('',(3.,1.5,-16.5));
#740=CARTESIAN_POINT('',(3.,1.5,16.5));
#741=CARTESIAN_POINT('',(3.,1.5,16.5));
#742=CARTESIAN_POINT('',(57.,1.5,16.5));
#743=CARTESIAN_POINT('',(3.,3.,16.5));
#744=CARTESIAN_POINT('',(3.,3.,-16.5));
#745=CARTESIAN_POINT('',(3.,3.,16.5));
#746=CARTESIAN_POINT('',(3.,3.,16.5));
#747=CARTESIAN_POINT('',(40.5,16.5,16.5));
#748=CARTESIAN_POINT('',(16.5,25.,16.5));
#749=CARTESIAN_POINT('',(3.,3.,-16.5));
#750=CARTESIAN_POINT('',(16.5,25.,-16.5));
#751=CARTESIAN_POINT('',(40.5,16.5,-16.5));
#752=CARTESIAN_POINT('',(16.5,25.,-11.5));
#753=CARTESIAN_POINT('',(16.5,25.,11.5));
#754=CARTESIAN_POINT('',(40.5,16.5,-1.38777878078145E-14));
#755=CARTESIAN_POINT('',(16.5,23.,10.));
#756=CARTESIAN_POINT('',(16.5,23.,7.25));
#757=CARTESIAN_POINT('',(16.5,23.,12.75));
#758=CARTESIAN_POINT('',(16.5,23.,12.75));
#759=CARTESIAN_POINT('',(16.5,8.5,12.75));
#760=CARTESIAN_POINT('',(16.5,8.5,10.));
#761=CARTESIAN_POINT('',(16.5,8.5,7.25));
#762=CARTESIAN_POINT('',(16.5,8.5,7.25));
#763=CARTESIAN_POINT('',(16.5,23.,-10.));
#764=CARTESIAN_POINT('',(16.5,23.,-12.75));
#765=CARTESIAN_POINT('',(16.5,23.,-7.25));
#766=CARTESIAN_POINT('',(16.5,23.,-7.25));
#767=CARTESIAN_POINT('',(16.5,8.5,-7.25));
#768=CARTESIAN_POINT('',(16.5,8.5,-10.));
#769=CARTESIAN_POINT('',(16.5,8.5,-12.75));
#770=CARTESIAN_POINT('',(16.5,8.5,-12.75));
#771=CARTESIAN_POINT('',(29.,2.,0.));
#772=CARTESIAN_POINT('',(52.,2.,0.));
#773=CARTESIAN_POINT('',(40.5,0.,0.));
#774=MECHANICAL_DESIGN_GEOMETRIC_PRESENTATION_REPRESENTATION('',(#457),
#775);
#775=(
GEOMETRIC_REPRESENTATION_CONTEXT(3)
GLOBAL_UNCERTAINTY_ASSIGNED_CONTEXT((#776))
GLOBAL_UNIT_ASSIGNED_CONTEXT((#779,#778,#777))
REPRESENTATION_CONTEXT('553144 VAF-DB-HR-1/8-1/4',
'TOP_LEVEL_ASSEMBLY_PART')
);
#776=UNCERTAINTY_MEASURE_WITH_UNIT(LENGTH_MEASURE(0.005),#779,
'DISTANCE_ACCURACY_VALUE','Maximum Tolerance applied to model');
#777=(
NAMED_UNIT(*)
SI_UNIT($,.STERADIAN.)
SOLID_ANGLE_UNIT()
);
#778=(
NAMED_UNIT(*)
PLANE_ANGLE_UNIT()
SI_UNIT($,.RADIAN.)
);
#779=(
LENGTH_UNIT()
NAMED_UNIT(*)
SI_UNIT(.MILLI.,.METRE.)
);
#780=PRODUCT_DEFINITION_SHAPE('','',#781);
#781=PRODUCT_DEFINITION('','',#783,#782);
#782=PRODUCT_DEFINITION_CONTEXT('',#789,'design');
#783=PRODUCT_DEFINITION_FORMATION_WITH_SPECIFIED_SOURCE('','',#785,
 .NOT_KNOWN.);
#784=PRODUCT_RELATED_PRODUCT_CATEGORY('','',(#785));
#785=PRODUCT('553144 VAF-DB-HR-1/8-1/4','553144 VAF-DB-HR-1/8-1/4',
'553144 VAF-DB-HR-1/8-1/4',(#787));
#786=PRODUCT_CATEGORY('','');
#787=PRODUCT_CONTEXT('',#789,'mechanical');
#788=APPLICATION_PROTOCOL_DEFINITION('international standard',
'automotive_design',2010,#789);
#789=APPLICATION_CONTEXT(
'core data for automotive mechanical design processes');
ENDSEC;
END-ISO-10303-21;
