ISO-10303-21;
HEADER;
/* Generated by software containing ST-Developer
 * from STEP Tools, Inc. (www.steptools.com) 
 */
/* OPTION: using custom renumber hook */

FILE_DESCRIPTION(
/* description */ ('STEP AP214'),
/* implementation_level */ '2;1');

FILE_NAME(
/* name */ '553397_DADB-S1-12-S151-200',
/* time_stamp */ '2024-08-12T14:44:20+02:00',
/* author */ ('License CC BY-ND 4.0'),
/* organization */ ('CADENAS'),
/* preprocessor_version */ 'ST-DEVELOPER v19.3',
/* originating_system */ 'PARTsolutions',
/* authorisation */ '  ');

FILE_SCHEMA (('AUTOMOTIVE_DESIGN {1 0 10303 214 3 1 1}'));
ENDSEC;

DATA;
#10=PROPERTY_DEFINITION_REPRESENTATION(#14,#12);
#11=PROPERTY_DEFINITION_REPRESENTATION(#15,#13);
#12=REPRESENTATION('',(#16),#661);
#13=REPRESENTATION('',(#17),#661);
#14=PROPERTY_DEFINITION('pmi validation property','',#666);
#15=PROPERTY_DEFINITION('pmi validation property','',#666);
#16=VALUE_REPRESENTATION_ITEM('number of annotations',COUNT_MEASURE(0.));
#17=VALUE_REPRESENTATION_ITEM('number of views',COUNT_MEASURE(0.));
#18=SHAPE_REPRESENTATION_RELATIONSHIP('','',#359,#19);
#19=ADVANCED_BREP_SHAPE_REPRESENTATION('',(#357),#661);
#20=TOROIDAL_SURFACE('',#383,3.53749999999998,0.199999999999978);
#21=TOROIDAL_SURFACE('',#385,3.1625,0.175);
#22=TOROIDAL_SURFACE('',#391,9.24999999999996,1.50000000000002);
#23=TOROIDAL_SURFACE('',#397,6.69999999999993,0.499999999999977);
#24=TOROIDAL_SURFACE('',#401,9.24999999999998,1.50000000000001);
#25=TOROIDAL_SURFACE('',#405,9.25,1.5);
#26=TOROIDAL_SURFACE('',#408,9.25000000000001,1.5);
#27=TOROIDAL_SURFACE('',#412,6.7,0.499999999999999);
#28=PLANE('',#370);
#29=PLANE('',#372);
#30=PLANE('',#378);
#31=PLANE('',#386);
#32=PLANE('',#417);
#33=CONICAL_SURFACE('',#364,9.5,0.0461839253711373);
#34=CONICAL_SURFACE('',#374,10.1,1.51843644923507);
#35=CONICAL_SURFACE('',#380,2.5,0.785398163397449);
#36=CONICAL_SURFACE('',#390,7.188,0.785398163397448);
#37=CONICAL_SURFACE('',#394,7.2,1.13446401379631);
#38=CONICAL_SURFACE('',#395,9.88392739261105,1.13446401379632);
#39=CONICAL_SURFACE('',#399,6.48869086912965,1.13446401379632);
#40=CONICAL_SURFACE('',#410,9.88392739261105,1.13446401379631);
#41=CONICAL_SURFACE('',#414,6.48869086912965,1.13446401379631);
#42=CONICAL_SURFACE('',#415,9.88392739261105,1.13446401379631);
#43=B_SPLINE_CURVE_WITH_KNOTS('',3,(#538,#539,#540,#541,#542,#543,#544,
#545,#546,#547,#548,#549,#550,#551,#552,#553,#554,#555,#556),
 .UNSPECIFIED.,.T.,.F.,(1,1,1,1,1,1,1,1,1,1,1,1,1,1,1,1,1,1,1,1,1,1,1),
(-0.00251180173449812,-0.00167453448966541,-0.000837267244832707,0.,0.000837267244832707,
0.00167453448966541,0.00251180173449812,0.00334906897933083,0.00418633622416353,
0.00502360346899624,0.00586087071382895,0.00669813795866166,0.00753540520349436,
0.00837267244832707,0.00920993969315977,0.0100472069379925,0.0108844741828252,
0.0117217414276579,0.0125590086724906,0.0133962759173233,0.014233543162156,
0.0150708104069887,0.0159080776518214),.UNSPECIFIED.);
#44=B_SPLINE_CURVE_WITH_KNOTS('',3,(#563,#564,#565,#566,#567,#568,#569,
#570,#571,#572,#573,#574,#575,#576,#577,#578,#579,#580,#581),
 .UNSPECIFIED.,.T.,.F.,(1,1,1,1,1,1,1,1,1,1,1,1,1,1,1,1,1,1,1,1,1,1,1),
(-0.00504681806234855,-0.00336454537489903,-0.00168227268744952,0.,0.00168227268744952,
0.00336454537489903,0.00504681806234855,0.00672909074979806,0.00841136343724758,
0.0100936361246971,0.0117759088121466,0.0134581814995961,0.0151404541870456,
0.0168227268744952,0.0185049995619447,0.0201872722493942,0.0218695449368437,
0.0235518176242932,0.0252340903117427,0.0269163629991923,0.0285986356866418,
0.0302809083740913,0.0319631810615408),.UNSPECIFIED.);
#45=ORIENTED_EDGE('',*,*,#105,.T.);
#46=ORIENTED_EDGE('',*,*,#106,.T.);
#47=ORIENTED_EDGE('',*,*,#107,.F.);
#48=ORIENTED_EDGE('',*,*,#108,.T.);
#49=ORIENTED_EDGE('',*,*,#109,.T.);
#50=ORIENTED_EDGE('',*,*,#110,.F.);
#51=ORIENTED_EDGE('',*,*,#111,.T.);
#52=ORIENTED_EDGE('',*,*,#112,.F.);
#53=ORIENTED_EDGE('',*,*,#113,.T.);
#54=ORIENTED_EDGE('',*,*,#111,.F.);
#55=ORIENTED_EDGE('',*,*,#110,.T.);
#56=ORIENTED_EDGE('',*,*,#114,.F.);
#57=ORIENTED_EDGE('',*,*,#115,.T.);
#58=ORIENTED_EDGE('',*,*,#108,.F.);
#59=ORIENTED_EDGE('',*,*,#116,.T.);
#60=ORIENTED_EDGE('',*,*,#109,.F.);
#61=ORIENTED_EDGE('',*,*,#117,.T.);
#62=ORIENTED_EDGE('',*,*,#116,.F.);
#63=ORIENTED_EDGE('',*,*,#118,.T.);
#64=ORIENTED_EDGE('',*,*,#117,.F.);
#65=ORIENTED_EDGE('',*,*,#106,.F.);
#66=ORIENTED_EDGE('',*,*,#118,.F.);
#67=ORIENTED_EDGE('',*,*,#113,.F.);
#68=ORIENTED_EDGE('',*,*,#119,.T.);
#69=ORIENTED_EDGE('',*,*,#107,.T.);
#70=ORIENTED_EDGE('',*,*,#119,.F.);
#71=ORIENTED_EDGE('',*,*,#120,.T.);
#72=ORIENTED_EDGE('',*,*,#105,.F.);
#73=ORIENTED_EDGE('',*,*,#121,.T.);
#74=ORIENTED_EDGE('',*,*,#120,.F.);
#75=ORIENTED_EDGE('',*,*,#114,.T.);
#76=ORIENTED_EDGE('',*,*,#121,.F.);
#77=ORIENTED_EDGE('',*,*,#122,.T.);
#78=ORIENTED_EDGE('',*,*,#123,.F.);
#79=ORIENTED_EDGE('',*,*,#122,.F.);
#80=ORIENTED_EDGE('',*,*,#112,.T.);
#81=ORIENTED_EDGE('',*,*,#124,.F.);
#82=ORIENTED_EDGE('',*,*,#123,.T.);
#83=ORIENTED_EDGE('',*,*,#125,.F.);
#84=ORIENTED_EDGE('',*,*,#124,.T.);
#85=ORIENTED_EDGE('',*,*,#126,.F.);
#86=ORIENTED_EDGE('',*,*,#125,.T.);
#87=ORIENTED_EDGE('',*,*,#126,.T.);
#88=ORIENTED_EDGE('',*,*,#127,.F.);
#89=ORIENTED_EDGE('',*,*,#127,.T.);
#90=ORIENTED_EDGE('',*,*,#128,.F.);
#91=ORIENTED_EDGE('',*,*,#129,.T.);
#92=ORIENTED_EDGE('',*,*,#130,.F.);
#93=ORIENTED_EDGE('',*,*,#128,.T.);
#94=ORIENTED_EDGE('',*,*,#131,.F.);
#95=ORIENTED_EDGE('',*,*,#132,.F.);
#96=ORIENTED_EDGE('',*,*,#131,.T.);
#97=ORIENTED_EDGE('',*,*,#133,.F.);
#98=ORIENTED_EDGE('',*,*,#132,.T.);
#99=ORIENTED_EDGE('',*,*,#129,.F.);
#100=ORIENTED_EDGE('',*,*,#133,.T.);
#101=ORIENTED_EDGE('',*,*,#134,.F.);
#102=ORIENTED_EDGE('',*,*,#130,.T.);
#103=ORIENTED_EDGE('',*,*,#115,.F.);
#104=ORIENTED_EDGE('',*,*,#134,.T.);
#105=EDGE_CURVE('',#135,#135,#165,.T.);
#106=EDGE_CURVE('',#136,#136,#43,.T.);
#107=EDGE_CURVE('',#137,#137,#166,.T.);
#108=EDGE_CURVE('',#138,#138,#167,.T.);
#109=EDGE_CURVE('',#139,#139,#44,.T.);
#110=EDGE_CURVE('',#140,#140,#168,.T.);
#111=EDGE_CURVE('',#141,#141,#169,.T.);
#112=EDGE_CURVE('',#142,#142,#170,.T.);
#113=EDGE_CURVE('',#143,#143,#171,.T.);
#114=EDGE_CURVE('',#144,#144,#172,.T.);
#115=EDGE_CURVE('',#145,#145,#173,.T.);
#116=EDGE_CURVE('',#146,#146,#174,.T.);
#117=EDGE_CURVE('',#147,#147,#175,.T.);
#118=EDGE_CURVE('',#148,#148,#176,.T.);
#119=EDGE_CURVE('',#149,#149,#177,.T.);
#120=EDGE_CURVE('',#150,#150,#178,.T.);
#121=EDGE_CURVE('',#151,#151,#179,.T.);
#122=EDGE_CURVE('',#152,#152,#180,.T.);
#123=EDGE_CURVE('',#153,#153,#181,.T.);
#124=EDGE_CURVE('',#154,#154,#182,.T.);
#125=EDGE_CURVE('',#155,#155,#183,.T.);
#126=EDGE_CURVE('',#156,#156,#184,.T.);
#127=EDGE_CURVE('',#157,#157,#185,.T.);
#128=EDGE_CURVE('',#158,#158,#186,.T.);
#129=EDGE_CURVE('',#159,#159,#187,.T.);
#130=EDGE_CURVE('',#160,#160,#188,.T.);
#131=EDGE_CURVE('',#161,#161,#189,.T.);
#132=EDGE_CURVE('',#162,#162,#190,.T.);
#133=EDGE_CURVE('',#163,#163,#191,.T.);
#134=EDGE_CURVE('',#164,#164,#192,.T.);
#135=VERTEX_POINT('',#537);
#136=VERTEX_POINT('',#557);
#137=VERTEX_POINT('',#559);
#138=VERTEX_POINT('',#562);
#139=VERTEX_POINT('',#582);
#140=VERTEX_POINT('',#584);
#141=VERTEX_POINT('',#587);
#142=VERTEX_POINT('',#589);
#143=VERTEX_POINT('',#592);
#144=VERTEX_POINT('',#595);
#145=VERTEX_POINT('',#598);
#146=VERTEX_POINT('',#601);
#147=VERTEX_POINT('',#604);
#148=VERTEX_POINT('',#607);
#149=VERTEX_POINT('',#611);
#150=VERTEX_POINT('',#615);
#151=VERTEX_POINT('',#618);
#152=VERTEX_POINT('',#622);
#153=VERTEX_POINT('',#624);
#154=VERTEX_POINT('',#628);
#155=VERTEX_POINT('',#631);
#156=VERTEX_POINT('',#634);
#157=VERTEX_POINT('',#637);
#158=VERTEX_POINT('',#640);
#159=VERTEX_POINT('',#643);
#160=VERTEX_POINT('',#645);
#161=VERTEX_POINT('',#648);
#162=VERTEX_POINT('',#651);
#163=VERTEX_POINT('',#654);
#164=VERTEX_POINT('',#658);
#165=CIRCLE('',#362,3.);
#166=CIRCLE('',#363,3.);
#167=CIRCLE('',#365,10.1);
#168=CIRCLE('',#366,9.5);
#169=CIRCLE('',#368,7.2);
#170=CIRCLE('',#369,7.2);
#171=CIRCLE('',#371,3.5375);
#172=CIRCLE('',#373,8.);
#173=CIRCLE('',#375,6.90000000000001);
#174=CIRCLE('',#377,4.25);
#175=CIRCLE('',#379,2.5);
#176=CIRCLE('',#381,2.067);
#177=CIRCLE('',#384,3.3375);
#178=CIRCLE('',#387,7.188);
#179=CIRCLE('',#389,7.188);
#180=CIRCLE('',#392,9.88392739261105);
#181=CIRCLE('',#393,9.88392739261105);
#182=CIRCLE('',#396,6.48869086912964);
#183=CIRCLE('',#398,6.48869086912965);
#184=CIRCLE('',#400,9.88392739261105);
#185=CIRCLE('',#402,10.75);
#186=CIRCLE('',#404,10.75);
#187=CIRCLE('',#406,9.88392739261105);
#188=CIRCLE('',#407,9.88392739261105);
#189=CIRCLE('',#409,9.88392739261105);
#190=CIRCLE('',#411,6.48869086912965);
#191=CIRCLE('',#413,6.48869086912965);
#192=CIRCLE('',#416,6.20000000000005);
#193=EDGE_LOOP('',(#45));
#194=EDGE_LOOP('',(#46));
#195=EDGE_LOOP('',(#47));
#196=EDGE_LOOP('',(#48));
#197=EDGE_LOOP('',(#49));
#198=EDGE_LOOP('',(#50));
#199=EDGE_LOOP('',(#51));
#200=EDGE_LOOP('',(#52));
#201=EDGE_LOOP('',(#53));
#202=EDGE_LOOP('',(#54));
#203=EDGE_LOOP('',(#55));
#204=EDGE_LOOP('',(#56));
#205=EDGE_LOOP('',(#57));
#206=EDGE_LOOP('',(#58));
#207=EDGE_LOOP('',(#59));
#208=EDGE_LOOP('',(#60));
#209=EDGE_LOOP('',(#61));
#210=EDGE_LOOP('',(#62));
#211=EDGE_LOOP('',(#63));
#212=EDGE_LOOP('',(#64));
#213=EDGE_LOOP('',(#65));
#214=EDGE_LOOP('',(#66));
#215=EDGE_LOOP('',(#67));
#216=EDGE_LOOP('',(#68));
#217=EDGE_LOOP('',(#69));
#218=EDGE_LOOP('',(#70));
#219=EDGE_LOOP('',(#71));
#220=EDGE_LOOP('',(#72));
#221=EDGE_LOOP('',(#73));
#222=EDGE_LOOP('',(#74));
#223=EDGE_LOOP('',(#75));
#224=EDGE_LOOP('',(#76));
#225=EDGE_LOOP('',(#77));
#226=EDGE_LOOP('',(#78));
#227=EDGE_LOOP('',(#79));
#228=EDGE_LOOP('',(#80));
#229=EDGE_LOOP('',(#81));
#230=EDGE_LOOP('',(#82));
#231=EDGE_LOOP('',(#83));
#232=EDGE_LOOP('',(#84));
#233=EDGE_LOOP('',(#85));
#234=EDGE_LOOP('',(#86));
#235=EDGE_LOOP('',(#87));
#236=EDGE_LOOP('',(#88));
#237=EDGE_LOOP('',(#89));
#238=EDGE_LOOP('',(#90));
#239=EDGE_LOOP('',(#91));
#240=EDGE_LOOP('',(#92));
#241=EDGE_LOOP('',(#93));
#242=EDGE_LOOP('',(#94));
#243=EDGE_LOOP('',(#95));
#244=EDGE_LOOP('',(#96));
#245=EDGE_LOOP('',(#97));
#246=EDGE_LOOP('',(#98));
#247=EDGE_LOOP('',(#99));
#248=EDGE_LOOP('',(#100));
#249=EDGE_LOOP('',(#101));
#250=EDGE_LOOP('',(#102));
#251=EDGE_LOOP('',(#103));
#252=EDGE_LOOP('',(#104));
#253=FACE_BOUND('',#193,.T.);
#254=FACE_BOUND('',#194,.T.);
#255=FACE_BOUND('',#195,.T.);
#256=FACE_BOUND('',#196,.T.);
#257=FACE_BOUND('',#197,.T.);
#258=FACE_BOUND('',#198,.T.);
#259=FACE_BOUND('',#199,.T.);
#260=FACE_BOUND('',#200,.T.);
#261=FACE_BOUND('',#201,.T.);
#262=FACE_BOUND('',#202,.T.);
#263=FACE_BOUND('',#203,.T.);
#264=FACE_BOUND('',#204,.T.);
#265=FACE_BOUND('',#205,.T.);
#266=FACE_BOUND('',#206,.T.);
#267=FACE_BOUND('',#207,.T.);
#268=FACE_BOUND('',#208,.T.);
#269=FACE_BOUND('',#209,.T.);
#270=FACE_BOUND('',#210,.T.);
#271=FACE_BOUND('',#211,.T.);
#272=FACE_BOUND('',#212,.T.);
#273=FACE_BOUND('',#213,.T.);
#274=FACE_BOUND('',#214,.T.);
#275=FACE_BOUND('',#215,.T.);
#276=FACE_BOUND('',#216,.T.);
#277=FACE_BOUND('',#217,.T.);
#278=FACE_BOUND('',#218,.T.);
#279=FACE_BOUND('',#219,.T.);
#280=FACE_BOUND('',#220,.T.);
#281=FACE_BOUND('',#221,.T.);
#282=FACE_BOUND('',#222,.T.);
#283=FACE_BOUND('',#223,.T.);
#284=FACE_BOUND('',#224,.T.);
#285=FACE_BOUND('',#225,.T.);
#286=FACE_BOUND('',#226,.T.);
#287=FACE_BOUND('',#227,.T.);
#288=FACE_BOUND('',#228,.T.);
#289=FACE_BOUND('',#229,.T.);
#290=FACE_BOUND('',#230,.T.);
#291=FACE_BOUND('',#231,.T.);
#292=FACE_BOUND('',#232,.T.);
#293=FACE_BOUND('',#233,.T.);
#294=FACE_BOUND('',#234,.T.);
#295=FACE_BOUND('',#235,.T.);
#296=FACE_BOUND('',#236,.T.);
#297=FACE_BOUND('',#237,.T.);
#298=FACE_BOUND('',#238,.T.);
#299=FACE_BOUND('',#239,.T.);
#300=FACE_BOUND('',#240,.T.);
#301=FACE_BOUND('',#241,.T.);
#302=FACE_BOUND('',#242,.T.);
#303=FACE_BOUND('',#243,.T.);
#304=FACE_BOUND('',#244,.T.);
#305=FACE_BOUND('',#245,.T.);
#306=FACE_BOUND('',#246,.T.);
#307=FACE_BOUND('',#247,.T.);
#308=FACE_BOUND('',#248,.T.);
#309=FACE_BOUND('',#249,.T.);
#310=FACE_BOUND('',#250,.T.);
#311=FACE_BOUND('',#251,.T.);
#312=FACE_BOUND('',#252,.T.);
#313=CYLINDRICAL_SURFACE('',#361,3.);
#314=CYLINDRICAL_SURFACE('',#367,7.2);
#315=CYLINDRICAL_SURFACE('',#376,4.25);
#316=CYLINDRICAL_SURFACE('',#382,2.067);
#317=CYLINDRICAL_SURFACE('',#388,7.188);
#318=CYLINDRICAL_SURFACE('',#403,10.75);
#319=ADVANCED_FACE('',(#253,#254,#255),#313,.F.);
#320=ADVANCED_FACE('',(#256,#257,#258),#33,.T.);
#321=ADVANCED_FACE('',(#259,#260),#314,.T.);
#322=ADVANCED_FACE('',(#261,#262),#28,.T.);
#323=ADVANCED_FACE('',(#263,#264),#29,.T.);
#324=ADVANCED_FACE('',(#265,#266),#34,.T.);
#325=ADVANCED_FACE('',(#267,#268),#315,.F.);
#326=ADVANCED_FACE('',(#269,#270),#30,.T.);
#327=ADVANCED_FACE('',(#271,#272),#35,.F.);
#328=ADVANCED_FACE('',(#273,#274),#316,.F.);
#329=ADVANCED_FACE('',(#275,#276),#20,.F.);
#330=ADVANCED_FACE('',(#277,#278),#21,.T.);
#331=ADVANCED_FACE('',(#279,#280),#31,.T.);
#332=ADVANCED_FACE('',(#281,#282),#317,.F.);
#333=ADVANCED_FACE('',(#283,#284),#36,.F.);
#334=ADVANCED_FACE('',(#285,#286),#22,.T.);
#335=ADVANCED_FACE('',(#287,#288),#37,.T.);
#336=ADVANCED_FACE('',(#289,#290),#38,.T.);
#337=ADVANCED_FACE('',(#291,#292),#23,.F.);
#338=ADVANCED_FACE('',(#293,#294),#39,.T.);
#339=ADVANCED_FACE('',(#295,#296),#24,.T.);
#340=ADVANCED_FACE('',(#297,#298),#318,.T.);
#341=ADVANCED_FACE('',(#299,#300),#25,.T.);
#342=ADVANCED_FACE('',(#301,#302),#26,.T.);
#343=ADVANCED_FACE('',(#303,#304),#40,.T.);
#344=ADVANCED_FACE('',(#305,#306),#27,.F.);
#345=ADVANCED_FACE('',(#307,#308),#41,.T.);
#346=ADVANCED_FACE('',(#309,#310),#42,.T.);
#347=ADVANCED_FACE('',(#311,#312),#32,.F.);
#348=CLOSED_SHELL('',(#319,#320,#321,#322,#323,#324,#325,#326,#327,#328,
#329,#330,#331,#332,#333,#334,#335,#336,#337,#338,#339,#340,#341,#342,#343,
#344,#345,#346,#347));
#349=STYLED_ITEM('',(#350),#357);
#350=PRESENTATION_STYLE_ASSIGNMENT((#351));
#351=SURFACE_STYLE_USAGE(.BOTH.,#352);
#352=SURFACE_SIDE_STYLE('',(#353));
#353=SURFACE_STYLE_FILL_AREA(#354);
#354=FILL_AREA_STYLE('',(#355));
#355=FILL_AREA_STYLE_COLOUR('',#356);
#356=COLOUR_RGB('',0.310000002384186,0.310000002384186,0.310000002384186);
#357=MANIFOLD_SOLID_BREP('553397 DADB-S1-12-S151-200---(170.40)',#348);
#358=SHAPE_DEFINITION_REPRESENTATION(#666,#359);
#359=SHAPE_REPRESENTATION('553397 DADB-S1-12-S151-200---(170.40)',(#360),
#661);
#360=AXIS2_PLACEMENT_3D('',#534,#418,#419);
#361=AXIS2_PLACEMENT_3D('',#535,#420,#421);
#362=AXIS2_PLACEMENT_3D('',#536,#422,#423);
#363=AXIS2_PLACEMENT_3D('',#558,#424,#425);
#364=AXIS2_PLACEMENT_3D('',#560,#426,#427);
#365=AXIS2_PLACEMENT_3D('',#561,#428,#429);
#366=AXIS2_PLACEMENT_3D('',#583,#430,#431);
#367=AXIS2_PLACEMENT_3D('',#585,#432,#433);
#368=AXIS2_PLACEMENT_3D('',#586,#434,#435);
#369=AXIS2_PLACEMENT_3D('',#588,#436,#437);
#370=AXIS2_PLACEMENT_3D('',#590,#438,#439);
#371=AXIS2_PLACEMENT_3D('',#591,#440,#441);
#372=AXIS2_PLACEMENT_3D('',#593,#442,#443);
#373=AXIS2_PLACEMENT_3D('',#594,#444,#445);
#374=AXIS2_PLACEMENT_3D('',#596,#446,#447);
#375=AXIS2_PLACEMENT_3D('',#597,#448,#449);
#376=AXIS2_PLACEMENT_3D('',#599,#450,#451);
#377=AXIS2_PLACEMENT_3D('',#600,#452,#453);
#378=AXIS2_PLACEMENT_3D('',#602,#454,#455);
#379=AXIS2_PLACEMENT_3D('',#603,#456,#457);
#380=AXIS2_PLACEMENT_3D('',#605,#458,#459);
#381=AXIS2_PLACEMENT_3D('',#606,#460,#461);
#382=AXIS2_PLACEMENT_3D('',#608,#462,#463);
#383=AXIS2_PLACEMENT_3D('',#609,#464,#465);
#384=AXIS2_PLACEMENT_3D('',#610,#466,#467);
#385=AXIS2_PLACEMENT_3D('',#612,#468,#469);
#386=AXIS2_PLACEMENT_3D('',#613,#470,#471);
#387=AXIS2_PLACEMENT_3D('',#614,#472,#473);
#388=AXIS2_PLACEMENT_3D('',#616,#474,#475);
#389=AXIS2_PLACEMENT_3D('',#617,#476,#477);
#390=AXIS2_PLACEMENT_3D('',#619,#478,#479);
#391=AXIS2_PLACEMENT_3D('',#620,#480,#481);
#392=AXIS2_PLACEMENT_3D('',#621,#482,#483);
#393=AXIS2_PLACEMENT_3D('',#623,#484,#485);
#394=AXIS2_PLACEMENT_3D('',#625,#486,#487);
#395=AXIS2_PLACEMENT_3D('',#626,#488,#489);
#396=AXIS2_PLACEMENT_3D('',#627,#490,#491);
#397=AXIS2_PLACEMENT_3D('',#629,#492,#493);
#398=AXIS2_PLACEMENT_3D('',#630,#494,#495);
#399=AXIS2_PLACEMENT_3D('',#632,#496,#497);
#400=AXIS2_PLACEMENT_3D('',#633,#498,#499);
#401=AXIS2_PLACEMENT_3D('',#635,#500,#501);
#402=AXIS2_PLACEMENT_3D('',#636,#502,#503);
#403=AXIS2_PLACEMENT_3D('',#638,#504,#505);
#404=AXIS2_PLACEMENT_3D('',#639,#506,#507);
#405=AXIS2_PLACEMENT_3D('',#641,#508,#509);
#406=AXIS2_PLACEMENT_3D('',#642,#510,#511);
#407=AXIS2_PLACEMENT_3D('',#644,#512,#513);
#408=AXIS2_PLACEMENT_3D('',#646,#514,#515);
#409=AXIS2_PLACEMENT_3D('',#647,#516,#517);
#410=AXIS2_PLACEMENT_3D('',#649,#518,#519);
#411=AXIS2_PLACEMENT_3D('',#650,#520,#521);
#412=AXIS2_PLACEMENT_3D('',#652,#522,#523);
#413=AXIS2_PLACEMENT_3D('',#653,#524,#525);
#414=AXIS2_PLACEMENT_3D('',#655,#526,#527);
#415=AXIS2_PLACEMENT_3D('',#656,#528,#529);
#416=AXIS2_PLACEMENT_3D('',#657,#530,#531);
#417=AXIS2_PLACEMENT_3D('',#659,#532,#533);
#418=DIRECTION('',(0.,0.,1.));
#419=DIRECTION('',(1.,0.,0.));
#420=DIRECTION('',(0.,0.,-1.));
#421=DIRECTION('',(-1.,0.,0.));
#422=DIRECTION('',(0.,0.,-1.));
#423=DIRECTION('',(-1.,0.,0.));
#424=DIRECTION('',(0.,0.,-1.));
#425=DIRECTION('',(-1.,0.,0.));
#426=DIRECTION('',(0.,0.,1.));
#427=DIRECTION('',(1.,0.,0.));
#428=DIRECTION('',(0.,0.,-1.));
#429=DIRECTION('',(-1.,0.,0.));
#430=DIRECTION('',(0.,0.,-1.));
#431=DIRECTION('',(-1.,0.,0.));
#432=DIRECTION('',(0.,0.,-1.));
#433=DIRECTION('',(-1.,0.,0.));
#434=DIRECTION('',(0.,0.,-1.));
#435=DIRECTION('',(-1.,0.,0.));
#436=DIRECTION('',(0.,0.,-1.));
#437=DIRECTION('',(-1.,0.,0.));
#438=DIRECTION('',(0.,0.,1.));
#439=DIRECTION('',(1.,0.,0.));
#440=DIRECTION('',(0.,0.,-1.));
#441=DIRECTION('',(-1.,0.,0.));
#442=DIRECTION('',(0.,0.,-1.));
#443=DIRECTION('',(-1.,0.,0.));
#444=DIRECTION('',(0.,0.,-1.));
#445=DIRECTION('',(-1.,0.,0.));
#446=DIRECTION('',(0.,0.,-1.));
#447=DIRECTION('',(-1.,0.,0.));
#448=DIRECTION('',(0.,0.,-1.));
#449=DIRECTION('',(-1.,0.,0.));
#450=DIRECTION('',(0.,-1.,0.));
#451=DIRECTION('',(0.,0.,-1.));
#452=DIRECTION('',(0.,-1.,0.));
#453=DIRECTION('',(0.,0.,-1.));
#454=DIRECTION('',(0.,1.,0.));
#455=DIRECTION('',(0.,0.,1.));
#456=DIRECTION('',(0.,-1.,0.));
#457=DIRECTION('',(0.,0.,-1.));
#458=DIRECTION('',(0.,1.,0.));
#459=DIRECTION('',(0.,0.,1.));
#460=DIRECTION('',(0.,-1.,0.));
#461=DIRECTION('',(0.,0.,-1.));
#462=DIRECTION('',(0.,-1.,0.));
#463=DIRECTION('',(0.,0.,-1.));
#464=DIRECTION('',(0.,0.,-1.));
#465=DIRECTION('',(-1.,0.,0.));
#466=DIRECTION('',(0.,0.,-1.));
#467=DIRECTION('',(-1.,0.,0.));
#468=DIRECTION('',(0.,0.,-1.));
#469=DIRECTION('',(-1.,0.,0.));
#470=DIRECTION('',(0.,0.,-1.));
#471=DIRECTION('',(-1.,0.,0.));
#472=DIRECTION('',(0.,0.,-1.));
#473=DIRECTION('',(-1.,0.,0.));
#474=DIRECTION('',(0.,0.,-1.));
#475=DIRECTION('',(-1.,0.,0.));
#476=DIRECTION('',(0.,0.,-1.));
#477=DIRECTION('',(-1.,0.,0.));
#478=DIRECTION('',(0.,0.,-1.));
#479=DIRECTION('',(-1.,0.,0.));
#480=DIRECTION('',(0.,0.,-1.));
#481=DIRECTION('',(-1.,0.,0.));
#482=DIRECTION('',(0.,0.,-1.));
#483=DIRECTION('',(-1.,0.,0.));
#484=DIRECTION('',(0.,0.,-1.));
#485=DIRECTION('',(-1.,0.,0.));
#486=DIRECTION('',(0.,0.,-1.));
#487=DIRECTION('',(-1.,0.,0.));
#488=DIRECTION('',(0.,0.,1.));
#489=DIRECTION('',(1.,0.,0.));
#490=DIRECTION('',(0.,0.,-1.));
#491=DIRECTION('',(-1.,0.,0.));
#492=DIRECTION('',(0.,0.,-1.));
#493=DIRECTION('',(-1.,0.,0.));
#494=DIRECTION('',(0.,0.,-1.));
#495=DIRECTION('',(-1.,0.,0.));
#496=DIRECTION('',(0.,0.,-1.));
#497=DIRECTION('',(-1.,0.,0.));
#498=DIRECTION('',(0.,0.,-1.));
#499=DIRECTION('',(-1.,0.,0.));
#500=DIRECTION('',(0.,0.,-1.));
#501=DIRECTION('',(-1.,0.,0.));
#502=DIRECTION('',(0.,0.,-1.));
#503=DIRECTION('',(-1.,0.,0.));
#504=DIRECTION('',(0.,0.,-1.));
#505=DIRECTION('',(-1.,0.,0.));
#506=DIRECTION('',(0.,0.,-1.));
#507=DIRECTION('',(-1.,0.,0.));
#508=DIRECTION('',(0.,0.,-1.));
#509=DIRECTION('',(-1.,0.,0.));
#510=DIRECTION('',(0.,0.,-1.));
#511=DIRECTION('',(-1.,0.,0.));
#512=DIRECTION('',(0.,0.,-1.));
#513=DIRECTION('',(-1.,0.,0.));
#514=DIRECTION('',(0.,0.,-1.));
#515=DIRECTION('',(-1.,0.,0.));
#516=DIRECTION('',(0.,0.,-1.));
#517=DIRECTION('',(-1.,0.,0.));
#518=DIRECTION('',(0.,0.,1.));
#519=DIRECTION('',(1.,0.,0.));
#520=DIRECTION('',(0.,0.,-1.));
#521=DIRECTION('',(-1.,0.,0.));
#522=DIRECTION('',(0.,0.,-1.));
#523=DIRECTION('',(-1.,0.,0.));
#524=DIRECTION('',(0.,0.,-1.));
#525=DIRECTION('',(-1.,0.,0.));
#526=DIRECTION('',(0.,0.,-1.));
#527=DIRECTION('',(-1.,0.,0.));
#528=DIRECTION('',(0.,0.,1.));
#529=DIRECTION('',(1.,0.,0.));
#530=DIRECTION('',(0.,0.,-1.));
#531=DIRECTION('',(-1.,0.,0.));
#532=DIRECTION('',(0.,0.,-1.));
#533=DIRECTION('',(-1.,0.,0.));
#534=CARTESIAN_POINT('',(0.,0.,0.));
#535=CARTESIAN_POINT('',(0.,0.,-5.));
#536=CARTESIAN_POINT('',(0.,0.,0.));
#537=CARTESIAN_POINT('',(-3.,0.,0.));
#538=CARTESIAN_POINT('',(0.842810546496552,2.91565707592388,1.2526820710949));
#539=CARTESIAN_POINT('',(-0.000797830035840678,3.04197434094978,1.07346741847996));
#540=CARTESIAN_POINT('',(-0.839619226353188,2.91644556027699,1.25144825498524));
#541=CARTESIAN_POINT('',(-1.50239975748245,2.62325957755576,1.71136950338637));
#542=CARTESIAN_POINT('',(-1.94570216159718,2.29559094126559,2.35899122710356));
#543=CARTESIAN_POINT('',(-2.12681790301895,2.11434991780332,3.19722950368056));
#544=CARTESIAN_POINT('',(-1.94901234200673,2.29272670725821,4.03353310510252));
#545=CARTESIAN_POINT('',(-1.50540976123896,2.6213777875633,4.68570025874972));
#546=CARTESIAN_POINT('',(-0.846020239832503,2.91463636696604,5.14581613521893));
#547=CARTESIAN_POINT('',(-0.0049439191594589,3.04186965285506,5.32639011180346));
#548=CARTESIAN_POINT('',(0.835890018041782,2.91786017818655,5.15058736031593));
#549=CARTESIAN_POINT('',(1.5025420239078,2.62344790998431,4.68935098371194));
#550=CARTESIAN_POINT('',(1.94698050424495,2.29447666294386,4.03798354265764));
#551=CARTESIAN_POINT('',(2.12682600724322,2.11430165549617,3.201760577101));
#552=CARTESIAN_POINT('',(1.94771325995811,2.29402293351974,2.36237266632636));
#553=CARTESIAN_POINT('',(1.5018399450814,2.62343376141984,1.7109610413162));
#554=CARTESIAN_POINT('',(0.842810546496552,2.91565707592388,1.2526820710949));
#555=CARTESIAN_POINT('',(-0.000797830035840678,3.04197434094978,1.07346741847996));
#556=CARTESIAN_POINT('',(-0.839619226353188,2.91644556027699,1.25144825498524));
#557=CARTESIAN_POINT('',(0.,3.,1.133));
#558=CARTESIAN_POINT('',(0.,0.,179.435048094716));
#559=CARTESIAN_POINT('',(-3.,0.,179.435048094716));
#560=CARTESIAN_POINT('',(0.,0.,-5.));
#561=CARTESIAN_POINT('',(0.,0.,7.98229510629427));
#562=CARTESIAN_POINT('',(-10.1,0.,7.98229510629427));
#563=CARTESIAN_POINT('',(-4.01213021863531,8.94902264843605,1.48516760329771));
#564=CARTESIAN_POINT('',(-3.04757732993166,9.27389458162978,0.0835147942920723));
#565=CARTESIAN_POINT('',(-1.63345794503597,9.59829164484634,-0.843681805561251));
#566=CARTESIAN_POINT('',(0.0581731316677114,9.72885532997864,-1.16376540969386));
#567=CARTESIAN_POINT('',(1.74011978645806,9.58073816325081,-0.798998389262152));
#568=CARTESIAN_POINT('',(3.12864487146204,9.24931676803791,0.165692185383829));
#569=CARTESIAN_POINT('',(4.05246324777496,8.93466176890236,1.58523529632965));
#570=CARTESIAN_POINT('',(4.36341192655495,8.86615508805613,3.28754543449642));
#571=CARTESIAN_POINT('',(3.98917090031418,9.13640488475724,4.95509613507447));
#572=CARTESIAN_POINT('',(3.03910197390774,9.57910532087564,6.31938111246934));
#573=CARTESIAN_POINT('',(1.6415329925619,9.9739425974804,7.239452483618));
#574=CARTESIAN_POINT('',(-0.0500109120582016,10.1306213223554,7.56488400595707));
#575=CARTESIAN_POINT('',(-1.73875437643343,9.95515532425435,7.1992787572266));
#576=CARTESIAN_POINT('',(-3.11458374710422,9.54996888188948,6.24405679759337));
#577=CARTESIAN_POINT('',(-4.03073421219131,9.11205427862531,4.85694894913933));
#578=CARTESIAN_POINT('',(-4.36420425838455,8.86021943572749,3.18260668144256));
#579=CARTESIAN_POINT('',(-4.01213021863531,8.94902264843605,1.48516760329771));
#580=CARTESIAN_POINT('',(-3.04757732993166,9.27389458162978,0.0835147942920723));
#581=CARTESIAN_POINT('',(-1.63345794503597,9.59829164484634,-0.843681805561251));
#582=CARTESIAN_POINT('',(-2.97264958056632,9.27381543663359,0.162590829150792));
#583=CARTESIAN_POINT('',(0.,0.,-5.));
#584=CARTESIAN_POINT('',(-9.5,0.,-5.));
#585=CARTESIAN_POINT('',(0.,0.,-5.));
#586=CARTESIAN_POINT('',(0.,0.,179.3));
#587=CARTESIAN_POINT('',(-7.2,0.,179.3));
#588=CARTESIAN_POINT('',(0.,0.,178.083692341845));
#589=CARTESIAN_POINT('',(-7.2,0.,178.083692341845));
#590=CARTESIAN_POINT('',(0.,7.2,179.3));
#591=CARTESIAN_POINT('',(0.,0.,179.3));
#592=CARTESIAN_POINT('',(-3.5375,0.,179.3));
#593=CARTESIAN_POINT('',(0.,3.,-4.99999999999999));
#594=CARTESIAN_POINT('',(0.,0.,-5.));
#595=CARTESIAN_POINT('',(-8.,0.,-5.));
#596=CARTESIAN_POINT('',(0.,0.,7.98229510629427));
#597=CARTESIAN_POINT('',(0.,0.,8.15));
#598=CARTESIAN_POINT('',(-6.90000000000001,0.,8.15));
#599=CARTESIAN_POINT('',(0.,0.,3.2));
#600=CARTESIAN_POINT('',(0.,8.9,3.2));
#601=CARTESIAN_POINT('',(0.,8.9,-1.05));
#602=CARTESIAN_POINT('',(4.25,8.9,3.2));
#603=CARTESIAN_POINT('',(0.,8.9,3.2));
#604=CARTESIAN_POINT('',(0.,8.9,0.699999999999999));
#605=CARTESIAN_POINT('',(0.,8.9,3.2));
#606=CARTESIAN_POINT('',(0.,8.467,3.2));
#607=CARTESIAN_POINT('',(0.,8.467,1.133));
#608=CARTESIAN_POINT('',(0.,0.,3.2));
#609=CARTESIAN_POINT('',(0.,0.,179.5));
#610=CARTESIAN_POINT('',(0.,0.,179.5));
#611=CARTESIAN_POINT('',(-3.3375,0.,179.5));
#612=CARTESIAN_POINT('',(0.,0.,179.5));
#613=CARTESIAN_POINT('',(0.,0.,0.));
#614=CARTESIAN_POINT('',(0.,0.,0.));
#615=CARTESIAN_POINT('',(-7.188,0.,0.));
#616=CARTESIAN_POINT('',(0.,0.,-5.));
#617=CARTESIAN_POINT('',(0.,0.,-4.188));
#618=CARTESIAN_POINT('',(-7.188,0.,-4.188));
#619=CARTESIAN_POINT('',(0.,0.,-4.188));
#620=CARTESIAN_POINT('',(0.,0.,175.472694764184));
#621=CARTESIAN_POINT('',(0.,0.,176.832156444739));
#622=CARTESIAN_POINT('',(-9.88392739261105,0.,176.832156444739));
#623=CARTESIAN_POINT('',(0.,0.,174.113233083629));
#624=CARTESIAN_POINT('',(-9.88392739261105,0.,174.113233083629));
#625=CARTESIAN_POINT('',(0.,0.,178.083692341845));
#626=CARTESIAN_POINT('',(0.,0.,174.113233083629));
#627=CARTESIAN_POINT('',(0.,0.,172.530008291482));
#628=CARTESIAN_POINT('',(-6.48869086912964,0.,172.530008291482));
#629=CARTESIAN_POINT('',(0.,0.,172.076854397963));
#630=CARTESIAN_POINT('',(0.,0.,171.623700504445));
#631=CARTESIAN_POINT('',(-6.48869086912965,0.,171.623700504445));
#632=CARTESIAN_POINT('',(0.,0.,171.623700504445));
#633=CARTESIAN_POINT('',(0.,0.,170.040475712298));
#634=CARTESIAN_POINT('',(-9.88392739261105,0.,170.040475712298));
#635=CARTESIAN_POINT('',(0.,0.,168.681014031743));
#636=CARTESIAN_POINT('',(0.,0.,168.681014031743));
#637=CARTESIAN_POINT('',(-10.75,0.,168.681014031743));
#638=CARTESIAN_POINT('',(0.,0.,-5.));
#639=CARTESIAN_POINT('',(0.,0.,18.0189859682569));
#640=CARTESIAN_POINT('',(-10.75,0.,18.0189859682569));
#641=CARTESIAN_POINT('',(0.,0.,11.2273052358165));
#642=CARTESIAN_POINT('',(0.,0.,12.5867669163715));
#643=CARTESIAN_POINT('',(-9.88392739261105,0.,12.5867669163715));
#644=CARTESIAN_POINT('',(0.,0.,9.86784355526152));
#645=CARTESIAN_POINT('',(-9.88392739261105,0.,9.86784355526152));
#646=CARTESIAN_POINT('',(0.,0.,18.018985968257));
#647=CARTESIAN_POINT('',(0.,0.,16.659524287702));
#648=CARTESIAN_POINT('',(-9.88392739261105,0.,16.659524287702));
#649=CARTESIAN_POINT('',(0.,0.,16.659524287702));
#650=CARTESIAN_POINT('',(0.,0.,15.076299495555));
#651=CARTESIAN_POINT('',(-6.48869086912965,0.,15.076299495555));
#652=CARTESIAN_POINT('',(0.,0.,14.6231456020367));
#653=CARTESIAN_POINT('',(0.,0.,14.1699917085184));
#654=CARTESIAN_POINT('',(-6.48869086912965,0.,14.1699917085184));
#655=CARTESIAN_POINT('',(0.,0.,14.1699917085184));
#656=CARTESIAN_POINT('',(0.,0.,9.86784355526152));
#657=CARTESIAN_POINT('',(0.,0.,8.15000000000002));
#658=CARTESIAN_POINT('',(-6.20000000000005,0.,8.15000000000002));
#659=CARTESIAN_POINT('',(0.,6.20000000000005,8.15000000000003));
#660=MECHANICAL_DESIGN_GEOMETRIC_PRESENTATION_REPRESENTATION('',(#349),
#661);
#661=(
GEOMETRIC_REPRESENTATION_CONTEXT(3)
GLOBAL_UNCERTAINTY_ASSIGNED_CONTEXT((#662))
GLOBAL_UNIT_ASSIGNED_CONTEXT((#665,#664,#663))
REPRESENTATION_CONTEXT('553397 DADB-S1-12-S151-200---(170.40)',
'TOP_LEVEL_ASSEMBLY_PART')
);
#662=UNCERTAINTY_MEASURE_WITH_UNIT(LENGTH_MEASURE(0.005),#665,
'DISTANCE_ACCURACY_VALUE','Maximum Tolerance applied to model');
#663=(
NAMED_UNIT(*)
SI_UNIT($,.STERADIAN.)
SOLID_ANGLE_UNIT()
);
#664=(
NAMED_UNIT(*)
PLANE_ANGLE_UNIT()
SI_UNIT($,.RADIAN.)
);
#665=(
LENGTH_UNIT()
NAMED_UNIT(*)
SI_UNIT(.MILLI.,.METRE.)
);
#666=PRODUCT_DEFINITION_SHAPE('','',#667);
#667=PRODUCT_DEFINITION('','',#669,#668);
#668=PRODUCT_DEFINITION_CONTEXT('',#675,'design');
#669=PRODUCT_DEFINITION_FORMATION_WITH_SPECIFIED_SOURCE('','',#671,
 .NOT_KNOWN.);
#670=PRODUCT_RELATED_PRODUCT_CATEGORY('','',(#671));
#671=PRODUCT('553397 DADB-S1-12-S151-200---(170.40)',
'553397 DADB-S1-12-S151-200---(170.40)',
'553397 DADB-S1-12-S151-200---(170.40)',(#673));
#672=PRODUCT_CATEGORY('','');
#673=PRODUCT_CONTEXT('',#675,'mechanical');
#674=APPLICATION_PROTOCOL_DEFINITION('international standard',
'automotive_design',2010,#675);
#675=APPLICATION_CONTEXT(
'core data for automotive mechanical design processes');
ENDSEC;
END-ISO-10303-21;
