ISO-10303-21;
HEADER;
/* Generated by software containing ST-Developer
 * from STEP Tools, Inc. (www.steptools.com) 
 */
/* OPTION: using custom renumber hook */

FILE_DESCRIPTION(
/* description */ ('STEP AP214'),
/* implementation_level */ '2;1');

FILE_NAME(
/* name */ '553415_DADB-S1-20-S201-250',
/* time_stamp */ '2024-08-12T14:47:00+02:00',
/* author */ ('License CC BY-ND 4.0'),
/* organization */ ('CADENAS'),
/* preprocessor_version */ 'ST-DEVELOPER v19.3',
/* originating_system */ 'PARTsolutions',
/* authorisation */ '  ');

FILE_SCHEMA (('AUTOMOTIVE_DESIGN {1 0 10303 214 3 1 1}'));
ENDSEC;

DATA;
#10=PROPERTY_DEFINITION_REPRESENTATION(#14,#12);
#11=PROPERTY_DEFINITION_REPRESENTATION(#15,#13);
#12=REPRESENTATION('',(#16),#660);
#13=REPRESENTATION('',(#17),#660);
#14=PROPERTY_DEFINITION('pmi validation property','',#665);
#15=PROPERTY_DEFINITION('pmi validation property','',#665);
#16=VALUE_REPRESENTATION_ITEM('number of annotations',COUNT_MEASURE(0.));
#17=VALUE_REPRESENTATION_ITEM('number of views',COUNT_MEASURE(0.));
#18=SHAPE_REPRESENTATION_RELATIONSHIP('','',#359,#19);
#19=ADVANCED_BREP_SHAPE_REPRESENTATION('',(#357),#660);
#20=TOROIDAL_SURFACE('',#383,4.67221359549993,0.199999999999978);
#21=TOROIDAL_SURFACE('',#385,4.22499999999998,0.25000000000002);
#22=TOROIDAL_SURFACE('',#391,12.,1.49999999999997);
#23=TOROIDAL_SURFACE('',#397,9.04999999999995,0.499999999999981);
#24=TOROIDAL_SURFACE('',#401,12.,1.50000000000002);
#25=TOROIDAL_SURFACE('',#405,12.,1.5);
#26=TOROIDAL_SURFACE('',#408,12.,1.50000000000001);
#27=TOROIDAL_SURFACE('',#412,9.05,0.500000000000001);
#28=PLANE('',#370);
#29=PLANE('',#372);
#30=PLANE('',#378);
#31=PLANE('',#386);
#32=PLANE('',#417);
#33=CONICAL_SURFACE('',#364,12.85,0.0128999944882994);
#34=CONICAL_SURFACE('',#374,13.,1.51843644923507);
#35=CONICAL_SURFACE('',#380,2.5,0.785398163397449);
#36=CONICAL_SURFACE('',#390,10.188,0.785398163397447);
#37=CONICAL_SURFACE('',#394,9.5,1.1344640137963);
#38=CONICAL_SURFACE('',#395,12.633927392611,1.13446401379631);
#39=CONICAL_SURFACE('',#399,8.83869086912965,1.13446401379631);
#40=CONICAL_SURFACE('',#410,12.633927392611,1.13446401379631);
#41=CONICAL_SURFACE('',#414,8.83869086912965,1.13446401379631);
#42=CONICAL_SURFACE('',#415,12.633927392611,1.13446401379632);
#43=B_SPLINE_CURVE_WITH_KNOTS('',3,(#538,#539,#540,#541,#542,#543,#544,
#545,#546,#547,#548,#549,#550,#551,#552,#553,#554,#555),.UNSPECIFIED.,.T.,
 .F.,(1,1,1,1,1,1,1,1,1,1,1,1,1,1,1,1,1,1,1,1,1,1),(-0.00246648733168801,
-0.001644324887792,-0.000822162443896001,0.,0.000822162443896002,0.001644324887792,
0.00246648733168801,0.00328864977558401,0.00411081221948001,0.00493297466337601,
0.00657729955116801,0.00739946199506402,0.00822162443896002,0.00904378688285602,
0.00986594932675202,0.010688111770648,0.011510274214544,0.01233243665844,
0.013154599102336,0.013976761546232,0.014798923990128,0.015621086434024),
 .UNSPECIFIED.);
#44=B_SPLINE_CURVE_WITH_KNOTS('',3,(#562,#563,#564,#565,#566,#567,#568,
#569,#570,#571,#572,#573,#574,#575,#576,#577,#578,#579,#580),
 .UNSPECIFIED.,.T.,.F.,(1,1,1,1,1,1,1,1,1,1,1,1,1,1,1,1,1,1,1,1,1,1,1),
(-0.00501840268270065,-0.0033456017884671,-0.00167280089423355,0.,0.00167280089423355,
0.0033456017884671,0.00501840268270066,0.00669120357693421,0.00836400447116776,
0.0100368053654013,0.0117096062596349,0.0133824071538684,0.015055208048102,
0.0167280089423355,0.0184008098365691,0.0200736107308026,0.0217464116250362,
0.0234192125192697,0.0250920134135033,0.0267648143077368,0.0284376152019704,
0.0301104160962039,0.0317832169904375),.UNSPECIFIED.);
#45=ORIENTED_EDGE('',*,*,#105,.T.);
#46=ORIENTED_EDGE('',*,*,#106,.T.);
#47=ORIENTED_EDGE('',*,*,#107,.F.);
#48=ORIENTED_EDGE('',*,*,#108,.T.);
#49=ORIENTED_EDGE('',*,*,#109,.T.);
#50=ORIENTED_EDGE('',*,*,#110,.F.);
#51=ORIENTED_EDGE('',*,*,#111,.T.);
#52=ORIENTED_EDGE('',*,*,#112,.F.);
#53=ORIENTED_EDGE('',*,*,#113,.T.);
#54=ORIENTED_EDGE('',*,*,#111,.F.);
#55=ORIENTED_EDGE('',*,*,#110,.T.);
#56=ORIENTED_EDGE('',*,*,#114,.F.);
#57=ORIENTED_EDGE('',*,*,#115,.T.);
#58=ORIENTED_EDGE('',*,*,#108,.F.);
#59=ORIENTED_EDGE('',*,*,#116,.T.);
#60=ORIENTED_EDGE('',*,*,#109,.F.);
#61=ORIENTED_EDGE('',*,*,#117,.T.);
#62=ORIENTED_EDGE('',*,*,#116,.F.);
#63=ORIENTED_EDGE('',*,*,#118,.T.);
#64=ORIENTED_EDGE('',*,*,#117,.F.);
#65=ORIENTED_EDGE('',*,*,#106,.F.);
#66=ORIENTED_EDGE('',*,*,#118,.F.);
#67=ORIENTED_EDGE('',*,*,#113,.F.);
#68=ORIENTED_EDGE('',*,*,#119,.T.);
#69=ORIENTED_EDGE('',*,*,#107,.T.);
#70=ORIENTED_EDGE('',*,*,#119,.F.);
#71=ORIENTED_EDGE('',*,*,#120,.T.);
#72=ORIENTED_EDGE('',*,*,#105,.F.);
#73=ORIENTED_EDGE('',*,*,#121,.T.);
#74=ORIENTED_EDGE('',*,*,#120,.F.);
#75=ORIENTED_EDGE('',*,*,#114,.T.);
#76=ORIENTED_EDGE('',*,*,#121,.F.);
#77=ORIENTED_EDGE('',*,*,#122,.T.);
#78=ORIENTED_EDGE('',*,*,#123,.F.);
#79=ORIENTED_EDGE('',*,*,#122,.F.);
#80=ORIENTED_EDGE('',*,*,#112,.T.);
#81=ORIENTED_EDGE('',*,*,#124,.F.);
#82=ORIENTED_EDGE('',*,*,#123,.T.);
#83=ORIENTED_EDGE('',*,*,#125,.F.);
#84=ORIENTED_EDGE('',*,*,#124,.T.);
#85=ORIENTED_EDGE('',*,*,#126,.F.);
#86=ORIENTED_EDGE('',*,*,#125,.T.);
#87=ORIENTED_EDGE('',*,*,#126,.T.);
#88=ORIENTED_EDGE('',*,*,#127,.F.);
#89=ORIENTED_EDGE('',*,*,#127,.T.);
#90=ORIENTED_EDGE('',*,*,#128,.F.);
#91=ORIENTED_EDGE('',*,*,#129,.T.);
#92=ORIENTED_EDGE('',*,*,#130,.F.);
#93=ORIENTED_EDGE('',*,*,#128,.T.);
#94=ORIENTED_EDGE('',*,*,#131,.F.);
#95=ORIENTED_EDGE('',*,*,#132,.F.);
#96=ORIENTED_EDGE('',*,*,#131,.T.);
#97=ORIENTED_EDGE('',*,*,#133,.F.);
#98=ORIENTED_EDGE('',*,*,#132,.T.);
#99=ORIENTED_EDGE('',*,*,#129,.F.);
#100=ORIENTED_EDGE('',*,*,#133,.T.);
#101=ORIENTED_EDGE('',*,*,#134,.F.);
#102=ORIENTED_EDGE('',*,*,#130,.T.);
#103=ORIENTED_EDGE('',*,*,#115,.F.);
#104=ORIENTED_EDGE('',*,*,#134,.T.);
#105=EDGE_CURVE('',#135,#135,#165,.T.);
#106=EDGE_CURVE('',#136,#136,#43,.T.);
#107=EDGE_CURVE('',#137,#137,#166,.T.);
#108=EDGE_CURVE('',#138,#138,#167,.T.);
#109=EDGE_CURVE('',#139,#139,#44,.T.);
#110=EDGE_CURVE('',#140,#140,#168,.T.);
#111=EDGE_CURVE('',#141,#141,#169,.T.);
#112=EDGE_CURVE('',#142,#142,#170,.T.);
#113=EDGE_CURVE('',#143,#143,#171,.T.);
#114=EDGE_CURVE('',#144,#144,#172,.T.);
#115=EDGE_CURVE('',#145,#145,#173,.T.);
#116=EDGE_CURVE('',#146,#146,#174,.T.);
#117=EDGE_CURVE('',#147,#147,#175,.T.);
#118=EDGE_CURVE('',#148,#148,#176,.T.);
#119=EDGE_CURVE('',#149,#149,#177,.T.);
#120=EDGE_CURVE('',#150,#150,#178,.T.);
#121=EDGE_CURVE('',#151,#151,#179,.T.);
#122=EDGE_CURVE('',#152,#152,#180,.T.);
#123=EDGE_CURVE('',#153,#153,#181,.T.);
#124=EDGE_CURVE('',#154,#154,#182,.T.);
#125=EDGE_CURVE('',#155,#155,#183,.T.);
#126=EDGE_CURVE('',#156,#156,#184,.T.);
#127=EDGE_CURVE('',#157,#157,#185,.T.);
#128=EDGE_CURVE('',#158,#158,#186,.T.);
#129=EDGE_CURVE('',#159,#159,#187,.T.);
#130=EDGE_CURVE('',#160,#160,#188,.T.);
#131=EDGE_CURVE('',#161,#161,#189,.T.);
#132=EDGE_CURVE('',#162,#162,#190,.T.);
#133=EDGE_CURVE('',#163,#163,#191,.T.);
#134=EDGE_CURVE('',#164,#164,#192,.T.);
#135=VERTEX_POINT('',#537);
#136=VERTEX_POINT('',#556);
#137=VERTEX_POINT('',#558);
#138=VERTEX_POINT('',#561);
#139=VERTEX_POINT('',#581);
#140=VERTEX_POINT('',#583);
#141=VERTEX_POINT('',#586);
#142=VERTEX_POINT('',#588);
#143=VERTEX_POINT('',#591);
#144=VERTEX_POINT('',#594);
#145=VERTEX_POINT('',#597);
#146=VERTEX_POINT('',#600);
#147=VERTEX_POINT('',#603);
#148=VERTEX_POINT('',#606);
#149=VERTEX_POINT('',#610);
#150=VERTEX_POINT('',#614);
#151=VERTEX_POINT('',#617);
#152=VERTEX_POINT('',#621);
#153=VERTEX_POINT('',#623);
#154=VERTEX_POINT('',#627);
#155=VERTEX_POINT('',#630);
#156=VERTEX_POINT('',#633);
#157=VERTEX_POINT('',#636);
#158=VERTEX_POINT('',#639);
#159=VERTEX_POINT('',#642);
#160=VERTEX_POINT('',#644);
#161=VERTEX_POINT('',#647);
#162=VERTEX_POINT('',#650);
#163=VERTEX_POINT('',#653);
#164=VERTEX_POINT('',#657);
#165=CIRCLE('',#362,4.);
#166=CIRCLE('',#363,3.99999999999998);
#167=CIRCLE('',#365,13.);
#168=CIRCLE('',#366,12.85);
#169=CIRCLE('',#368,9.49999999999999);
#170=CIRCLE('',#369,9.5);
#171=CIRCLE('',#371,4.67221359549995);
#172=CIRCLE('',#373,11.);
#173=CIRCLE('',#375,8.75);
#174=CIRCLE('',#377,4.25);
#175=CIRCLE('',#379,2.5);
#176=CIRCLE('',#381,2.067);
#177=CIRCLE('',#384,4.47345199976711);
#178=CIRCLE('',#387,10.188);
#179=CIRCLE('',#389,10.188);
#180=CIRCLE('',#392,12.633927392611);
#181=CIRCLE('',#393,12.633927392611);
#182=CIRCLE('',#396,8.83869086912965);
#183=CIRCLE('',#398,8.83869086912965);
#184=CIRCLE('',#400,12.633927392611);
#185=CIRCLE('',#402,13.5);
#186=CIRCLE('',#404,13.5);
#187=CIRCLE('',#406,12.633927392611);
#188=CIRCLE('',#407,12.633927392611);
#189=CIRCLE('',#409,12.633927392611);
#190=CIRCLE('',#411,8.83869086912965);
#191=CIRCLE('',#413,8.83869086912965);
#192=CIRCLE('',#416,8.55000000000002);
#193=EDGE_LOOP('',(#45));
#194=EDGE_LOOP('',(#46));
#195=EDGE_LOOP('',(#47));
#196=EDGE_LOOP('',(#48));
#197=EDGE_LOOP('',(#49));
#198=EDGE_LOOP('',(#50));
#199=EDGE_LOOP('',(#51));
#200=EDGE_LOOP('',(#52));
#201=EDGE_LOOP('',(#53));
#202=EDGE_LOOP('',(#54));
#203=EDGE_LOOP('',(#55));
#204=EDGE_LOOP('',(#56));
#205=EDGE_LOOP('',(#57));
#206=EDGE_LOOP('',(#58));
#207=EDGE_LOOP('',(#59));
#208=EDGE_LOOP('',(#60));
#209=EDGE_LOOP('',(#61));
#210=EDGE_LOOP('',(#62));
#211=EDGE_LOOP('',(#63));
#212=EDGE_LOOP('',(#64));
#213=EDGE_LOOP('',(#65));
#214=EDGE_LOOP('',(#66));
#215=EDGE_LOOP('',(#67));
#216=EDGE_LOOP('',(#68));
#217=EDGE_LOOP('',(#69));
#218=EDGE_LOOP('',(#70));
#219=EDGE_LOOP('',(#71));
#220=EDGE_LOOP('',(#72));
#221=EDGE_LOOP('',(#73));
#222=EDGE_LOOP('',(#74));
#223=EDGE_LOOP('',(#75));
#224=EDGE_LOOP('',(#76));
#225=EDGE_LOOP('',(#77));
#226=EDGE_LOOP('',(#78));
#227=EDGE_LOOP('',(#79));
#228=EDGE_LOOP('',(#80));
#229=EDGE_LOOP('',(#81));
#230=EDGE_LOOP('',(#82));
#231=EDGE_LOOP('',(#83));
#232=EDGE_LOOP('',(#84));
#233=EDGE_LOOP('',(#85));
#234=EDGE_LOOP('',(#86));
#235=EDGE_LOOP('',(#87));
#236=EDGE_LOOP('',(#88));
#237=EDGE_LOOP('',(#89));
#238=EDGE_LOOP('',(#90));
#239=EDGE_LOOP('',(#91));
#240=EDGE_LOOP('',(#92));
#241=EDGE_LOOP('',(#93));
#242=EDGE_LOOP('',(#94));
#243=EDGE_LOOP('',(#95));
#244=EDGE_LOOP('',(#96));
#245=EDGE_LOOP('',(#97));
#246=EDGE_LOOP('',(#98));
#247=EDGE_LOOP('',(#99));
#248=EDGE_LOOP('',(#100));
#249=EDGE_LOOP('',(#101));
#250=EDGE_LOOP('',(#102));
#251=EDGE_LOOP('',(#103));
#252=EDGE_LOOP('',(#104));
#253=FACE_BOUND('',#193,.T.);
#254=FACE_BOUND('',#194,.T.);
#255=FACE_BOUND('',#195,.T.);
#256=FACE_BOUND('',#196,.T.);
#257=FACE_BOUND('',#197,.T.);
#258=FACE_BOUND('',#198,.T.);
#259=FACE_BOUND('',#199,.T.);
#260=FACE_BOUND('',#200,.T.);
#261=FACE_BOUND('',#201,.T.);
#262=FACE_BOUND('',#202,.T.);
#263=FACE_BOUND('',#203,.T.);
#264=FACE_BOUND('',#204,.T.);
#265=FACE_BOUND('',#205,.T.);
#266=FACE_BOUND('',#206,.T.);
#267=FACE_BOUND('',#207,.T.);
#268=FACE_BOUND('',#208,.T.);
#269=FACE_BOUND('',#209,.T.);
#270=FACE_BOUND('',#210,.T.);
#271=FACE_BOUND('',#211,.T.);
#272=FACE_BOUND('',#212,.T.);
#273=FACE_BOUND('',#213,.T.);
#274=FACE_BOUND('',#214,.T.);
#275=FACE_BOUND('',#215,.T.);
#276=FACE_BOUND('',#216,.T.);
#277=FACE_BOUND('',#217,.T.);
#278=FACE_BOUND('',#218,.T.);
#279=FACE_BOUND('',#219,.T.);
#280=FACE_BOUND('',#220,.T.);
#281=FACE_BOUND('',#221,.T.);
#282=FACE_BOUND('',#222,.T.);
#283=FACE_BOUND('',#223,.T.);
#284=FACE_BOUND('',#224,.T.);
#285=FACE_BOUND('',#225,.T.);
#286=FACE_BOUND('',#226,.T.);
#287=FACE_BOUND('',#227,.T.);
#288=FACE_BOUND('',#228,.T.);
#289=FACE_BOUND('',#229,.T.);
#290=FACE_BOUND('',#230,.T.);
#291=FACE_BOUND('',#231,.T.);
#292=FACE_BOUND('',#232,.T.);
#293=FACE_BOUND('',#233,.T.);
#294=FACE_BOUND('',#234,.T.);
#295=FACE_BOUND('',#235,.T.);
#296=FACE_BOUND('',#236,.T.);
#297=FACE_BOUND('',#237,.T.);
#298=FACE_BOUND('',#238,.T.);
#299=FACE_BOUND('',#239,.T.);
#300=FACE_BOUND('',#240,.T.);
#301=FACE_BOUND('',#241,.T.);
#302=FACE_BOUND('',#242,.T.);
#303=FACE_BOUND('',#243,.T.);
#304=FACE_BOUND('',#244,.T.);
#305=FACE_BOUND('',#245,.T.);
#306=FACE_BOUND('',#246,.T.);
#307=FACE_BOUND('',#247,.T.);
#308=FACE_BOUND('',#248,.T.);
#309=FACE_BOUND('',#249,.T.);
#310=FACE_BOUND('',#250,.T.);
#311=FACE_BOUND('',#251,.T.);
#312=FACE_BOUND('',#252,.T.);
#313=CYLINDRICAL_SURFACE('',#361,4.);
#314=CYLINDRICAL_SURFACE('',#367,9.49999999999999);
#315=CYLINDRICAL_SURFACE('',#376,4.25);
#316=CYLINDRICAL_SURFACE('',#382,2.067);
#317=CYLINDRICAL_SURFACE('',#388,10.188);
#318=CYLINDRICAL_SURFACE('',#403,13.5);
#319=ADVANCED_FACE('',(#253,#254,#255),#313,.F.);
#320=ADVANCED_FACE('',(#256,#257,#258),#33,.T.);
#321=ADVANCED_FACE('',(#259,#260),#314,.T.);
#322=ADVANCED_FACE('',(#261,#262),#28,.T.);
#323=ADVANCED_FACE('',(#263,#264),#29,.T.);
#324=ADVANCED_FACE('',(#265,#266),#34,.T.);
#325=ADVANCED_FACE('',(#267,#268),#315,.F.);
#326=ADVANCED_FACE('',(#269,#270),#30,.T.);
#327=ADVANCED_FACE('',(#271,#272),#35,.F.);
#328=ADVANCED_FACE('',(#273,#274),#316,.F.);
#329=ADVANCED_FACE('',(#275,#276),#20,.F.);
#330=ADVANCED_FACE('',(#277,#278),#21,.T.);
#331=ADVANCED_FACE('',(#279,#280),#31,.T.);
#332=ADVANCED_FACE('',(#281,#282),#317,.F.);
#333=ADVANCED_FACE('',(#283,#284),#36,.F.);
#334=ADVANCED_FACE('',(#285,#286),#22,.T.);
#335=ADVANCED_FACE('',(#287,#288),#37,.T.);
#336=ADVANCED_FACE('',(#289,#290),#38,.T.);
#337=ADVANCED_FACE('',(#291,#292),#23,.F.);
#338=ADVANCED_FACE('',(#293,#294),#39,.T.);
#339=ADVANCED_FACE('',(#295,#296),#24,.T.);
#340=ADVANCED_FACE('',(#297,#298),#318,.T.);
#341=ADVANCED_FACE('',(#299,#300),#25,.T.);
#342=ADVANCED_FACE('',(#301,#302),#26,.T.);
#343=ADVANCED_FACE('',(#303,#304),#40,.T.);
#344=ADVANCED_FACE('',(#305,#306),#27,.F.);
#345=ADVANCED_FACE('',(#307,#308),#41,.T.);
#346=ADVANCED_FACE('',(#309,#310),#42,.T.);
#347=ADVANCED_FACE('',(#311,#312),#32,.F.);
#348=CLOSED_SHELL('',(#319,#320,#321,#322,#323,#324,#325,#326,#327,#328,
#329,#330,#331,#332,#333,#334,#335,#336,#337,#338,#339,#340,#341,#342,#343,
#344,#345,#346,#347));
#349=STYLED_ITEM('',(#350),#357);
#350=PRESENTATION_STYLE_ASSIGNMENT((#351));
#351=SURFACE_STYLE_USAGE(.BOTH.,#352);
#352=SURFACE_SIDE_STYLE('',(#353));
#353=SURFACE_STYLE_FILL_AREA(#354);
#354=FILL_AREA_STYLE('',(#355));
#355=FILL_AREA_STYLE_COLOUR('',#356);
#356=COLOUR_RGB('',0.310000002384186,0.310000002384186,0.310000002384186);
#357=MANIFOLD_SOLID_BREP('553415 DADB-S1-20-S201-250---(207.30)',#348);
#358=SHAPE_DEFINITION_REPRESENTATION(#665,#359);
#359=SHAPE_REPRESENTATION('553415 DADB-S1-20-S201-250---(207.30)',(#360),
#660);
#360=AXIS2_PLACEMENT_3D('',#534,#418,#419);
#361=AXIS2_PLACEMENT_3D('',#535,#420,#421);
#362=AXIS2_PLACEMENT_3D('',#536,#422,#423);
#363=AXIS2_PLACEMENT_3D('',#557,#424,#425);
#364=AXIS2_PLACEMENT_3D('',#559,#426,#427);
#365=AXIS2_PLACEMENT_3D('',#560,#428,#429);
#366=AXIS2_PLACEMENT_3D('',#582,#430,#431);
#367=AXIS2_PLACEMENT_3D('',#584,#432,#433);
#368=AXIS2_PLACEMENT_3D('',#585,#434,#435);
#369=AXIS2_PLACEMENT_3D('',#587,#436,#437);
#370=AXIS2_PLACEMENT_3D('',#589,#438,#439);
#371=AXIS2_PLACEMENT_3D('',#590,#440,#441);
#372=AXIS2_PLACEMENT_3D('',#592,#442,#443);
#373=AXIS2_PLACEMENT_3D('',#593,#444,#445);
#374=AXIS2_PLACEMENT_3D('',#595,#446,#447);
#375=AXIS2_PLACEMENT_3D('',#596,#448,#449);
#376=AXIS2_PLACEMENT_3D('',#598,#450,#451);
#377=AXIS2_PLACEMENT_3D('',#599,#452,#453);
#378=AXIS2_PLACEMENT_3D('',#601,#454,#455);
#379=AXIS2_PLACEMENT_3D('',#602,#456,#457);
#380=AXIS2_PLACEMENT_3D('',#604,#458,#459);
#381=AXIS2_PLACEMENT_3D('',#605,#460,#461);
#382=AXIS2_PLACEMENT_3D('',#607,#462,#463);
#383=AXIS2_PLACEMENT_3D('',#608,#464,#465);
#384=AXIS2_PLACEMENT_3D('',#609,#466,#467);
#385=AXIS2_PLACEMENT_3D('',#611,#468,#469);
#386=AXIS2_PLACEMENT_3D('',#612,#470,#471);
#387=AXIS2_PLACEMENT_3D('',#613,#472,#473);
#388=AXIS2_PLACEMENT_3D('',#615,#474,#475);
#389=AXIS2_PLACEMENT_3D('',#616,#476,#477);
#390=AXIS2_PLACEMENT_3D('',#618,#478,#479);
#391=AXIS2_PLACEMENT_3D('',#619,#480,#481);
#392=AXIS2_PLACEMENT_3D('',#620,#482,#483);
#393=AXIS2_PLACEMENT_3D('',#622,#484,#485);
#394=AXIS2_PLACEMENT_3D('',#624,#486,#487);
#395=AXIS2_PLACEMENT_3D('',#625,#488,#489);
#396=AXIS2_PLACEMENT_3D('',#626,#490,#491);
#397=AXIS2_PLACEMENT_3D('',#628,#492,#493);
#398=AXIS2_PLACEMENT_3D('',#629,#494,#495);
#399=AXIS2_PLACEMENT_3D('',#631,#496,#497);
#400=AXIS2_PLACEMENT_3D('',#632,#498,#499);
#401=AXIS2_PLACEMENT_3D('',#634,#500,#501);
#402=AXIS2_PLACEMENT_3D('',#635,#502,#503);
#403=AXIS2_PLACEMENT_3D('',#637,#504,#505);
#404=AXIS2_PLACEMENT_3D('',#638,#506,#507);
#405=AXIS2_PLACEMENT_3D('',#640,#508,#509);
#406=AXIS2_PLACEMENT_3D('',#641,#510,#511);
#407=AXIS2_PLACEMENT_3D('',#643,#512,#513);
#408=AXIS2_PLACEMENT_3D('',#645,#514,#515);
#409=AXIS2_PLACEMENT_3D('',#646,#516,#517);
#410=AXIS2_PLACEMENT_3D('',#648,#518,#519);
#411=AXIS2_PLACEMENT_3D('',#649,#520,#521);
#412=AXIS2_PLACEMENT_3D('',#651,#522,#523);
#413=AXIS2_PLACEMENT_3D('',#652,#524,#525);
#414=AXIS2_PLACEMENT_3D('',#654,#526,#527);
#415=AXIS2_PLACEMENT_3D('',#655,#528,#529);
#416=AXIS2_PLACEMENT_3D('',#656,#530,#531);
#417=AXIS2_PLACEMENT_3D('',#658,#532,#533);
#418=DIRECTION('',(0.,0.,1.));
#419=DIRECTION('',(1.,0.,0.));
#420=DIRECTION('',(0.,0.,-1.));
#421=DIRECTION('',(-1.,0.,0.));
#422=DIRECTION('',(0.,0.,-1.));
#423=DIRECTION('',(-1.,0.,0.));
#424=DIRECTION('',(0.,0.,-1.));
#425=DIRECTION('',(-1.,0.,0.));
#426=DIRECTION('',(0.,0.,1.));
#427=DIRECTION('',(1.,0.,0.));
#428=DIRECTION('',(0.,0.,-1.));
#429=DIRECTION('',(-1.,0.,0.));
#430=DIRECTION('',(0.,0.,-1.));
#431=DIRECTION('',(-1.,0.,0.));
#432=DIRECTION('',(0.,0.,-1.));
#433=DIRECTION('',(-1.,0.,0.));
#434=DIRECTION('',(0.,0.,-1.));
#435=DIRECTION('',(-1.,0.,0.));
#436=DIRECTION('',(0.,0.,-1.));
#437=DIRECTION('',(-1.,0.,0.));
#438=DIRECTION('',(0.,0.,1.));
#439=DIRECTION('',(1.,0.,0.));
#440=DIRECTION('',(0.,0.,-1.));
#441=DIRECTION('',(-1.,0.,0.));
#442=DIRECTION('',(0.,0.,-1.));
#443=DIRECTION('',(-1.,0.,0.));
#444=DIRECTION('',(0.,0.,-1.));
#445=DIRECTION('',(-1.,0.,0.));
#446=DIRECTION('',(0.,0.,-1.));
#447=DIRECTION('',(-1.,0.,0.));
#448=DIRECTION('',(0.,0.,-1.));
#449=DIRECTION('',(-1.,0.,0.));
#450=DIRECTION('',(0.,-1.,0.));
#451=DIRECTION('',(0.,0.,-1.));
#452=DIRECTION('',(0.,-1.,0.));
#453=DIRECTION('',(0.,0.,-1.));
#454=DIRECTION('',(0.,1.,0.));
#455=DIRECTION('',(0.,0.,1.));
#456=DIRECTION('',(0.,-1.,0.));
#457=DIRECTION('',(0.,0.,-1.));
#458=DIRECTION('',(0.,1.,0.));
#459=DIRECTION('',(0.,0.,1.));
#460=DIRECTION('',(0.,-1.,0.));
#461=DIRECTION('',(0.,0.,-1.));
#462=DIRECTION('',(0.,-1.,0.));
#463=DIRECTION('',(0.,0.,-1.));
#464=DIRECTION('',(0.,0.,-1.));
#465=DIRECTION('',(-1.,0.,0.));
#466=DIRECTION('',(0.,0.,-1.));
#467=DIRECTION('',(-1.,0.,0.));
#468=DIRECTION('',(0.,0.,-1.));
#469=DIRECTION('',(-1.,0.,0.));
#470=DIRECTION('',(0.,0.,-1.));
#471=DIRECTION('',(-1.,0.,0.));
#472=DIRECTION('',(0.,0.,-1.));
#473=DIRECTION('',(-1.,0.,0.));
#474=DIRECTION('',(0.,0.,-1.));
#475=DIRECTION('',(-1.,0.,0.));
#476=DIRECTION('',(0.,0.,-1.));
#477=DIRECTION('',(-1.,0.,0.));
#478=DIRECTION('',(0.,0.,-1.));
#479=DIRECTION('',(-1.,0.,0.));
#480=DIRECTION('',(0.,0.,-1.));
#481=DIRECTION('',(-1.,0.,0.));
#482=DIRECTION('',(0.,0.,-1.));
#483=DIRECTION('',(-1.,0.,0.));
#484=DIRECTION('',(0.,0.,-1.));
#485=DIRECTION('',(-1.,0.,0.));
#486=DIRECTION('',(0.,0.,-1.));
#487=DIRECTION('',(-1.,0.,0.));
#488=DIRECTION('',(0.,0.,1.));
#489=DIRECTION('',(1.,0.,0.));
#490=DIRECTION('',(0.,0.,-1.));
#491=DIRECTION('',(-1.,0.,0.));
#492=DIRECTION('',(0.,0.,-1.));
#493=DIRECTION('',(-1.,0.,0.));
#494=DIRECTION('',(0.,0.,-1.));
#495=DIRECTION('',(-1.,0.,0.));
#496=DIRECTION('',(0.,0.,-1.));
#497=DIRECTION('',(-1.,0.,0.));
#498=DIRECTION('',(0.,0.,-1.));
#499=DIRECTION('',(-1.,0.,0.));
#500=DIRECTION('',(0.,0.,-1.));
#501=DIRECTION('',(-1.,0.,0.));
#502=DIRECTION('',(0.,0.,-1.));
#503=DIRECTION('',(-1.,0.,0.));
#504=DIRECTION('',(0.,0.,-1.));
#505=DIRECTION('',(-1.,0.,0.));
#506=DIRECTION('',(0.,0.,-1.));
#507=DIRECTION('',(-1.,0.,0.));
#508=DIRECTION('',(0.,0.,-1.));
#509=DIRECTION('',(-1.,0.,0.));
#510=DIRECTION('',(0.,0.,-1.));
#511=DIRECTION('',(-1.,0.,0.));
#512=DIRECTION('',(0.,0.,-1.));
#513=DIRECTION('',(-1.,0.,0.));
#514=DIRECTION('',(0.,0.,-1.));
#515=DIRECTION('',(-1.,0.,0.));
#516=DIRECTION('',(0.,0.,-1.));
#517=DIRECTION('',(-1.,0.,0.));
#518=DIRECTION('',(0.,0.,1.));
#519=DIRECTION('',(1.,0.,0.));
#520=DIRECTION('',(0.,0.,-1.));
#521=DIRECTION('',(-1.,0.,0.));
#522=DIRECTION('',(0.,0.,-1.));
#523=DIRECTION('',(-1.,0.,0.));
#524=DIRECTION('',(0.,0.,-1.));
#525=DIRECTION('',(-1.,0.,0.));
#526=DIRECTION('',(0.,0.,-1.));
#527=DIRECTION('',(-1.,0.,0.));
#528=DIRECTION('',(0.,0.,1.));
#529=DIRECTION('',(1.,0.,0.));
#530=DIRECTION('',(0.,0.,-1.));
#531=DIRECTION('',(-1.,0.,0.));
#532=DIRECTION('',(0.,0.,-1.));
#533=DIRECTION('',(-1.,0.,0.));
#534=CARTESIAN_POINT('',(0.,0.,0.));
#535=CARTESIAN_POINT('',(0.,0.,-4.2));
#536=CARTESIAN_POINT('',(0.,0.,0.));
#537=CARTESIAN_POINT('',(-4.,0.,0.));
#538=CARTESIAN_POINT('',(0.828228446918718,3.9393388928085,0.747198402788126));
#539=CARTESIAN_POINT('',(-0.000665300282486113,4.03022698326137,0.576111717058826));
#540=CARTESIAN_POINT('',(-0.825567245788774,3.93975317414601,0.746354728976569));
#541=CARTESIAN_POINT('',(-1.49908127988363,3.72545033575167,1.20386178611544));
#542=CARTESIAN_POINT('',(-1.95198786130099,3.49717923766992,1.8730039034511));
#543=CARTESIAN_POINT('',(-2.12382642299174,3.38880546948082,2.69319097130271));
#544=CARTESIAN_POINT('',(-1.95466333799715,3.49489713179694,3.52153255992546));
#545=CARTESIAN_POINT('',(-1.35386840101012,3.80313244311369,4.41837542581301));
#546=CARTESIAN_POINT('',(-0.28732843626165,4.06207110675971,4.8802238059273));
#547=CARTESIAN_POINT('',(0.821815477348711,3.94057664698061,4.65598389693295));
#548=CARTESIAN_POINT('',(1.49728132862299,3.72628805918519,4.19802422001171));
#549=CARTESIAN_POINT('',(1.95177919216956,3.49738501031378,3.52827054243694));
#550=CARTESIAN_POINT('',(2.12351382196537,3.38874081639576,2.70682191662742));
#551=CARTESIAN_POINT('',(1.95611524047601,3.49495429962424,1.8797565190712));
#552=CARTESIAN_POINT('',(1.50035284841865,3.72494322183393,1.20493840065441));
#553=CARTESIAN_POINT('',(0.828228446918718,3.9393388928085,0.747198402788126));
#554=CARTESIAN_POINT('',(-0.000665300282486113,4.03022698326137,0.576111717058826));
#555=CARTESIAN_POINT('',(-0.825567245788774,3.93975317414601,0.746354728976569));
#556=CARTESIAN_POINT('',(0.,4.,0.633));
#557=CARTESIAN_POINT('',(0.,0.,216.141027526412));
#558=CARTESIAN_POINT('',(-3.99999999999998,0.,216.141027526412));
#559=CARTESIAN_POINT('',(0.,0.,-4.2));
#560=CARTESIAN_POINT('',(0.,0.,7.42726693804707));
#561=CARTESIAN_POINT('',(-13.,0.,7.42726693804707));
#562=CARTESIAN_POINT('',(-4.02295572731272,12.2804960970438,1.01591562143536));
#563=CARTESIAN_POINT('',(-3.07500633198767,12.5472663667633,-0.389758159162128));
#564=CARTESIAN_POINT('',(-1.66648881734298,12.8118035419113,-1.32976249257788));
#565=CARTESIAN_POINT('',(0.0125609170494259,12.9211468235416,-1.66253506783934));
#566=CARTESIAN_POINT('',(1.68998911590075,12.8086966566593,-1.31999060500587));
#567=CARTESIAN_POINT('',(3.09189941335667,12.5430591549793,-0.372248551890035));
#568=CARTESIAN_POINT('',(4.03053781820609,12.2780987060078,1.03484369523119));
#569=CARTESIAN_POINT('',(4.36299933433242,12.1803863030213,2.7183119007517));
#570=CARTESIAN_POINT('',(4.01725643654117,12.3285155804018,4.39500458258944));
#571=CARTESIAN_POINT('',(3.07239242088798,12.629898459314,5.79067163564046));
#572=CARTESIAN_POINT('',(1.67001558973834,12.9157727025942,6.72774948711096));
#573=CARTESIAN_POINT('',(-0.00797450881038595,13.033533324692,7.06303080118451));
#574=CARTESIAN_POINT('',(-1.69077348536975,12.9131330210367,6.72007294246455));
#575=CARTESIAN_POINT('',(-3.09075674578945,12.6249436940101,5.77251047399284));
#576=CARTESIAN_POINT('',(-4.02658643713678,12.3249579624252,4.37180967874194));
#577=CARTESIAN_POINT('',(-4.36261135820774,12.1802214061545,2.6967810952251));
#578=CARTESIAN_POINT('',(-4.02295572731272,12.2804960970438,1.01591562143536));
#579=CARTESIAN_POINT('',(-3.07500633198767,12.5472663667633,-0.389758159162128));
#580=CARTESIAN_POINT('',(-1.66648881734298,12.8118035419113,-1.32976249257788));
#581=CARTESIAN_POINT('',(-2.99824497876773,12.5468941843347,-0.312146584631839));
#582=CARTESIAN_POINT('',(0.,0.,-4.2));
#583=CARTESIAN_POINT('',(-12.85,0.,-4.2));
#584=CARTESIAN_POINT('',(0.,0.,-4.2));
#585=CARTESIAN_POINT('',(0.,0.,216.));
#586=CARTESIAN_POINT('',(-9.49999999999999,0.,216.));
#587=CARTESIAN_POINT('',(0.,0.,214.507007724753));
#588=CARTESIAN_POINT('',(-9.5,0.,214.507007724753));
#589=CARTESIAN_POINT('',(0.,9.49999999999999,216.));
#590=CARTESIAN_POINT('',(0.,0.,216.));
#591=CARTESIAN_POINT('',(-4.67221359549995,0.,216.));
#592=CARTESIAN_POINT('',(0.,4.,-4.19999999999998));
#593=CARTESIAN_POINT('',(0.,0.,-4.2));
#594=CARTESIAN_POINT('',(-11.,0.,-4.2));
#595=CARTESIAN_POINT('',(0.,0.,7.42726693804707));
#596=CARTESIAN_POINT('',(0.,0.,7.65));
#597=CARTESIAN_POINT('',(-8.75,0.,7.65));
#598=CARTESIAN_POINT('',(0.,0.,2.7));
#599=CARTESIAN_POINT('',(0.,12.21,2.7));
#600=CARTESIAN_POINT('',(0.,12.21,-1.55));
#601=CARTESIAN_POINT('',(4.25,12.21,2.7));
#602=CARTESIAN_POINT('',(0.,12.21,2.7));
#603=CARTESIAN_POINT('',(0.,12.21,0.2));
#604=CARTESIAN_POINT('',(0.,12.21,2.7));
#605=CARTESIAN_POINT('',(0.,11.777,2.7));
#606=CARTESIAN_POINT('',(0.,11.777,0.633));
#607=CARTESIAN_POINT('',(0.,0.,2.7));
#608=CARTESIAN_POINT('',(0.,0.,216.2));
#609=CARTESIAN_POINT('',(0.,0.,216.2222222425));
#610=CARTESIAN_POINT('',(-4.47345199976711,0.,216.2222222425));
#611=CARTESIAN_POINT('',(0.,0.,216.25));
#612=CARTESIAN_POINT('',(0.,0.,0.));
#613=CARTESIAN_POINT('',(0.,0.,0.));
#614=CARTESIAN_POINT('',(-10.188,0.,0.));
#615=CARTESIAN_POINT('',(0.,0.,-4.2));
#616=CARTESIAN_POINT('',(0.,0.,-3.388));
#617=CARTESIAN_POINT('',(-10.188,0.,-3.388));
#618=CARTESIAN_POINT('',(0.,0.,-3.388));
#619=CARTESIAN_POINT('',(0.,0.,211.686171700922));
#620=CARTESIAN_POINT('',(0.,0.,213.045633381476));
#621=CARTESIAN_POINT('',(-12.633927392611,0.,213.045633381476));
#622=CARTESIAN_POINT('',(0.,0.,210.326710020367));
#623=CARTESIAN_POINT('',(-12.633927392611,0.,210.326710020367));
#624=CARTESIAN_POINT('',(0.,0.,214.507007724753));
#625=CARTESIAN_POINT('',(0.,0.,210.326710020367));
#626=CARTESIAN_POINT('',(0.,0.,208.556962164958));
#627=CARTESIAN_POINT('',(-8.83869086912965,0.,208.556962164958));
#628=CARTESIAN_POINT('',(0.,0.,208.103808271439));
#629=CARTESIAN_POINT('',(0.,0.,207.650654377921));
#630=CARTESIAN_POINT('',(-8.83869086912965,0.,207.650654377921));
#631=CARTESIAN_POINT('',(0.,0.,207.650654377921));
#632=CARTESIAN_POINT('',(0.,0.,205.880906522512));
#633=CARTESIAN_POINT('',(-12.633927392611,0.,205.880906522512));
#634=CARTESIAN_POINT('',(0.,0.,204.521444841957));
#635=CARTESIAN_POINT('',(0.,0.,204.521444841957));
#636=CARTESIAN_POINT('',(-13.5,0.,204.521444841957));
#637=CARTESIAN_POINT('',(0.,0.,-4.2));
#638=CARTESIAN_POINT('',(0.,0.,18.078555158043));
#639=CARTESIAN_POINT('',(-13.5,0.,18.078555158043));
#640=CARTESIAN_POINT('',(0.,0.,10.9138282990785));
#641=CARTESIAN_POINT('',(0.,0.,12.2732899796335));
#642=CARTESIAN_POINT('',(-12.633927392611,0.,12.2732899796335));
#643=CARTESIAN_POINT('',(0.,0.,9.55436661852349));
#644=CARTESIAN_POINT('',(-12.633927392611,0.,9.55436661852349));
#645=CARTESIAN_POINT('',(0.,0.,18.0785551580429));
#646=CARTESIAN_POINT('',(0.,0.,16.719093477488));
#647=CARTESIAN_POINT('',(-12.633927392611,0.,16.719093477488));
#648=CARTESIAN_POINT('',(0.,0.,16.719093477488));
#649=CARTESIAN_POINT('',(0.,0.,14.949345622079));
#650=CARTESIAN_POINT('',(-8.83869086912965,0.,14.949345622079));
#651=CARTESIAN_POINT('',(0.,0.,14.4961917285607));
#652=CARTESIAN_POINT('',(0.,0.,14.0430378350424));
#653=CARTESIAN_POINT('',(-8.83869086912965,0.,14.0430378350424));
#654=CARTESIAN_POINT('',(0.,0.,14.0430378350424));
#655=CARTESIAN_POINT('',(0.,0.,9.55436661852349));
#656=CARTESIAN_POINT('',(0.,0.,7.65000000000002));
#657=CARTESIAN_POINT('',(-8.55000000000002,0.,7.65000000000002));
#658=CARTESIAN_POINT('',(0.,8.55000000000002,7.65000000000001));
#659=MECHANICAL_DESIGN_GEOMETRIC_PRESENTATION_REPRESENTATION('',(#349),
#660);
#660=(
GEOMETRIC_REPRESENTATION_CONTEXT(3)
GLOBAL_UNCERTAINTY_ASSIGNED_CONTEXT((#661))
GLOBAL_UNIT_ASSIGNED_CONTEXT((#664,#663,#662))
REPRESENTATION_CONTEXT('553415 DADB-S1-20-S201-250---(207.30)',
'TOP_LEVEL_ASSEMBLY_PART')
);
#661=UNCERTAINTY_MEASURE_WITH_UNIT(LENGTH_MEASURE(0.005),#664,
'DISTANCE_ACCURACY_VALUE','Maximum Tolerance applied to model');
#662=(
NAMED_UNIT(*)
SI_UNIT($,.STERADIAN.)
SOLID_ANGLE_UNIT()
);
#663=(
NAMED_UNIT(*)
PLANE_ANGLE_UNIT()
SI_UNIT($,.RADIAN.)
);
#664=(
LENGTH_UNIT()
NAMED_UNIT(*)
SI_UNIT(.MILLI.,.METRE.)
);
#665=PRODUCT_DEFINITION_SHAPE('','',#666);
#666=PRODUCT_DEFINITION('','',#668,#667);
#667=PRODUCT_DEFINITION_CONTEXT('',#674,'design');
#668=PRODUCT_DEFINITION_FORMATION_WITH_SPECIFIED_SOURCE('','',#670,
 .NOT_KNOWN.);
#669=PRODUCT_RELATED_PRODUCT_CATEGORY('','',(#670));
#670=PRODUCT('553415 DADB-S1-20-S201-250---(207.30)',
'553415 DADB-S1-20-S201-250---(207.30)',
'553415 DADB-S1-20-S201-250---(207.30)',(#672));
#671=PRODUCT_CATEGORY('','');
#672=PRODUCT_CONTEXT('',#674,'mechanical');
#673=APPLICATION_PROTOCOL_DEFINITION('international standard',
'automotive_design',2010,#674);
#674=APPLICATION_CONTEXT(
'core data for automotive mechanical design processes');
ENDSEC;
END-ISO-10303-21;
