ISO-10303-21;
HEADER;
/* Generated by software containing ST-Developer
 * from STEP Tools, Inc. (www.steptools.com) 
 */
/* OPTION: using custom renumber hook */

FILE_DESCRIPTION(
/* description */ ('STEP AP214'),
/* implementation_level */ '2;1');

FILE_NAME(
/* name */ '553433_DADB-S1-25-S301-350',
/* time_stamp */ '2024-08-12T14:49:46+02:00',
/* author */ ('License CC BY-ND 4.0'),
/* organization */ ('CADENAS'),
/* preprocessor_version */ 'ST-DEVELOPER v19.3',
/* originating_system */ 'PARTsolutions',
/* authorisation */ '  ');

FILE_SCHEMA (('AUTOMOTIVE_DESIGN {1 0 10303 214 3 1 1}'));
ENDSEC;

DATA;
#10=PROPERTY_DEFINITION_REPRESENTATION(#14,#12);
#11=PROPERTY_DEFINITION_REPRESENTATION(#15,#13);
#12=REPRESENTATION('',(#16),#653);
#13=REPRESENTATION('',(#17),#653);
#14=PROPERTY_DEFINITION('pmi validation property','',#658);
#15=PROPERTY_DEFINITION('pmi validation property','',#658);
#16=VALUE_REPRESENTATION_ITEM('number of annotations',COUNT_MEASURE(0.));
#17=VALUE_REPRESENTATION_ITEM('number of views',COUNT_MEASURE(0.));
#18=SHAPE_REPRESENTATION_RELATIONSHIP('','',#359,#19);
#19=ADVANCED_BREP_SHAPE_REPRESENTATION('',(#357),#653);
#20=TOROIDAL_SURFACE('',#383,5.67221359549994,0.199999999999978);
#21=TOROIDAL_SURFACE('',#385,5.22500000000003,0.249999999999982);
#22=TOROIDAL_SURFACE('',#391,12.0000000000001,1.49999999999994);
#23=TOROIDAL_SURFACE('',#397,9.04999999999996,0.500000000000011);
#24=TOROIDAL_SURFACE('',#401,12.,1.50000000000004);
#25=TOROIDAL_SURFACE('',#405,12.,1.5);
#26=TOROIDAL_SURFACE('',#408,12.,1.49999999999999);
#27=TOROIDAL_SURFACE('',#412,9.05,0.500000000000001);
#28=PLANE('',#370);
#29=PLANE('',#372);
#30=PLANE('',#378);
#31=PLANE('',#386);
#32=PLANE('',#417);
#33=CONICAL_SURFACE('',#364,12.85,0.0128999944882993);
#34=CONICAL_SURFACE('',#374,13.,1.51843644923507);
#35=CONICAL_SURFACE('',#380,2.5,0.785398163397449);
#36=CONICAL_SURFACE('',#390,10.188,0.785398163397447);
#37=CONICAL_SURFACE('',#394,9.5,1.1344640137963);
#38=CONICAL_SURFACE('',#395,12.633927392611,1.13446401379628);
#39=CONICAL_SURFACE('',#399,8.83869086912963,1.13446401379634);
#40=CONICAL_SURFACE('',#410,12.633927392611,1.13446401379632);
#41=CONICAL_SURFACE('',#414,8.83869086912965,1.13446401379632);
#42=CONICAL_SURFACE('',#415,12.633927392611,1.13446401379632);
#43=B_SPLINE_CURVE_WITH_KNOTS('',3,(#538,#539,#540,#541,#542,#543,#544,
#545,#546,#547,#548),.UNSPECIFIED.,.T.,.F.,(1,1,1,1,1,1,1,1,1,1,1,1,1,1,
1),(-0.00490053360487989,-0.00326702240325326,-0.00163351120162663,0.,0.00163351120162663,
0.00326702240325326,0.00490053360487989,0.00653404480650652,0.00816755600813315,
0.00980106720975978,0.0114345784113864,0.013068089613013,0.0147016008146397,
0.0163351120162663,0.0179686232178929),.UNSPECIFIED.);
#44=B_SPLINE_CURVE_WITH_KNOTS('',3,(#555,#556,#557,#558,#559,#560,#561,
#562,#563,#564,#565,#566,#567,#568,#569,#570,#571,#572,#573),
 .UNSPECIFIED.,.T.,.F.,(1,1,1,1,1,1,1,1,1,1,1,1,1,1,1,1,1,1,1,1,1,1,1),
(-0.00501840268270066,-0.00334560178846711,-0.00167280089423355,0.,0.00167280089423355,
0.00334560178846711,0.00501840268270066,0.00669120357693422,0.00836400447116777,
0.0100368053654013,0.0117096062596349,0.0133824071538684,0.015055208048102,
0.0167280089423355,0.0184008098365691,0.0200736107308026,0.0217464116250362,
0.0234192125192698,0.0250920134135033,0.0267648143077369,0.0284376152019704,
0.030110416096204,0.0317832169904375),.UNSPECIFIED.);
#45=ORIENTED_EDGE('',*,*,#105,.T.);
#46=ORIENTED_EDGE('',*,*,#106,.T.);
#47=ORIENTED_EDGE('',*,*,#107,.F.);
#48=ORIENTED_EDGE('',*,*,#108,.T.);
#49=ORIENTED_EDGE('',*,*,#109,.T.);
#50=ORIENTED_EDGE('',*,*,#110,.F.);
#51=ORIENTED_EDGE('',*,*,#111,.T.);
#52=ORIENTED_EDGE('',*,*,#112,.F.);
#53=ORIENTED_EDGE('',*,*,#113,.T.);
#54=ORIENTED_EDGE('',*,*,#111,.F.);
#55=ORIENTED_EDGE('',*,*,#110,.T.);
#56=ORIENTED_EDGE('',*,*,#114,.F.);
#57=ORIENTED_EDGE('',*,*,#115,.T.);
#58=ORIENTED_EDGE('',*,*,#108,.F.);
#59=ORIENTED_EDGE('',*,*,#116,.T.);
#60=ORIENTED_EDGE('',*,*,#109,.F.);
#61=ORIENTED_EDGE('',*,*,#117,.T.);
#62=ORIENTED_EDGE('',*,*,#116,.F.);
#63=ORIENTED_EDGE('',*,*,#118,.T.);
#64=ORIENTED_EDGE('',*,*,#117,.F.);
#65=ORIENTED_EDGE('',*,*,#106,.F.);
#66=ORIENTED_EDGE('',*,*,#118,.F.);
#67=ORIENTED_EDGE('',*,*,#113,.F.);
#68=ORIENTED_EDGE('',*,*,#119,.T.);
#69=ORIENTED_EDGE('',*,*,#107,.T.);
#70=ORIENTED_EDGE('',*,*,#119,.F.);
#71=ORIENTED_EDGE('',*,*,#120,.T.);
#72=ORIENTED_EDGE('',*,*,#105,.F.);
#73=ORIENTED_EDGE('',*,*,#121,.T.);
#74=ORIENTED_EDGE('',*,*,#120,.F.);
#75=ORIENTED_EDGE('',*,*,#114,.T.);
#76=ORIENTED_EDGE('',*,*,#121,.F.);
#77=ORIENTED_EDGE('',*,*,#122,.T.);
#78=ORIENTED_EDGE('',*,*,#123,.F.);
#79=ORIENTED_EDGE('',*,*,#122,.F.);
#80=ORIENTED_EDGE('',*,*,#112,.T.);
#81=ORIENTED_EDGE('',*,*,#124,.F.);
#82=ORIENTED_EDGE('',*,*,#123,.T.);
#83=ORIENTED_EDGE('',*,*,#125,.F.);
#84=ORIENTED_EDGE('',*,*,#124,.T.);
#85=ORIENTED_EDGE('',*,*,#126,.F.);
#86=ORIENTED_EDGE('',*,*,#125,.T.);
#87=ORIENTED_EDGE('',*,*,#126,.T.);
#88=ORIENTED_EDGE('',*,*,#127,.F.);
#89=ORIENTED_EDGE('',*,*,#127,.T.);
#90=ORIENTED_EDGE('',*,*,#128,.F.);
#91=ORIENTED_EDGE('',*,*,#129,.T.);
#92=ORIENTED_EDGE('',*,*,#130,.F.);
#93=ORIENTED_EDGE('',*,*,#128,.T.);
#94=ORIENTED_EDGE('',*,*,#131,.F.);
#95=ORIENTED_EDGE('',*,*,#132,.F.);
#96=ORIENTED_EDGE('',*,*,#131,.T.);
#97=ORIENTED_EDGE('',*,*,#133,.F.);
#98=ORIENTED_EDGE('',*,*,#132,.T.);
#99=ORIENTED_EDGE('',*,*,#129,.F.);
#100=ORIENTED_EDGE('',*,*,#133,.T.);
#101=ORIENTED_EDGE('',*,*,#134,.F.);
#102=ORIENTED_EDGE('',*,*,#130,.T.);
#103=ORIENTED_EDGE('',*,*,#115,.F.);
#104=ORIENTED_EDGE('',*,*,#134,.T.);
#105=EDGE_CURVE('',#135,#135,#165,.T.);
#106=EDGE_CURVE('',#136,#136,#43,.T.);
#107=EDGE_CURVE('',#137,#137,#166,.T.);
#108=EDGE_CURVE('',#138,#138,#167,.T.);
#109=EDGE_CURVE('',#139,#139,#44,.T.);
#110=EDGE_CURVE('',#140,#140,#168,.T.);
#111=EDGE_CURVE('',#141,#141,#169,.T.);
#112=EDGE_CURVE('',#142,#142,#170,.T.);
#113=EDGE_CURVE('',#143,#143,#171,.T.);
#114=EDGE_CURVE('',#144,#144,#172,.T.);
#115=EDGE_CURVE('',#145,#145,#173,.T.);
#116=EDGE_CURVE('',#146,#146,#174,.T.);
#117=EDGE_CURVE('',#147,#147,#175,.T.);
#118=EDGE_CURVE('',#148,#148,#176,.T.);
#119=EDGE_CURVE('',#149,#149,#177,.T.);
#120=EDGE_CURVE('',#150,#150,#178,.T.);
#121=EDGE_CURVE('',#151,#151,#179,.T.);
#122=EDGE_CURVE('',#152,#152,#180,.T.);
#123=EDGE_CURVE('',#153,#153,#181,.T.);
#124=EDGE_CURVE('',#154,#154,#182,.T.);
#125=EDGE_CURVE('',#155,#155,#183,.T.);
#126=EDGE_CURVE('',#156,#156,#184,.T.);
#127=EDGE_CURVE('',#157,#157,#185,.T.);
#128=EDGE_CURVE('',#158,#158,#186,.T.);
#129=EDGE_CURVE('',#159,#159,#187,.T.);
#130=EDGE_CURVE('',#160,#160,#188,.T.);
#131=EDGE_CURVE('',#161,#161,#189,.T.);
#132=EDGE_CURVE('',#162,#162,#190,.T.);
#133=EDGE_CURVE('',#163,#163,#191,.T.);
#134=EDGE_CURVE('',#164,#164,#192,.T.);
#135=VERTEX_POINT('',#537);
#136=VERTEX_POINT('',#549);
#137=VERTEX_POINT('',#551);
#138=VERTEX_POINT('',#554);
#139=VERTEX_POINT('',#574);
#140=VERTEX_POINT('',#576);
#141=VERTEX_POINT('',#579);
#142=VERTEX_POINT('',#581);
#143=VERTEX_POINT('',#584);
#144=VERTEX_POINT('',#587);
#145=VERTEX_POINT('',#590);
#146=VERTEX_POINT('',#593);
#147=VERTEX_POINT('',#596);
#148=VERTEX_POINT('',#599);
#149=VERTEX_POINT('',#603);
#150=VERTEX_POINT('',#607);
#151=VERTEX_POINT('',#610);
#152=VERTEX_POINT('',#614);
#153=VERTEX_POINT('',#616);
#154=VERTEX_POINT('',#620);
#155=VERTEX_POINT('',#623);
#156=VERTEX_POINT('',#626);
#157=VERTEX_POINT('',#629);
#158=VERTEX_POINT('',#632);
#159=VERTEX_POINT('',#635);
#160=VERTEX_POINT('',#637);
#161=VERTEX_POINT('',#640);
#162=VERTEX_POINT('',#643);
#163=VERTEX_POINT('',#646);
#164=VERTEX_POINT('',#650);
#165=CIRCLE('',#362,5.);
#166=CIRCLE('',#363,5.00000000000005);
#167=CIRCLE('',#365,13.);
#168=CIRCLE('',#366,12.85);
#169=CIRCLE('',#368,9.49999999999999);
#170=CIRCLE('',#369,9.5);
#171=CIRCLE('',#371,5.67221359549995);
#172=CIRCLE('',#373,11.);
#173=CIRCLE('',#375,8.75);
#174=CIRCLE('',#377,4.25);
#175=CIRCLE('',#379,2.5);
#176=CIRCLE('',#381,2.067);
#177=CIRCLE('',#384,5.47345200137185);
#178=CIRCLE('',#387,10.188);
#179=CIRCLE('',#389,10.188);
#180=CIRCLE('',#392,12.633927392611);
#181=CIRCLE('',#393,12.633927392611);
#182=CIRCLE('',#396,8.83869086912965);
#183=CIRCLE('',#398,8.83869086912963);
#184=CIRCLE('',#400,12.6339273926111);
#185=CIRCLE('',#402,13.5);
#186=CIRCLE('',#404,13.5);
#187=CIRCLE('',#406,12.633927392611);
#188=CIRCLE('',#407,12.633927392611);
#189=CIRCLE('',#409,12.633927392611);
#190=CIRCLE('',#411,8.83869086912965);
#191=CIRCLE('',#413,8.83869086912965);
#192=CIRCLE('',#416,8.54999999999997);
#193=EDGE_LOOP('',(#45));
#194=EDGE_LOOP('',(#46));
#195=EDGE_LOOP('',(#47));
#196=EDGE_LOOP('',(#48));
#197=EDGE_LOOP('',(#49));
#198=EDGE_LOOP('',(#50));
#199=EDGE_LOOP('',(#51));
#200=EDGE_LOOP('',(#52));
#201=EDGE_LOOP('',(#53));
#202=EDGE_LOOP('',(#54));
#203=EDGE_LOOP('',(#55));
#204=EDGE_LOOP('',(#56));
#205=EDGE_LOOP('',(#57));
#206=EDGE_LOOP('',(#58));
#207=EDGE_LOOP('',(#59));
#208=EDGE_LOOP('',(#60));
#209=EDGE_LOOP('',(#61));
#210=EDGE_LOOP('',(#62));
#211=EDGE_LOOP('',(#63));
#212=EDGE_LOOP('',(#64));
#213=EDGE_LOOP('',(#65));
#214=EDGE_LOOP('',(#66));
#215=EDGE_LOOP('',(#67));
#216=EDGE_LOOP('',(#68));
#217=EDGE_LOOP('',(#69));
#218=EDGE_LOOP('',(#70));
#219=EDGE_LOOP('',(#71));
#220=EDGE_LOOP('',(#72));
#221=EDGE_LOOP('',(#73));
#222=EDGE_LOOP('',(#74));
#223=EDGE_LOOP('',(#75));
#224=EDGE_LOOP('',(#76));
#225=EDGE_LOOP('',(#77));
#226=EDGE_LOOP('',(#78));
#227=EDGE_LOOP('',(#79));
#228=EDGE_LOOP('',(#80));
#229=EDGE_LOOP('',(#81));
#230=EDGE_LOOP('',(#82));
#231=EDGE_LOOP('',(#83));
#232=EDGE_LOOP('',(#84));
#233=EDGE_LOOP('',(#85));
#234=EDGE_LOOP('',(#86));
#235=EDGE_LOOP('',(#87));
#236=EDGE_LOOP('',(#88));
#237=EDGE_LOOP('',(#89));
#238=EDGE_LOOP('',(#90));
#239=EDGE_LOOP('',(#91));
#240=EDGE_LOOP('',(#92));
#241=EDGE_LOOP('',(#93));
#242=EDGE_LOOP('',(#94));
#243=EDGE_LOOP('',(#95));
#244=EDGE_LOOP('',(#96));
#245=EDGE_LOOP('',(#97));
#246=EDGE_LOOP('',(#98));
#247=EDGE_LOOP('',(#99));
#248=EDGE_LOOP('',(#100));
#249=EDGE_LOOP('',(#101));
#250=EDGE_LOOP('',(#102));
#251=EDGE_LOOP('',(#103));
#252=EDGE_LOOP('',(#104));
#253=FACE_BOUND('',#193,.T.);
#254=FACE_BOUND('',#194,.T.);
#255=FACE_BOUND('',#195,.T.);
#256=FACE_BOUND('',#196,.T.);
#257=FACE_BOUND('',#197,.T.);
#258=FACE_BOUND('',#198,.T.);
#259=FACE_BOUND('',#199,.T.);
#260=FACE_BOUND('',#200,.T.);
#261=FACE_BOUND('',#201,.T.);
#262=FACE_BOUND('',#202,.T.);
#263=FACE_BOUND('',#203,.T.);
#264=FACE_BOUND('',#204,.T.);
#265=FACE_BOUND('',#205,.T.);
#266=FACE_BOUND('',#206,.T.);
#267=FACE_BOUND('',#207,.T.);
#268=FACE_BOUND('',#208,.T.);
#269=FACE_BOUND('',#209,.T.);
#270=FACE_BOUND('',#210,.T.);
#271=FACE_BOUND('',#211,.T.);
#272=FACE_BOUND('',#212,.T.);
#273=FACE_BOUND('',#213,.T.);
#274=FACE_BOUND('',#214,.T.);
#275=FACE_BOUND('',#215,.T.);
#276=FACE_BOUND('',#216,.T.);
#277=FACE_BOUND('',#217,.T.);
#278=FACE_BOUND('',#218,.T.);
#279=FACE_BOUND('',#219,.T.);
#280=FACE_BOUND('',#220,.T.);
#281=FACE_BOUND('',#221,.T.);
#282=FACE_BOUND('',#222,.T.);
#283=FACE_BOUND('',#223,.T.);
#284=FACE_BOUND('',#224,.T.);
#285=FACE_BOUND('',#225,.T.);
#286=FACE_BOUND('',#226,.T.);
#287=FACE_BOUND('',#227,.T.);
#288=FACE_BOUND('',#228,.T.);
#289=FACE_BOUND('',#229,.T.);
#290=FACE_BOUND('',#230,.T.);
#291=FACE_BOUND('',#231,.T.);
#292=FACE_BOUND('',#232,.T.);
#293=FACE_BOUND('',#233,.T.);
#294=FACE_BOUND('',#234,.T.);
#295=FACE_BOUND('',#235,.T.);
#296=FACE_BOUND('',#236,.T.);
#297=FACE_BOUND('',#237,.T.);
#298=FACE_BOUND('',#238,.T.);
#299=FACE_BOUND('',#239,.T.);
#300=FACE_BOUND('',#240,.T.);
#301=FACE_BOUND('',#241,.T.);
#302=FACE_BOUND('',#242,.T.);
#303=FACE_BOUND('',#243,.T.);
#304=FACE_BOUND('',#244,.T.);
#305=FACE_BOUND('',#245,.T.);
#306=FACE_BOUND('',#246,.T.);
#307=FACE_BOUND('',#247,.T.);
#308=FACE_BOUND('',#248,.T.);
#309=FACE_BOUND('',#249,.T.);
#310=FACE_BOUND('',#250,.T.);
#311=FACE_BOUND('',#251,.T.);
#312=FACE_BOUND('',#252,.T.);
#313=CYLINDRICAL_SURFACE('',#361,5.);
#314=CYLINDRICAL_SURFACE('',#367,9.49999999999999);
#315=CYLINDRICAL_SURFACE('',#376,4.25);
#316=CYLINDRICAL_SURFACE('',#382,2.067);
#317=CYLINDRICAL_SURFACE('',#388,10.188);
#318=CYLINDRICAL_SURFACE('',#403,13.5);
#319=ADVANCED_FACE('',(#253,#254,#255),#313,.F.);
#320=ADVANCED_FACE('',(#256,#257,#258),#33,.T.);
#321=ADVANCED_FACE('',(#259,#260),#314,.T.);
#322=ADVANCED_FACE('',(#261,#262),#28,.T.);
#323=ADVANCED_FACE('',(#263,#264),#29,.T.);
#324=ADVANCED_FACE('',(#265,#266),#34,.T.);
#325=ADVANCED_FACE('',(#267,#268),#315,.F.);
#326=ADVANCED_FACE('',(#269,#270),#30,.T.);
#327=ADVANCED_FACE('',(#271,#272),#35,.F.);
#328=ADVANCED_FACE('',(#273,#274),#316,.F.);
#329=ADVANCED_FACE('',(#275,#276),#20,.F.);
#330=ADVANCED_FACE('',(#277,#278),#21,.T.);
#331=ADVANCED_FACE('',(#279,#280),#31,.T.);
#332=ADVANCED_FACE('',(#281,#282),#317,.F.);
#333=ADVANCED_FACE('',(#283,#284),#36,.F.);
#334=ADVANCED_FACE('',(#285,#286),#22,.T.);
#335=ADVANCED_FACE('',(#287,#288),#37,.T.);
#336=ADVANCED_FACE('',(#289,#290),#38,.T.);
#337=ADVANCED_FACE('',(#291,#292),#23,.F.);
#338=ADVANCED_FACE('',(#293,#294),#39,.T.);
#339=ADVANCED_FACE('',(#295,#296),#24,.T.);
#340=ADVANCED_FACE('',(#297,#298),#318,.T.);
#341=ADVANCED_FACE('',(#299,#300),#25,.T.);
#342=ADVANCED_FACE('',(#301,#302),#26,.T.);
#343=ADVANCED_FACE('',(#303,#304),#40,.T.);
#344=ADVANCED_FACE('',(#305,#306),#27,.F.);
#345=ADVANCED_FACE('',(#307,#308),#41,.T.);
#346=ADVANCED_FACE('',(#309,#310),#42,.T.);
#347=ADVANCED_FACE('',(#311,#312),#32,.F.);
#348=CLOSED_SHELL('',(#319,#320,#321,#322,#323,#324,#325,#326,#327,#328,
#329,#330,#331,#332,#333,#334,#335,#336,#337,#338,#339,#340,#341,#342,#343,
#344,#345,#346,#347));
#349=STYLED_ITEM('',(#350),#357);
#350=PRESENTATION_STYLE_ASSIGNMENT((#351));
#351=SURFACE_STYLE_USAGE(.BOTH.,#352);
#352=SURFACE_SIDE_STYLE('',(#353));
#353=SURFACE_STYLE_FILL_AREA(#354);
#354=FILL_AREA_STYLE('',(#355));
#355=FILL_AREA_STYLE_COLOUR('',#356);
#356=COLOUR_RGB('',0.310000002384186,0.310000002384186,0.310000002384186);
#357=MANIFOLD_SOLID_BREP('553433 DADB-S1-25-S301-350---(291.40)',#348);
#358=SHAPE_DEFINITION_REPRESENTATION(#658,#359);
#359=SHAPE_REPRESENTATION('553433 DADB-S1-25-S301-350---(291.40)',(#360),
#653);
#360=AXIS2_PLACEMENT_3D('',#534,#418,#419);
#361=AXIS2_PLACEMENT_3D('',#535,#420,#421);
#362=AXIS2_PLACEMENT_3D('',#536,#422,#423);
#363=AXIS2_PLACEMENT_3D('',#550,#424,#425);
#364=AXIS2_PLACEMENT_3D('',#552,#426,#427);
#365=AXIS2_PLACEMENT_3D('',#553,#428,#429);
#366=AXIS2_PLACEMENT_3D('',#575,#430,#431);
#367=AXIS2_PLACEMENT_3D('',#577,#432,#433);
#368=AXIS2_PLACEMENT_3D('',#578,#434,#435);
#369=AXIS2_PLACEMENT_3D('',#580,#436,#437);
#370=AXIS2_PLACEMENT_3D('',#582,#438,#439);
#371=AXIS2_PLACEMENT_3D('',#583,#440,#441);
#372=AXIS2_PLACEMENT_3D('',#585,#442,#443);
#373=AXIS2_PLACEMENT_3D('',#586,#444,#445);
#374=AXIS2_PLACEMENT_3D('',#588,#446,#447);
#375=AXIS2_PLACEMENT_3D('',#589,#448,#449);
#376=AXIS2_PLACEMENT_3D('',#591,#450,#451);
#377=AXIS2_PLACEMENT_3D('',#592,#452,#453);
#378=AXIS2_PLACEMENT_3D('',#594,#454,#455);
#379=AXIS2_PLACEMENT_3D('',#595,#456,#457);
#380=AXIS2_PLACEMENT_3D('',#597,#458,#459);
#381=AXIS2_PLACEMENT_3D('',#598,#460,#461);
#382=AXIS2_PLACEMENT_3D('',#600,#462,#463);
#383=AXIS2_PLACEMENT_3D('',#601,#464,#465);
#384=AXIS2_PLACEMENT_3D('',#602,#466,#467);
#385=AXIS2_PLACEMENT_3D('',#604,#468,#469);
#386=AXIS2_PLACEMENT_3D('',#605,#470,#471);
#387=AXIS2_PLACEMENT_3D('',#606,#472,#473);
#388=AXIS2_PLACEMENT_3D('',#608,#474,#475);
#389=AXIS2_PLACEMENT_3D('',#609,#476,#477);
#390=AXIS2_PLACEMENT_3D('',#611,#478,#479);
#391=AXIS2_PLACEMENT_3D('',#612,#480,#481);
#392=AXIS2_PLACEMENT_3D('',#613,#482,#483);
#393=AXIS2_PLACEMENT_3D('',#615,#484,#485);
#394=AXIS2_PLACEMENT_3D('',#617,#486,#487);
#395=AXIS2_PLACEMENT_3D('',#618,#488,#489);
#396=AXIS2_PLACEMENT_3D('',#619,#490,#491);
#397=AXIS2_PLACEMENT_3D('',#621,#492,#493);
#398=AXIS2_PLACEMENT_3D('',#622,#494,#495);
#399=AXIS2_PLACEMENT_3D('',#624,#496,#497);
#400=AXIS2_PLACEMENT_3D('',#625,#498,#499);
#401=AXIS2_PLACEMENT_3D('',#627,#500,#501);
#402=AXIS2_PLACEMENT_3D('',#628,#502,#503);
#403=AXIS2_PLACEMENT_3D('',#630,#504,#505);
#404=AXIS2_PLACEMENT_3D('',#631,#506,#507);
#405=AXIS2_PLACEMENT_3D('',#633,#508,#509);
#406=AXIS2_PLACEMENT_3D('',#634,#510,#511);
#407=AXIS2_PLACEMENT_3D('',#636,#512,#513);
#408=AXIS2_PLACEMENT_3D('',#638,#514,#515);
#409=AXIS2_PLACEMENT_3D('',#639,#516,#517);
#410=AXIS2_PLACEMENT_3D('',#641,#518,#519);
#411=AXIS2_PLACEMENT_3D('',#642,#520,#521);
#412=AXIS2_PLACEMENT_3D('',#644,#522,#523);
#413=AXIS2_PLACEMENT_3D('',#645,#524,#525);
#414=AXIS2_PLACEMENT_3D('',#647,#526,#527);
#415=AXIS2_PLACEMENT_3D('',#648,#528,#529);
#416=AXIS2_PLACEMENT_3D('',#649,#530,#531);
#417=AXIS2_PLACEMENT_3D('',#651,#532,#533);
#418=DIRECTION('',(0.,0.,1.));
#419=DIRECTION('',(1.,0.,0.));
#420=DIRECTION('',(0.,0.,-1.));
#421=DIRECTION('',(-1.,0.,0.));
#422=DIRECTION('',(0.,0.,-1.));
#423=DIRECTION('',(-1.,0.,0.));
#424=DIRECTION('',(0.,0.,-1.));
#425=DIRECTION('',(-1.,0.,0.));
#426=DIRECTION('',(0.,0.,1.));
#427=DIRECTION('',(1.,0.,0.));
#428=DIRECTION('',(0.,0.,-1.));
#429=DIRECTION('',(-1.,0.,0.));
#430=DIRECTION('',(0.,0.,-1.));
#431=DIRECTION('',(-1.,0.,0.));
#432=DIRECTION('',(0.,0.,-1.));
#433=DIRECTION('',(-1.,0.,0.));
#434=DIRECTION('',(0.,0.,-1.));
#435=DIRECTION('',(-1.,0.,0.));
#436=DIRECTION('',(0.,0.,-1.));
#437=DIRECTION('',(-1.,0.,0.));
#438=DIRECTION('',(0.,0.,1.));
#439=DIRECTION('',(1.,0.,0.));
#440=DIRECTION('',(0.,0.,-1.));
#441=DIRECTION('',(-1.,0.,0.));
#442=DIRECTION('',(0.,0.,-1.));
#443=DIRECTION('',(-1.,0.,0.));
#444=DIRECTION('',(0.,0.,-1.));
#445=DIRECTION('',(-1.,0.,0.));
#446=DIRECTION('',(0.,0.,-1.));
#447=DIRECTION('',(-1.,0.,0.));
#448=DIRECTION('',(0.,0.,-1.));
#449=DIRECTION('',(-1.,0.,0.));
#450=DIRECTION('',(0.,-1.,0.));
#451=DIRECTION('',(0.,0.,-1.));
#452=DIRECTION('',(0.,-1.,0.));
#453=DIRECTION('',(0.,0.,-1.));
#454=DIRECTION('',(0.,1.,0.));
#455=DIRECTION('',(0.,0.,1.));
#456=DIRECTION('',(0.,-1.,0.));
#457=DIRECTION('',(0.,0.,-1.));
#458=DIRECTION('',(0.,1.,0.));
#459=DIRECTION('',(0.,0.,1.));
#460=DIRECTION('',(0.,-1.,0.));
#461=DIRECTION('',(0.,0.,-1.));
#462=DIRECTION('',(0.,-1.,0.));
#463=DIRECTION('',(0.,0.,-1.));
#464=DIRECTION('',(0.,0.,-1.));
#465=DIRECTION('',(-1.,0.,0.));
#466=DIRECTION('',(0.,0.,-1.));
#467=DIRECTION('',(-1.,0.,0.));
#468=DIRECTION('',(0.,0.,-1.));
#469=DIRECTION('',(-1.,0.,0.));
#470=DIRECTION('',(0.,0.,-1.));
#471=DIRECTION('',(-1.,0.,0.));
#472=DIRECTION('',(0.,0.,-1.));
#473=DIRECTION('',(-1.,0.,0.));
#474=DIRECTION('',(0.,0.,-1.));
#475=DIRECTION('',(-1.,0.,0.));
#476=DIRECTION('',(0.,0.,-1.));
#477=DIRECTION('',(-1.,0.,0.));
#478=DIRECTION('',(0.,0.,-1.));
#479=DIRECTION('',(-1.,0.,0.));
#480=DIRECTION('',(0.,0.,-1.));
#481=DIRECTION('',(-1.,0.,0.));
#482=DIRECTION('',(0.,0.,-1.));
#483=DIRECTION('',(-1.,0.,0.));
#484=DIRECTION('',(0.,0.,-1.));
#485=DIRECTION('',(-1.,0.,0.));
#486=DIRECTION('',(0.,0.,-1.));
#487=DIRECTION('',(-1.,0.,0.));
#488=DIRECTION('',(0.,0.,1.));
#489=DIRECTION('',(1.,0.,0.));
#490=DIRECTION('',(0.,0.,-1.));
#491=DIRECTION('',(-1.,0.,0.));
#492=DIRECTION('',(0.,0.,-1.));
#493=DIRECTION('',(-1.,0.,0.));
#494=DIRECTION('',(0.,0.,-1.));
#495=DIRECTION('',(-1.,0.,0.));
#496=DIRECTION('',(0.,0.,-1.));
#497=DIRECTION('',(-1.,0.,0.));
#498=DIRECTION('',(0.,0.,-1.));
#499=DIRECTION('',(-1.,0.,0.));
#500=DIRECTION('',(0.,0.,-1.));
#501=DIRECTION('',(-1.,0.,0.));
#502=DIRECTION('',(0.,0.,-1.));
#503=DIRECTION('',(-1.,0.,0.));
#504=DIRECTION('',(0.,0.,-1.));
#505=DIRECTION('',(-1.,0.,0.));
#506=DIRECTION('',(0.,0.,-1.));
#507=DIRECTION('',(-1.,0.,0.));
#508=DIRECTION('',(0.,0.,-1.));
#509=DIRECTION('',(-1.,0.,0.));
#510=DIRECTION('',(0.,0.,-1.));
#511=DIRECTION('',(-1.,0.,0.));
#512=DIRECTION('',(0.,0.,-1.));
#513=DIRECTION('',(-1.,0.,0.));
#514=DIRECTION('',(0.,0.,-1.));
#515=DIRECTION('',(-1.,0.,0.));
#516=DIRECTION('',(0.,0.,-1.));
#517=DIRECTION('',(-1.,0.,0.));
#518=DIRECTION('',(0.,0.,1.));
#519=DIRECTION('',(1.,0.,0.));
#520=DIRECTION('',(0.,0.,-1.));
#521=DIRECTION('',(-1.,0.,0.));
#522=DIRECTION('',(0.,0.,-1.));
#523=DIRECTION('',(-1.,0.,0.));
#524=DIRECTION('',(0.,0.,-1.));
#525=DIRECTION('',(-1.,0.,0.));
#526=DIRECTION('',(0.,0.,-1.));
#527=DIRECTION('',(-1.,0.,0.));
#528=DIRECTION('',(0.,0.,1.));
#529=DIRECTION('',(1.,0.,0.));
#530=DIRECTION('',(0.,0.,-1.));
#531=DIRECTION('',(-1.,0.,0.));
#532=DIRECTION('',(0.,0.,-1.));
#533=DIRECTION('',(-1.,0.,0.));
#534=CARTESIAN_POINT('',(0.,0.,0.));
#535=CARTESIAN_POINT('',(0.,0.,-4.2));
#536=CARTESIAN_POINT('',(0.,0.,0.));
#537=CARTESIAN_POINT('',(-5.,0.,0.));
#538=CARTESIAN_POINT('',(1.6218189347026,4.78617320339425,1.0817349801311));
#539=CARTESIAN_POINT('',(-0.000312671938011559,5.10684144454418,0.408453944387269));
#540=CARTESIAN_POINT('',(-1.62056824695055,4.78646101842903,1.08244924231983));
#541=CARTESIAN_POINT('',(-2.29034669764727,4.43591252787477,2.69560615727371));
#542=CARTESIAN_POINT('',(-1.62003518379222,4.78637910124889,4.31955211212725));
#543=CARTESIAN_POINT('',(-0.0039780860540386,5.10670022987148,4.99079370595362));
#544=CARTESIAN_POINT('',(1.62074826642321,4.7868161289724,4.31926375033311));
#545=CARTESIAN_POINT('',(2.28985710500446,4.43587461180879,2.7023557580142));
#546=CARTESIAN_POINT('',(1.6218189347026,4.78617320339425,1.0817349801311));
#547=CARTESIAN_POINT('',(-0.000312671938011559,5.10684144454418,0.408453944387269));
#548=CARTESIAN_POINT('',(-1.62056824695055,4.78646101842903,1.08244924231983));
#549=CARTESIAN_POINT('',(0.,5.,0.633));
#550=CARTESIAN_POINT('',(0.,0.,300.241027526411));
#551=CARTESIAN_POINT('',(-5.00000000000005,0.,300.241027526411));
#552=CARTESIAN_POINT('',(0.,0.,-4.2));
#553=CARTESIAN_POINT('',(0.,0.,7.42726693804707));
#554=CARTESIAN_POINT('',(-13.,0.,7.42726693804707));
#555=CARTESIAN_POINT('',(-4.02295572731272,12.2804960970438,1.01591562143536));
#556=CARTESIAN_POINT('',(-3.07500633198767,12.5472663667633,-0.389758159162129));
#557=CARTESIAN_POINT('',(-1.66648881734298,12.8118035419113,-1.32976249257788));
#558=CARTESIAN_POINT('',(0.0125609170494271,12.9211468235416,-1.66253506783934));
#559=CARTESIAN_POINT('',(1.68998911590075,12.8086966566593,-1.31999060500586));
#560=CARTESIAN_POINT('',(3.09189941335667,12.5430591549793,-0.372248551890032));
#561=CARTESIAN_POINT('',(4.03053781820609,12.2780987060077,1.0348436952312));
#562=CARTESIAN_POINT('',(4.36299933433242,12.1803863030213,2.71831190075171));
#563=CARTESIAN_POINT('',(4.01725643654117,12.3285155804018,4.39500458258943));
#564=CARTESIAN_POINT('',(3.07239242088798,12.629898459314,5.79067163564047));
#565=CARTESIAN_POINT('',(1.67001558973834,12.9157727025942,6.72774948711096));
#566=CARTESIAN_POINT('',(-0.00797450881039815,13.033533324692,7.06303080118451));
#567=CARTESIAN_POINT('',(-1.69077348536974,12.9131330210367,6.72007294246456));
#568=CARTESIAN_POINT('',(-3.09075674578947,12.6249436940101,5.77251047399283));
#569=CARTESIAN_POINT('',(-4.02658643713677,12.3249579624252,4.37180967874194));
#570=CARTESIAN_POINT('',(-4.36261135820774,12.1802214061545,2.69678109522511));
#571=CARTESIAN_POINT('',(-4.02295572731272,12.2804960970438,1.01591562143536));
#572=CARTESIAN_POINT('',(-3.07500633198767,12.5472663667633,-0.389758159162129));
#573=CARTESIAN_POINT('',(-1.66648881734298,12.8118035419113,-1.32976249257788));
#574=CARTESIAN_POINT('',(-2.99824497876773,12.5468941843347,-0.312146584631839));
#575=CARTESIAN_POINT('',(0.,0.,-4.2));
#576=CARTESIAN_POINT('',(-12.85,0.,-4.2));
#577=CARTESIAN_POINT('',(0.,0.,-4.2));
#578=CARTESIAN_POINT('',(0.,0.,300.1));
#579=CARTESIAN_POINT('',(-9.49999999999999,0.,300.1));
#580=CARTESIAN_POINT('',(0.,0.,298.607007724753));
#581=CARTESIAN_POINT('',(-9.5,0.,298.607007724753));
#582=CARTESIAN_POINT('',(0.,9.49999999999999,300.1));
#583=CARTESIAN_POINT('',(0.,0.,300.1));
#584=CARTESIAN_POINT('',(-5.67221359549995,0.,300.1));
#585=CARTESIAN_POINT('',(0.,5.,-4.19999999999996));
#586=CARTESIAN_POINT('',(0.,0.,-4.2));
#587=CARTESIAN_POINT('',(-11.,0.,-4.2));
#588=CARTESIAN_POINT('',(0.,0.,7.42726693804707));
#589=CARTESIAN_POINT('',(0.,0.,7.65));
#590=CARTESIAN_POINT('',(-8.75,0.,7.65));
#591=CARTESIAN_POINT('',(0.,0.,2.7));
#592=CARTESIAN_POINT('',(0.,12.21,2.7));
#593=CARTESIAN_POINT('',(0.,12.21,-1.55));
#594=CARTESIAN_POINT('',(4.25,12.21,2.7));
#595=CARTESIAN_POINT('',(0.,12.21,2.7));
#596=CARTESIAN_POINT('',(0.,12.21,0.2));
#597=CARTESIAN_POINT('',(0.,12.21,2.7));
#598=CARTESIAN_POINT('',(0.,11.777,2.7));
#599=CARTESIAN_POINT('',(0.,11.777,0.633));
#600=CARTESIAN_POINT('',(0.,0.,2.7));
#601=CARTESIAN_POINT('',(0.,0.,300.3));
#602=CARTESIAN_POINT('',(0.,0.,300.322222256853));
#603=CARTESIAN_POINT('',(-5.47345200137185,0.,300.322222256853));
#604=CARTESIAN_POINT('',(0.,0.,300.35));
#605=CARTESIAN_POINT('',(0.,0.,0.));
#606=CARTESIAN_POINT('',(0.,0.,0.));
#607=CARTESIAN_POINT('',(-10.188,0.,0.));
#608=CARTESIAN_POINT('',(0.,0.,-4.2));
#609=CARTESIAN_POINT('',(0.,0.,-3.388));
#610=CARTESIAN_POINT('',(-10.188,0.,-3.388));
#611=CARTESIAN_POINT('',(0.,0.,-3.388));
#612=CARTESIAN_POINT('',(0.,0.,295.786171700921));
#613=CARTESIAN_POINT('',(0.,0.,297.145633381476));
#614=CARTESIAN_POINT('',(-12.633927392611,0.,297.145633381476));
#615=CARTESIAN_POINT('',(0.,0.,294.426710020367));
#616=CARTESIAN_POINT('',(-12.633927392611,0.,294.426710020367));
#617=CARTESIAN_POINT('',(0.,0.,298.607007724753));
#618=CARTESIAN_POINT('',(0.,0.,294.426710020367));
#619=CARTESIAN_POINT('',(0.,0.,292.656962164958));
#620=CARTESIAN_POINT('',(-8.83869086912965,0.,292.656962164958));
#621=CARTESIAN_POINT('',(0.,0.,292.203808271439));
#622=CARTESIAN_POINT('',(0.,0.,291.750654377921));
#623=CARTESIAN_POINT('',(-8.83869086912963,0.,291.750654377921));
#624=CARTESIAN_POINT('',(0.,0.,291.750654377921));
#625=CARTESIAN_POINT('',(0.,0.,289.980906522512));
#626=CARTESIAN_POINT('',(-12.6339273926111,0.,289.980906522512));
#627=CARTESIAN_POINT('',(0.,0.,288.621444841957));
#628=CARTESIAN_POINT('',(0.,0.,288.621444841957));
#629=CARTESIAN_POINT('',(-13.5,0.,288.621444841957));
#630=CARTESIAN_POINT('',(0.,0.,-4.2));
#631=CARTESIAN_POINT('',(0.,0.,18.078555158043));
#632=CARTESIAN_POINT('',(-13.5,0.,18.078555158043));
#633=CARTESIAN_POINT('',(0.,0.,10.9138282990785));
#634=CARTESIAN_POINT('',(0.,0.,12.2732899796335));
#635=CARTESIAN_POINT('',(-12.633927392611,0.,12.2732899796335));
#636=CARTESIAN_POINT('',(0.,0.,9.55436661852349));
#637=CARTESIAN_POINT('',(-12.633927392611,0.,9.55436661852349));
#638=CARTESIAN_POINT('',(0.,0.,18.0785551580429));
#639=CARTESIAN_POINT('',(0.,0.,16.719093477488));
#640=CARTESIAN_POINT('',(-12.633927392611,0.,16.719093477488));
#641=CARTESIAN_POINT('',(0.,0.,16.719093477488));
#642=CARTESIAN_POINT('',(0.,0.,14.9493456220791));
#643=CARTESIAN_POINT('',(-8.83869086912965,0.,14.9493456220791));
#644=CARTESIAN_POINT('',(0.,0.,14.4961917285607));
#645=CARTESIAN_POINT('',(0.,0.,14.0430378350423));
#646=CARTESIAN_POINT('',(-8.83869086912965,0.,14.0430378350423));
#647=CARTESIAN_POINT('',(0.,0.,14.0430378350423));
#648=CARTESIAN_POINT('',(0.,0.,9.55436661852349));
#649=CARTESIAN_POINT('',(0.,0.,7.64999999999999));
#650=CARTESIAN_POINT('',(-8.54999999999997,0.,7.64999999999999));
#651=CARTESIAN_POINT('',(0.,8.54999999999997,7.64999999999998));
#652=MECHANICAL_DESIGN_GEOMETRIC_PRESENTATION_REPRESENTATION('',(#349),
#653);
#653=(
GEOMETRIC_REPRESENTATION_CONTEXT(3)
GLOBAL_UNCERTAINTY_ASSIGNED_CONTEXT((#654))
GLOBAL_UNIT_ASSIGNED_CONTEXT((#657,#656,#655))
REPRESENTATION_CONTEXT('553433 DADB-S1-25-S301-350---(291.40)',
'TOP_LEVEL_ASSEMBLY_PART')
);
#654=UNCERTAINTY_MEASURE_WITH_UNIT(LENGTH_MEASURE(0.005),#657,
'DISTANCE_ACCURACY_VALUE','Maximum Tolerance applied to model');
#655=(
NAMED_UNIT(*)
SI_UNIT($,.STERADIAN.)
SOLID_ANGLE_UNIT()
);
#656=(
NAMED_UNIT(*)
PLANE_ANGLE_UNIT()
SI_UNIT($,.RADIAN.)
);
#657=(
LENGTH_UNIT()
NAMED_UNIT(*)
SI_UNIT(.MILLI.,.METRE.)
);
#658=PRODUCT_DEFINITION_SHAPE('','',#659);
#659=PRODUCT_DEFINITION('','',#661,#660);
#660=PRODUCT_DEFINITION_CONTEXT('',#667,'design');
#661=PRODUCT_DEFINITION_FORMATION_WITH_SPECIFIED_SOURCE('','',#663,
 .NOT_KNOWN.);
#662=PRODUCT_RELATED_PRODUCT_CATEGORY('','',(#663));
#663=PRODUCT('553433 DADB-S1-25-S301-350---(291.40)',
'553433 DADB-S1-25-S301-350---(291.40)',
'553433 DADB-S1-25-S301-350---(291.40)',(#665));
#664=PRODUCT_CATEGORY('','');
#665=PRODUCT_CONTEXT('',#667,'mechanical');
#666=APPLICATION_PROTOCOL_DEFINITION('international standard',
'automotive_design',2010,#667);
#667=APPLICATION_CONTEXT(
'core data for automotive mechanical design processes');
ENDSEC;
END-ISO-10303-21;
