ISO-10303-21;
HEADER;
/* Generated by software containing ST-Developer
 * from STEP Tools, Inc. (www.steptools.com) 
 */
/* OPTION: using custom renumber hook */

FILE_DESCRIPTION(
/* description */ ('STEP AP214'),
/* implementation_level */ '2;1');

FILE_NAME(
/* name */ '553469_DADB-S1-40-S251-300',
/* time_stamp */ '2024-08-12T15:18:18+02:00',
/* author */ ('License CC BY-ND 4.0'),
/* organization */ ('CADENAS'),
/* preprocessor_version */ 'ST-DEVELOPER v19.3',
/* originating_system */ 'PARTsolutions',
/* authorisation */ '  ');

FILE_SCHEMA (('AUTOMOTIVE_DESIGN {1 0 10303 214 3 1 1}'));
ENDSEC;

DATA;
#10=PROPERTY_DEFINITION_REPRESENTATION(#14,#12);
#11=PROPERTY_DEFINITION_REPRESENTATION(#15,#13);
#12=REPRESENTATION('',(#16),#661);
#13=REPRESENTATION('',(#17),#661);
#14=PROPERTY_DEFINITION('pmi validation property','',#666);
#15=PROPERTY_DEFINITION('pmi validation property','',#666);
#16=VALUE_REPRESENTATION_ITEM('number of annotations',COUNT_MEASURE(0.));
#17=VALUE_REPRESENTATION_ITEM('number of views',COUNT_MEASURE(0.));
#18=SHAPE_REPRESENTATION_RELATIONSHIP('','',#359,#19);
#19=ADVANCED_BREP_SHAPE_REPRESENTATION('',(#357),#661);
#20=TOROIDAL_SURFACE('',#383,8.70236109069234,0.200000000000033);
#21=TOROIDAL_SURFACE('',#385,8.23000000000004,0.274999999999959);
#22=TOROIDAL_SURFACE('',#391,19.5000000000001,1.49999999999999);
#23=TOROIDAL_SURFACE('',#397,13.,0.49999999999996);
#24=TOROIDAL_SURFACE('',#401,19.4999999999999,1.50000000000006);
#25=TOROIDAL_SURFACE('',#405,19.5,1.5);
#26=TOROIDAL_SURFACE('',#408,19.5,1.49999999999999);
#27=TOROIDAL_SURFACE('',#412,13.,0.500000000000002);
#28=PLANE('',#370);
#29=PLANE('',#372);
#30=PLANE('',#378);
#31=PLANE('',#386);
#32=PLANE('',#417);
#33=CONICAL_SURFACE('',#364,21.75,0.0587722346858891);
#34=CONICAL_SURFACE('',#374,23.,1.51843644923507);
#35=CONICAL_SURFACE('',#380,4.865,0.785398163397449);
#36=CONICAL_SURFACE('',#390,18.188,0.785398163397447);
#37=CONICAL_SURFACE('',#394,14.7,1.13446401379633);
#38=CONICAL_SURFACE('',#395,20.1339273926111,1.13446401379631);
#39=CONICAL_SURFACE('',#399,12.7886908691297,1.13446401379631);
#40=CONICAL_SURFACE('',#410,20.1339273926111,1.13446401379631);
#41=CONICAL_SURFACE('',#414,12.7886908691296,1.13446401379631);
#42=CONICAL_SURFACE('',#415,20.1339273926111,1.13446401379631);
#43=B_SPLINE_CURVE_WITH_KNOTS('',3,(#538,#539,#540,#541,#542,#543,#544,
#545,#546,#547,#548,#549,#550,#551,#552,#553,#554,#555,#556),
 .UNSPECIFIED.,.T.,.F.,(1,1,1,1,1,1,1,1,1,1,1,1,1,1,1,1,1,1,1,1,1,1,1),
(-0.00511799215588681,-0.0034119947705912,-0.0017059973852956,0.,0.0017059973852956,
0.0034119947705912,0.00511799215588681,0.00682398954118241,0.00852998692647801,
0.0102359843117736,0.0119419816970692,0.0136479790823648,0.0153539764676604,
0.017059973852956,0.0187659712382516,0.0204719686235472,0.0221779660088428,
0.0238839633941384,0.025589960779434,0.0272959581647296,0.0290019555500252,
0.0307079529353208,0.0324139503206164),.UNSPECIFIED.);
#44=B_SPLINE_CURVE_WITH_KNOTS('',3,(#563,#564,#565,#566,#567,#568,#569,
#570,#571,#572,#573,#574,#575,#576,#577,#578,#579,#580,#581),
 .UNSPECIFIED.,.T.,.F.,(1,1,1,1,1,1,1,1,1,1,1,1,1,1,1,1,1,1,1,1,1,1,1),
(-0.00826544479889289,-0.00551029653259526,-0.00275514826629763,0.,0.00275514826629763,
0.00551029653259526,0.00826544479889289,0.0110205930651905,0.0137757413314881,
0.0165308895977858,0.0192860378640834,0.022041186130381,0.0247963343966787,
0.0275514826629763,0.0303066309292739,0.0330617791955716,0.0358169274618692,
0.0385720757281668,0.0413272239944644,0.0440823722607621,0.0468375205270597,
0.0495926687933573,0.052347817059655),.UNSPECIFIED.);
#45=ORIENTED_EDGE('',*,*,#105,.T.);
#46=ORIENTED_EDGE('',*,*,#106,.T.);
#47=ORIENTED_EDGE('',*,*,#107,.F.);
#48=ORIENTED_EDGE('',*,*,#108,.T.);
#49=ORIENTED_EDGE('',*,*,#109,.T.);
#50=ORIENTED_EDGE('',*,*,#110,.F.);
#51=ORIENTED_EDGE('',*,*,#111,.T.);
#52=ORIENTED_EDGE('',*,*,#112,.F.);
#53=ORIENTED_EDGE('',*,*,#113,.T.);
#54=ORIENTED_EDGE('',*,*,#111,.F.);
#55=ORIENTED_EDGE('',*,*,#110,.T.);
#56=ORIENTED_EDGE('',*,*,#114,.F.);
#57=ORIENTED_EDGE('',*,*,#115,.T.);
#58=ORIENTED_EDGE('',*,*,#108,.F.);
#59=ORIENTED_EDGE('',*,*,#116,.T.);
#60=ORIENTED_EDGE('',*,*,#109,.F.);
#61=ORIENTED_EDGE('',*,*,#117,.T.);
#62=ORIENTED_EDGE('',*,*,#116,.F.);
#63=ORIENTED_EDGE('',*,*,#118,.T.);
#64=ORIENTED_EDGE('',*,*,#117,.F.);
#65=ORIENTED_EDGE('',*,*,#106,.F.);
#66=ORIENTED_EDGE('',*,*,#118,.F.);
#67=ORIENTED_EDGE('',*,*,#113,.F.);
#68=ORIENTED_EDGE('',*,*,#119,.T.);
#69=ORIENTED_EDGE('',*,*,#107,.T.);
#70=ORIENTED_EDGE('',*,*,#119,.F.);
#71=ORIENTED_EDGE('',*,*,#120,.T.);
#72=ORIENTED_EDGE('',*,*,#105,.F.);
#73=ORIENTED_EDGE('',*,*,#121,.T.);
#74=ORIENTED_EDGE('',*,*,#120,.F.);
#75=ORIENTED_EDGE('',*,*,#114,.T.);
#76=ORIENTED_EDGE('',*,*,#121,.F.);
#77=ORIENTED_EDGE('',*,*,#122,.T.);
#78=ORIENTED_EDGE('',*,*,#123,.F.);
#79=ORIENTED_EDGE('',*,*,#122,.F.);
#80=ORIENTED_EDGE('',*,*,#112,.T.);
#81=ORIENTED_EDGE('',*,*,#124,.F.);
#82=ORIENTED_EDGE('',*,*,#123,.T.);
#83=ORIENTED_EDGE('',*,*,#125,.F.);
#84=ORIENTED_EDGE('',*,*,#124,.T.);
#85=ORIENTED_EDGE('',*,*,#126,.F.);
#86=ORIENTED_EDGE('',*,*,#125,.T.);
#87=ORIENTED_EDGE('',*,*,#126,.T.);
#88=ORIENTED_EDGE('',*,*,#127,.F.);
#89=ORIENTED_EDGE('',*,*,#127,.T.);
#90=ORIENTED_EDGE('',*,*,#128,.F.);
#91=ORIENTED_EDGE('',*,*,#129,.T.);
#92=ORIENTED_EDGE('',*,*,#130,.F.);
#93=ORIENTED_EDGE('',*,*,#128,.T.);
#94=ORIENTED_EDGE('',*,*,#131,.F.);
#95=ORIENTED_EDGE('',*,*,#132,.F.);
#96=ORIENTED_EDGE('',*,*,#131,.T.);
#97=ORIENTED_EDGE('',*,*,#133,.F.);
#98=ORIENTED_EDGE('',*,*,#132,.T.);
#99=ORIENTED_EDGE('',*,*,#129,.F.);
#100=ORIENTED_EDGE('',*,*,#133,.T.);
#101=ORIENTED_EDGE('',*,*,#134,.F.);
#102=ORIENTED_EDGE('',*,*,#130,.T.);
#103=ORIENTED_EDGE('',*,*,#115,.F.);
#104=ORIENTED_EDGE('',*,*,#134,.T.);
#105=EDGE_CURVE('',#135,#135,#165,.T.);
#106=EDGE_CURVE('',#136,#136,#43,.T.);
#107=EDGE_CURVE('',#137,#137,#166,.T.);
#108=EDGE_CURVE('',#138,#138,#167,.T.);
#109=EDGE_CURVE('',#139,#139,#44,.T.);
#110=EDGE_CURVE('',#140,#140,#168,.T.);
#111=EDGE_CURVE('',#141,#141,#169,.T.);
#112=EDGE_CURVE('',#142,#142,#170,.T.);
#113=EDGE_CURVE('',#143,#143,#171,.T.);
#114=EDGE_CURVE('',#144,#144,#172,.T.);
#115=EDGE_CURVE('',#145,#145,#173,.T.);
#116=EDGE_CURVE('',#146,#146,#174,.T.);
#117=EDGE_CURVE('',#147,#147,#175,.T.);
#118=EDGE_CURVE('',#148,#148,#176,.T.);
#119=EDGE_CURVE('',#149,#149,#177,.T.);
#120=EDGE_CURVE('',#150,#150,#178,.T.);
#121=EDGE_CURVE('',#151,#151,#179,.T.);
#122=EDGE_CURVE('',#152,#152,#180,.T.);
#123=EDGE_CURVE('',#153,#153,#181,.T.);
#124=EDGE_CURVE('',#154,#154,#182,.T.);
#125=EDGE_CURVE('',#155,#155,#183,.T.);
#126=EDGE_CURVE('',#156,#156,#184,.T.);
#127=EDGE_CURVE('',#157,#157,#185,.T.);
#128=EDGE_CURVE('',#158,#158,#186,.T.);
#129=EDGE_CURVE('',#159,#159,#187,.T.);
#130=EDGE_CURVE('',#160,#160,#188,.T.);
#131=EDGE_CURVE('',#161,#161,#189,.T.);
#132=EDGE_CURVE('',#162,#162,#190,.T.);
#133=EDGE_CURVE('',#163,#163,#191,.T.);
#134=EDGE_CURVE('',#164,#164,#192,.T.);
#135=VERTEX_POINT('',#537);
#136=VERTEX_POINT('',#557);
#137=VERTEX_POINT('',#559);
#138=VERTEX_POINT('',#562);
#139=VERTEX_POINT('',#582);
#140=VERTEX_POINT('',#584);
#141=VERTEX_POINT('',#587);
#142=VERTEX_POINT('',#589);
#143=VERTEX_POINT('',#592);
#144=VERTEX_POINT('',#595);
#145=VERTEX_POINT('',#598);
#146=VERTEX_POINT('',#601);
#147=VERTEX_POINT('',#604);
#148=VERTEX_POINT('',#607);
#149=VERTEX_POINT('',#611);
#150=VERTEX_POINT('',#615);
#151=VERTEX_POINT('',#618);
#152=VERTEX_POINT('',#622);
#153=VERTEX_POINT('',#624);
#154=VERTEX_POINT('',#628);
#155=VERTEX_POINT('',#631);
#156=VERTEX_POINT('',#634);
#157=VERTEX_POINT('',#637);
#158=VERTEX_POINT('',#640);
#159=VERTEX_POINT('',#643);
#160=VERTEX_POINT('',#645);
#161=VERTEX_POINT('',#648);
#162=VERTEX_POINT('',#651);
#163=VERTEX_POINT('',#654);
#164=VERTEX_POINT('',#658);
#165=CIRCLE('',#362,8.);
#166=CIRCLE('',#363,8.00000000000004);
#167=CIRCLE('',#365,23.);
#168=CIRCLE('',#366,21.75);
#169=CIRCLE('',#368,14.7);
#170=CIRCLE('',#369,14.7);
#171=CIRCLE('',#371,8.70236109069227);
#172=CIRCLE('',#373,19.);
#173=CIRCLE('',#375,14.3);
#174=CIRCLE('',#377,7.);
#175=CIRCLE('',#379,4.865);
#176=CIRCLE('',#381,4.283);
#177=CIRCLE('',#384,8.50347220720302);
#178=CIRCLE('',#387,18.188);
#179=CIRCLE('',#389,18.188);
#180=CIRCLE('',#392,20.1339273926111);
#181=CIRCLE('',#393,20.1339273926111);
#182=CIRCLE('',#396,12.7886908691296);
#183=CIRCLE('',#398,12.7886908691297);
#184=CIRCLE('',#400,20.133927392611);
#185=CIRCLE('',#402,21.);
#186=CIRCLE('',#404,21.);
#187=CIRCLE('',#406,20.1339273926111);
#188=CIRCLE('',#407,20.1339273926111);
#189=CIRCLE('',#409,20.1339273926111);
#190=CIRCLE('',#411,12.7886908691296);
#191=CIRCLE('',#413,12.7886908691296);
#192=CIRCLE('',#416,12.5);
#193=EDGE_LOOP('',(#45));
#194=EDGE_LOOP('',(#46));
#195=EDGE_LOOP('',(#47));
#196=EDGE_LOOP('',(#48));
#197=EDGE_LOOP('',(#49));
#198=EDGE_LOOP('',(#50));
#199=EDGE_LOOP('',(#51));
#200=EDGE_LOOP('',(#52));
#201=EDGE_LOOP('',(#53));
#202=EDGE_LOOP('',(#54));
#203=EDGE_LOOP('',(#55));
#204=EDGE_LOOP('',(#56));
#205=EDGE_LOOP('',(#57));
#206=EDGE_LOOP('',(#58));
#207=EDGE_LOOP('',(#59));
#208=EDGE_LOOP('',(#60));
#209=EDGE_LOOP('',(#61));
#210=EDGE_LOOP('',(#62));
#211=EDGE_LOOP('',(#63));
#212=EDGE_LOOP('',(#64));
#213=EDGE_LOOP('',(#65));
#214=EDGE_LOOP('',(#66));
#215=EDGE_LOOP('',(#67));
#216=EDGE_LOOP('',(#68));
#217=EDGE_LOOP('',(#69));
#218=EDGE_LOOP('',(#70));
#219=EDGE_LOOP('',(#71));
#220=EDGE_LOOP('',(#72));
#221=EDGE_LOOP('',(#73));
#222=EDGE_LOOP('',(#74));
#223=EDGE_LOOP('',(#75));
#224=EDGE_LOOP('',(#76));
#225=EDGE_LOOP('',(#77));
#226=EDGE_LOOP('',(#78));
#227=EDGE_LOOP('',(#79));
#228=EDGE_LOOP('',(#80));
#229=EDGE_LOOP('',(#81));
#230=EDGE_LOOP('',(#82));
#231=EDGE_LOOP('',(#83));
#232=EDGE_LOOP('',(#84));
#233=EDGE_LOOP('',(#85));
#234=EDGE_LOOP('',(#86));
#235=EDGE_LOOP('',(#87));
#236=EDGE_LOOP('',(#88));
#237=EDGE_LOOP('',(#89));
#238=EDGE_LOOP('',(#90));
#239=EDGE_LOOP('',(#91));
#240=EDGE_LOOP('',(#92));
#241=EDGE_LOOP('',(#93));
#242=EDGE_LOOP('',(#94));
#243=EDGE_LOOP('',(#95));
#244=EDGE_LOOP('',(#96));
#245=EDGE_LOOP('',(#97));
#246=EDGE_LOOP('',(#98));
#247=EDGE_LOOP('',(#99));
#248=EDGE_LOOP('',(#100));
#249=EDGE_LOOP('',(#101));
#250=EDGE_LOOP('',(#102));
#251=EDGE_LOOP('',(#103));
#252=EDGE_LOOP('',(#104));
#253=FACE_BOUND('',#193,.T.);
#254=FACE_BOUND('',#194,.T.);
#255=FACE_BOUND('',#195,.T.);
#256=FACE_BOUND('',#196,.T.);
#257=FACE_BOUND('',#197,.T.);
#258=FACE_BOUND('',#198,.T.);
#259=FACE_BOUND('',#199,.T.);
#260=FACE_BOUND('',#200,.T.);
#261=FACE_BOUND('',#201,.T.);
#262=FACE_BOUND('',#202,.T.);
#263=FACE_BOUND('',#203,.T.);
#264=FACE_BOUND('',#204,.T.);
#265=FACE_BOUND('',#205,.T.);
#266=FACE_BOUND('',#206,.T.);
#267=FACE_BOUND('',#207,.T.);
#268=FACE_BOUND('',#208,.T.);
#269=FACE_BOUND('',#209,.T.);
#270=FACE_BOUND('',#210,.T.);
#271=FACE_BOUND('',#211,.T.);
#272=FACE_BOUND('',#212,.T.);
#273=FACE_BOUND('',#213,.T.);
#274=FACE_BOUND('',#214,.T.);
#275=FACE_BOUND('',#215,.T.);
#276=FACE_BOUND('',#216,.T.);
#277=FACE_BOUND('',#217,.T.);
#278=FACE_BOUND('',#218,.T.);
#279=FACE_BOUND('',#219,.T.);
#280=FACE_BOUND('',#220,.T.);
#281=FACE_BOUND('',#221,.T.);
#282=FACE_BOUND('',#222,.T.);
#283=FACE_BOUND('',#223,.T.);
#284=FACE_BOUND('',#224,.T.);
#285=FACE_BOUND('',#225,.T.);
#286=FACE_BOUND('',#226,.T.);
#287=FACE_BOUND('',#227,.T.);
#288=FACE_BOUND('',#228,.T.);
#289=FACE_BOUND('',#229,.T.);
#290=FACE_BOUND('',#230,.T.);
#291=FACE_BOUND('',#231,.T.);
#292=FACE_BOUND('',#232,.T.);
#293=FACE_BOUND('',#233,.T.);
#294=FACE_BOUND('',#234,.T.);
#295=FACE_BOUND('',#235,.T.);
#296=FACE_BOUND('',#236,.T.);
#297=FACE_BOUND('',#237,.T.);
#298=FACE_BOUND('',#238,.T.);
#299=FACE_BOUND('',#239,.T.);
#300=FACE_BOUND('',#240,.T.);
#301=FACE_BOUND('',#241,.T.);
#302=FACE_BOUND('',#242,.T.);
#303=FACE_BOUND('',#243,.T.);
#304=FACE_BOUND('',#244,.T.);
#305=FACE_BOUND('',#245,.T.);
#306=FACE_BOUND('',#246,.T.);
#307=FACE_BOUND('',#247,.T.);
#308=FACE_BOUND('',#248,.T.);
#309=FACE_BOUND('',#249,.T.);
#310=FACE_BOUND('',#250,.T.);
#311=FACE_BOUND('',#251,.T.);
#312=FACE_BOUND('',#252,.T.);
#313=CYLINDRICAL_SURFACE('',#361,8.);
#314=CYLINDRICAL_SURFACE('',#367,14.7);
#315=CYLINDRICAL_SURFACE('',#376,7.);
#316=CYLINDRICAL_SURFACE('',#382,4.283);
#317=CYLINDRICAL_SURFACE('',#388,18.188);
#318=CYLINDRICAL_SURFACE('',#403,21.);
#319=ADVANCED_FACE('',(#253,#254,#255),#313,.F.);
#320=ADVANCED_FACE('',(#256,#257,#258),#33,.T.);
#321=ADVANCED_FACE('',(#259,#260),#314,.T.);
#322=ADVANCED_FACE('',(#261,#262),#28,.T.);
#323=ADVANCED_FACE('',(#263,#264),#29,.T.);
#324=ADVANCED_FACE('',(#265,#266),#34,.T.);
#325=ADVANCED_FACE('',(#267,#268),#315,.F.);
#326=ADVANCED_FACE('',(#269,#270),#30,.T.);
#327=ADVANCED_FACE('',(#271,#272),#35,.F.);
#328=ADVANCED_FACE('',(#273,#274),#316,.F.);
#329=ADVANCED_FACE('',(#275,#276),#20,.F.);
#330=ADVANCED_FACE('',(#277,#278),#21,.T.);
#331=ADVANCED_FACE('',(#279,#280),#31,.T.);
#332=ADVANCED_FACE('',(#281,#282),#317,.F.);
#333=ADVANCED_FACE('',(#283,#284),#36,.F.);
#334=ADVANCED_FACE('',(#285,#286),#22,.T.);
#335=ADVANCED_FACE('',(#287,#288),#37,.T.);
#336=ADVANCED_FACE('',(#289,#290),#38,.T.);
#337=ADVANCED_FACE('',(#291,#292),#23,.F.);
#338=ADVANCED_FACE('',(#293,#294),#39,.T.);
#339=ADVANCED_FACE('',(#295,#296),#24,.T.);
#340=ADVANCED_FACE('',(#297,#298),#318,.T.);
#341=ADVANCED_FACE('',(#299,#300),#25,.T.);
#342=ADVANCED_FACE('',(#301,#302),#26,.T.);
#343=ADVANCED_FACE('',(#303,#304),#40,.T.);
#344=ADVANCED_FACE('',(#305,#306),#27,.F.);
#345=ADVANCED_FACE('',(#307,#308),#41,.T.);
#346=ADVANCED_FACE('',(#309,#310),#42,.T.);
#347=ADVANCED_FACE('',(#311,#312),#32,.F.);
#348=CLOSED_SHELL('',(#319,#320,#321,#322,#323,#324,#325,#326,#327,#328,
#329,#330,#331,#332,#333,#334,#335,#336,#337,#338,#339,#340,#341,#342,#343,
#344,#345,#346,#347));
#349=STYLED_ITEM('',(#350),#357);
#350=PRESENTATION_STYLE_ASSIGNMENT((#351));
#351=SURFACE_STYLE_USAGE(.BOTH.,#352);
#352=SURFACE_SIDE_STYLE('',(#353));
#353=SURFACE_STYLE_FILL_AREA(#354);
#354=FILL_AREA_STYLE('',(#355));
#355=FILL_AREA_STYLE_COLOUR('',#356);
#356=COLOUR_RGB('',0.310000002384186,0.310000002384186,0.310000002384186);
#357=MANIFOLD_SOLID_BREP('553469 DADB-S1-40-S251-300---(266.40)',#348);
#358=SHAPE_DEFINITION_REPRESENTATION(#666,#359);
#359=SHAPE_REPRESENTATION('553469 DADB-S1-40-S251-300---(266.40)',(#360),
#661);
#360=AXIS2_PLACEMENT_3D('',#534,#418,#419);
#361=AXIS2_PLACEMENT_3D('',#535,#420,#421);
#362=AXIS2_PLACEMENT_3D('',#536,#422,#423);
#363=AXIS2_PLACEMENT_3D('',#558,#424,#425);
#364=AXIS2_PLACEMENT_3D('',#560,#426,#427);
#365=AXIS2_PLACEMENT_3D('',#561,#428,#429);
#366=AXIS2_PLACEMENT_3D('',#583,#430,#431);
#367=AXIS2_PLACEMENT_3D('',#585,#432,#433);
#368=AXIS2_PLACEMENT_3D('',#586,#434,#435);
#369=AXIS2_PLACEMENT_3D('',#588,#436,#437);
#370=AXIS2_PLACEMENT_3D('',#590,#438,#439);
#371=AXIS2_PLACEMENT_3D('',#591,#440,#441);
#372=AXIS2_PLACEMENT_3D('',#593,#442,#443);
#373=AXIS2_PLACEMENT_3D('',#594,#444,#445);
#374=AXIS2_PLACEMENT_3D('',#596,#446,#447);
#375=AXIS2_PLACEMENT_3D('',#597,#448,#449);
#376=AXIS2_PLACEMENT_3D('',#599,#450,#451);
#377=AXIS2_PLACEMENT_3D('',#600,#452,#453);
#378=AXIS2_PLACEMENT_3D('',#602,#454,#455);
#379=AXIS2_PLACEMENT_3D('',#603,#456,#457);
#380=AXIS2_PLACEMENT_3D('',#605,#458,#459);
#381=AXIS2_PLACEMENT_3D('',#606,#460,#461);
#382=AXIS2_PLACEMENT_3D('',#608,#462,#463);
#383=AXIS2_PLACEMENT_3D('',#609,#464,#465);
#384=AXIS2_PLACEMENT_3D('',#610,#466,#467);
#385=AXIS2_PLACEMENT_3D('',#612,#468,#469);
#386=AXIS2_PLACEMENT_3D('',#613,#470,#471);
#387=AXIS2_PLACEMENT_3D('',#614,#472,#473);
#388=AXIS2_PLACEMENT_3D('',#616,#474,#475);
#389=AXIS2_PLACEMENT_3D('',#617,#476,#477);
#390=AXIS2_PLACEMENT_3D('',#619,#478,#479);
#391=AXIS2_PLACEMENT_3D('',#620,#480,#481);
#392=AXIS2_PLACEMENT_3D('',#621,#482,#483);
#393=AXIS2_PLACEMENT_3D('',#623,#484,#485);
#394=AXIS2_PLACEMENT_3D('',#625,#486,#487);
#395=AXIS2_PLACEMENT_3D('',#626,#488,#489);
#396=AXIS2_PLACEMENT_3D('',#627,#490,#491);
#397=AXIS2_PLACEMENT_3D('',#629,#492,#493);
#398=AXIS2_PLACEMENT_3D('',#630,#494,#495);
#399=AXIS2_PLACEMENT_3D('',#632,#496,#497);
#400=AXIS2_PLACEMENT_3D('',#633,#498,#499);
#401=AXIS2_PLACEMENT_3D('',#635,#500,#501);
#402=AXIS2_PLACEMENT_3D('',#636,#502,#503);
#403=AXIS2_PLACEMENT_3D('',#638,#504,#505);
#404=AXIS2_PLACEMENT_3D('',#639,#506,#507);
#405=AXIS2_PLACEMENT_3D('',#641,#508,#509);
#406=AXIS2_PLACEMENT_3D('',#642,#510,#511);
#407=AXIS2_PLACEMENT_3D('',#644,#512,#513);
#408=AXIS2_PLACEMENT_3D('',#646,#514,#515);
#409=AXIS2_PLACEMENT_3D('',#647,#516,#517);
#410=AXIS2_PLACEMENT_3D('',#649,#518,#519);
#411=AXIS2_PLACEMENT_3D('',#650,#520,#521);
#412=AXIS2_PLACEMENT_3D('',#652,#522,#523);
#413=AXIS2_PLACEMENT_3D('',#653,#524,#525);
#414=AXIS2_PLACEMENT_3D('',#655,#526,#527);
#415=AXIS2_PLACEMENT_3D('',#656,#528,#529);
#416=AXIS2_PLACEMENT_3D('',#657,#530,#531);
#417=AXIS2_PLACEMENT_3D('',#659,#532,#533);
#418=DIRECTION('',(0.,0.,1.));
#419=DIRECTION('',(1.,0.,0.));
#420=DIRECTION('',(0.,0.,-1.));
#421=DIRECTION('',(-1.,0.,0.));
#422=DIRECTION('',(0.,0.,-1.));
#423=DIRECTION('',(-1.,0.,0.));
#424=DIRECTION('',(0.,0.,-1.));
#425=DIRECTION('',(-1.,0.,0.));
#426=DIRECTION('',(0.,0.,1.));
#427=DIRECTION('',(1.,0.,0.));
#428=DIRECTION('',(0.,0.,-1.));
#429=DIRECTION('',(-1.,0.,0.));
#430=DIRECTION('',(0.,0.,-1.));
#431=DIRECTION('',(-1.,0.,0.));
#432=DIRECTION('',(0.,0.,-1.));
#433=DIRECTION('',(-1.,0.,0.));
#434=DIRECTION('',(0.,0.,-1.));
#435=DIRECTION('',(-1.,0.,0.));
#436=DIRECTION('',(0.,0.,-1.));
#437=DIRECTION('',(-1.,0.,0.));
#438=DIRECTION('',(0.,0.,1.));
#439=DIRECTION('',(1.,0.,0.));
#440=DIRECTION('',(0.,0.,-1.));
#441=DIRECTION('',(-1.,0.,0.));
#442=DIRECTION('',(0.,0.,-1.));
#443=DIRECTION('',(-1.,0.,0.));
#444=DIRECTION('',(0.,0.,-1.));
#445=DIRECTION('',(-1.,0.,0.));
#446=DIRECTION('',(0.,0.,-1.));
#447=DIRECTION('',(-1.,0.,0.));
#448=DIRECTION('',(0.,0.,-1.));
#449=DIRECTION('',(-1.,0.,0.));
#450=DIRECTION('',(0.,-1.,0.));
#451=DIRECTION('',(0.,0.,-1.));
#452=DIRECTION('',(0.,-1.,0.));
#453=DIRECTION('',(0.,0.,-1.));
#454=DIRECTION('',(0.,1.,0.));
#455=DIRECTION('',(0.,0.,1.));
#456=DIRECTION('',(0.,-1.,0.));
#457=DIRECTION('',(0.,0.,-1.));
#458=DIRECTION('',(0.,1.,0.));
#459=DIRECTION('',(0.,0.,1.));
#460=DIRECTION('',(0.,-1.,0.));
#461=DIRECTION('',(0.,0.,-1.));
#462=DIRECTION('',(0.,-1.,0.));
#463=DIRECTION('',(0.,0.,-1.));
#464=DIRECTION('',(0.,0.,-1.));
#465=DIRECTION('',(-1.,0.,0.));
#466=DIRECTION('',(0.,0.,-1.));
#467=DIRECTION('',(-1.,0.,0.));
#468=DIRECTION('',(0.,0.,-1.));
#469=DIRECTION('',(-1.,0.,0.));
#470=DIRECTION('',(0.,0.,-1.));
#471=DIRECTION('',(-1.,0.,0.));
#472=DIRECTION('',(0.,0.,-1.));
#473=DIRECTION('',(-1.,0.,0.));
#474=DIRECTION('',(0.,0.,-1.));
#475=DIRECTION('',(-1.,0.,0.));
#476=DIRECTION('',(0.,0.,-1.));
#477=DIRECTION('',(-1.,0.,0.));
#478=DIRECTION('',(0.,0.,-1.));
#479=DIRECTION('',(-1.,0.,0.));
#480=DIRECTION('',(0.,0.,-1.));
#481=DIRECTION('',(-1.,0.,0.));
#482=DIRECTION('',(0.,0.,-1.));
#483=DIRECTION('',(-1.,0.,0.));
#484=DIRECTION('',(0.,0.,-1.));
#485=DIRECTION('',(-1.,0.,0.));
#486=DIRECTION('',(0.,0.,-1.));
#487=DIRECTION('',(-1.,0.,0.));
#488=DIRECTION('',(0.,0.,1.));
#489=DIRECTION('',(1.,0.,0.));
#490=DIRECTION('',(0.,0.,-1.));
#491=DIRECTION('',(-1.,0.,0.));
#492=DIRECTION('',(0.,0.,-1.));
#493=DIRECTION('',(-1.,0.,0.));
#494=DIRECTION('',(0.,0.,-1.));
#495=DIRECTION('',(-1.,0.,0.));
#496=DIRECTION('',(0.,0.,-1.));
#497=DIRECTION('',(-1.,0.,0.));
#498=DIRECTION('',(0.,0.,-1.));
#499=DIRECTION('',(-1.,0.,0.));
#500=DIRECTION('',(0.,0.,-1.));
#501=DIRECTION('',(-1.,0.,0.));
#502=DIRECTION('',(0.,0.,-1.));
#503=DIRECTION('',(-1.,0.,0.));
#504=DIRECTION('',(0.,0.,-1.));
#505=DIRECTION('',(-1.,0.,0.));
#506=DIRECTION('',(0.,0.,-1.));
#507=DIRECTION('',(-1.,0.,0.));
#508=DIRECTION('',(0.,0.,-1.));
#509=DIRECTION('',(-1.,0.,0.));
#510=DIRECTION('',(0.,0.,-1.));
#511=DIRECTION('',(-1.,0.,0.));
#512=DIRECTION('',(0.,0.,-1.));
#513=DIRECTION('',(-1.,0.,0.));
#514=DIRECTION('',(0.,0.,-1.));
#515=DIRECTION('',(-1.,0.,0.));
#516=DIRECTION('',(0.,0.,-1.));
#517=DIRECTION('',(-1.,0.,0.));
#518=DIRECTION('',(0.,0.,1.));
#519=DIRECTION('',(1.,0.,0.));
#520=DIRECTION('',(0.,0.,-1.));
#521=DIRECTION('',(-1.,0.,0.));
#522=DIRECTION('',(0.,0.,-1.));
#523=DIRECTION('',(-1.,0.,0.));
#524=DIRECTION('',(0.,0.,-1.));
#525=DIRECTION('',(-1.,0.,0.));
#526=DIRECTION('',(0.,0.,-1.));
#527=DIRECTION('',(-1.,0.,0.));
#528=DIRECTION('',(0.,0.,1.));
#529=DIRECTION('',(1.,0.,0.));
#530=DIRECTION('',(0.,0.,-1.));
#531=DIRECTION('',(-1.,0.,0.));
#532=DIRECTION('',(0.,0.,-1.));
#533=DIRECTION('',(-1.,0.,0.));
#534=CARTESIAN_POINT('',(0.,0.,0.));
#535=CARTESIAN_POINT('',(0.,0.,-8.1));
#536=CARTESIAN_POINT('',(0.,0.,0.));
#537=CARTESIAN_POINT('',(-8.,0.,0.));
#538=CARTESIAN_POINT('',(1.7199595716793,7.8690952246012,1.35499785072852));
#539=CARTESIAN_POINT('',(-0.00179513985986384,8.0651641232733,0.998551743779753));
#540=CARTESIAN_POINT('',(-1.71277901223985,7.87024828230559,1.35279517415247));
#541=CARTESIAN_POINT('',(-3.10622519807009,7.40930677915178,2.30054813477682));
#542=CARTESIAN_POINT('',(-4.04336456082556,6.91605019041137,3.68360182980358));
#543=CARTESIAN_POINT('',(-4.40083993023437,6.67853208419341,5.38406178644112));
#544=CARTESIAN_POINT('',(-4.0511617211487,6.9113884748606,7.10360704131052));
#545=CARTESIAN_POINT('',(-3.11267733771826,7.406582465753,8.49271286864225));
#546=CARTESIAN_POINT('',(-1.72401655781258,7.86742798667692,9.44194907791934));
#547=CARTESIAN_POINT('',(-0.0177360955736029,8.06483579907686,9.80078642107386));
#548=CARTESIAN_POINT('',(1.70317103367939,7.87314105248835,9.45274130647163));
#549=CARTESIAN_POINT('',(3.10205810061666,7.41119875088107,8.50399150963381));
#550=CARTESIAN_POINT('',(4.04241688004533,6.91672167787162,7.11991580044968));
#551=CARTESIAN_POINT('',(4.40071280321108,6.67853867155281,5.41648844061785));
#552=CARTESIAN_POINT('',(4.05259287179984,6.91070650880814,3.69866350450728));
#553=CARTESIAN_POINT('',(3.10962118346922,7.40785924743612,2.30375077301361));
#554=CARTESIAN_POINT('',(1.7199595716793,7.8690952246012,1.35499785072852));
#555=CARTESIAN_POINT('',(-0.00179513985986384,8.0651641232733,0.998551743779753));
#556=CARTESIAN_POINT('',(-1.71277901223985,7.87024828230559,1.35279517415247));
#557=CARTESIAN_POINT('',(0.,8.,1.117));
#558=CARTESIAN_POINT('',(0.,0.,281.099251865683));
#559=CARTESIAN_POINT('',(-8.00000000000004,0.,281.099251865683));
#560=CARTESIAN_POINT('',(0.,0.,-8.1));
#561=CARTESIAN_POINT('',(0.,0.,13.1440523202375));
#562=CARTESIAN_POINT('',(-23.,0.,13.1440523202375));
#563=CARTESIAN_POINT('',(-6.62031455249998,21.3866343336497,2.60740175162474));
#564=CARTESIAN_POINT('',(-5.03643993480117,21.6966451048038,0.279195585035589));
#565=CARTESIAN_POINT('',(-2.69469923084204,22.0403372808247,-1.25849255969754));
#566=CARTESIAN_POINT('',(0.0763812456847874,22.1821347956762,-1.78477367451144));
#567=CARTESIAN_POINT('',(2.83474406519526,22.0252750194257,-1.20004919406309));
#568=CARTESIAN_POINT('',(5.14129034069091,21.6770440663641,0.386040257489802));
#569=CARTESIAN_POINT('',(6.67289192190752,21.3772527268247,2.73649424891752));
#570=CARTESIAN_POINT('',(7.1843207354147,21.3749984780855,5.52257309258234));
#571=CARTESIAN_POINT('',(6.58419039484196,21.7475078043141,8.26117162322989));
#572=CARTESIAN_POINT('',(5.01651766839203,22.3198404869751,10.5316441969871));
#573=CARTESIAN_POINT('',(2.70088847136477,22.8265756305886,12.054056140043));
#574=CARTESIAN_POINT('',(-0.066988059272003,23.0257588025442,12.585925823036));
#575=CARTESIAN_POINT('',(-2.83311279995401,22.8070154282046,12.0003340806892));
#576=CARTESIAN_POINT('',(-5.12215292174051,22.2883402908254,10.4266860052364));
#577=CARTESIAN_POINT('',(-6.64200504777742,21.7204323898034,8.12377156961548));
#578=CARTESIAN_POINT('',(-7.18434324237171,21.3658543942132,5.37703201560628));
#579=CARTESIAN_POINT('',(-6.62031455249998,21.3866343336497,2.60740175162474));
#580=CARTESIAN_POINT('',(-5.03643993480117,21.6966451048038,0.279195585035589));
#581=CARTESIAN_POINT('',(-2.69469923084204,22.0403372808247,-1.25849255969754));
#582=CARTESIAN_POINT('',(-4.91012892042445,21.7022586722816,0.41094858867826));
#583=CARTESIAN_POINT('',(0.,0.,-8.1));
#584=CARTESIAN_POINT('',(-21.75,0.,-8.1));
#585=CARTESIAN_POINT('',(0.,0.,-8.1));
#586=CARTESIAN_POINT('',(0.,0.,281.));
#587=CARTESIAN_POINT('',(-14.7,0.,281.));
#588=CARTESIAN_POINT('',(0.,0.,278.974123152059));
#589=CARTESIAN_POINT('',(-14.7,0.,278.974123152059));
#590=CARTESIAN_POINT('',(0.,14.7,281.));
#591=CARTESIAN_POINT('',(0.,0.,281.));
#592=CARTESIAN_POINT('',(-8.70236109069227,0.,281.));
#593=CARTESIAN_POINT('',(0.,8.,-8.1));
#594=CARTESIAN_POINT('',(0.,0.,-8.1));
#595=CARTESIAN_POINT('',(-19.,0.,-8.1));
#596=CARTESIAN_POINT('',(0.,0.,13.1440523202375));
#597=CARTESIAN_POINT('',(0.,0.,13.6));
#598=CARTESIAN_POINT('',(-14.3,0.,13.6));
#599=CARTESIAN_POINT('',(0.,0.,5.4));
#600=CARTESIAN_POINT('',(0.,21.3,5.4));
#601=CARTESIAN_POINT('',(0.,21.3,-1.6));
#602=CARTESIAN_POINT('',(7.,21.3,5.4));
#603=CARTESIAN_POINT('',(0.,21.3,5.4));
#604=CARTESIAN_POINT('',(0.,21.3,0.535));
#605=CARTESIAN_POINT('',(0.,21.3,5.4));
#606=CARTESIAN_POINT('',(0.,20.718,5.4));
#607=CARTESIAN_POINT('',(0.,20.718,1.117));
#608=CARTESIAN_POINT('',(0.,0.,5.4));
#609=CARTESIAN_POINT('',(0.,0.,281.2));
#610=CARTESIAN_POINT('',(0.,0.,281.221052601369));
#611=CARTESIAN_POINT('',(-8.50347220720302,0.,281.221052601369));
#612=CARTESIAN_POINT('',(0.,0.,281.25));
#613=CARTESIAN_POINT('',(0.,0.,0.));
#614=CARTESIAN_POINT('',(0.,0.,0.));
#615=CARTESIAN_POINT('',(-18.188,0.,0.));
#616=CARTESIAN_POINT('',(0.,0.,-8.1));
#617=CARTESIAN_POINT('',(0.,0.,-7.288));
#618=CARTESIAN_POINT('',(-18.188,0.,-7.288));
#619=CARTESIAN_POINT('',(0.,0.,-7.288));
#620=CARTESIAN_POINT('',(0.,0.,275.080779514471));
#621=CARTESIAN_POINT('',(0.,0.,276.440241195026));
#622=CARTESIAN_POINT('',(-20.1339273926111,0.,276.440241195026));
#623=CARTESIAN_POINT('',(0.,0.,273.721317833916));
#624=CARTESIAN_POINT('',(-20.1339273926111,0.,273.721317833916));
#625=CARTESIAN_POINT('',(0.,0.,278.974123152059));
#626=CARTESIAN_POINT('',(0.,0.,273.721317833916));
#627=CARTESIAN_POINT('',(0.,0.,270.296177792057));
#628=CARTESIAN_POINT('',(-12.7886908691296,0.,270.296177792057));
#629=CARTESIAN_POINT('',(0.,0.,269.843023898539));
#630=CARTESIAN_POINT('',(0.,0.,269.38987000502));
#631=CARTESIAN_POINT('',(-12.7886908691297,0.,269.38987000502));
#632=CARTESIAN_POINT('',(0.,0.,269.38987000502));
#633=CARTESIAN_POINT('',(0.,0.,265.964729963161));
#634=CARTESIAN_POINT('',(-20.133927392611,0.,265.964729963161));
#635=CARTESIAN_POINT('',(0.,0.,264.605268282606));
#636=CARTESIAN_POINT('',(0.,0.,264.605268282606));
#637=CARTESIAN_POINT('',(-21.,0.,264.605268282606));
#638=CARTESIAN_POINT('',(0.,0.,-8.1));
#639=CARTESIAN_POINT('',(0.,0.,28.9947317173937));
#640=CARTESIAN_POINT('',(-21.,0.,28.9947317173937));
#641=CARTESIAN_POINT('',(0.,0.,18.5192204855287));
#642=CARTESIAN_POINT('',(0.,0.,19.8786821660837));
#643=CARTESIAN_POINT('',(-20.1339273926111,0.,19.8786821660837));
#644=CARTESIAN_POINT('',(0.,0.,17.1597588049738));
#645=CARTESIAN_POINT('',(-20.1339273926111,0.,17.1597588049738));
#646=CARTESIAN_POINT('',(0.,0.,28.9947317173937));
#647=CARTESIAN_POINT('',(0.,0.,27.6352700368387));
#648=CARTESIAN_POINT('',(-20.1339273926111,0.,27.6352700368387));
#649=CARTESIAN_POINT('',(0.,0.,27.6352700368387));
#650=CARTESIAN_POINT('',(0.,0.,24.2101299949795));
#651=CARTESIAN_POINT('',(-12.7886908691296,0.,24.2101299949795));
#652=CARTESIAN_POINT('',(0.,0.,23.7569761014612));
#653=CARTESIAN_POINT('',(0.,0.,23.3038222079429));
#654=CARTESIAN_POINT('',(-12.7886908691296,0.,23.3038222079429));
#655=CARTESIAN_POINT('',(0.,0.,23.3038222079429));
#656=CARTESIAN_POINT('',(0.,0.,17.1597588049738));
#657=CARTESIAN_POINT('',(0.,0.,13.6));
#658=CARTESIAN_POINT('',(-12.5,0.,13.6));
#659=CARTESIAN_POINT('',(0.,12.5,13.6));
#660=MECHANICAL_DESIGN_GEOMETRIC_PRESENTATION_REPRESENTATION('',(#349),
#661);
#661=(
GEOMETRIC_REPRESENTATION_CONTEXT(3)
GLOBAL_UNCERTAINTY_ASSIGNED_CONTEXT((#662))
GLOBAL_UNIT_ASSIGNED_CONTEXT((#665,#664,#663))
REPRESENTATION_CONTEXT('553469 DADB-S1-40-S251-300---(266.40)',
'TOP_LEVEL_ASSEMBLY_PART')
);
#662=UNCERTAINTY_MEASURE_WITH_UNIT(LENGTH_MEASURE(0.005),#665,
'DISTANCE_ACCURACY_VALUE','Maximum Tolerance applied to model');
#663=(
NAMED_UNIT(*)
SI_UNIT($,.STERADIAN.)
SOLID_ANGLE_UNIT()
);
#664=(
NAMED_UNIT(*)
PLANE_ANGLE_UNIT()
SI_UNIT($,.RADIAN.)
);
#665=(
LENGTH_UNIT()
NAMED_UNIT(*)
SI_UNIT(.MILLI.,.METRE.)
);
#666=PRODUCT_DEFINITION_SHAPE('','',#667);
#667=PRODUCT_DEFINITION('','',#669,#668);
#668=PRODUCT_DEFINITION_CONTEXT('',#675,'design');
#669=PRODUCT_DEFINITION_FORMATION_WITH_SPECIFIED_SOURCE('','',#671,
 .NOT_KNOWN.);
#670=PRODUCT_RELATED_PRODUCT_CATEGORY('','',(#671));
#671=PRODUCT('553469 DADB-S1-40-S251-300---(266.40)',
'553469 DADB-S1-40-S251-300---(266.40)',
'553469 DADB-S1-40-S251-300---(266.40)',(#673));
#672=PRODUCT_CATEGORY('','');
#673=PRODUCT_CONTEXT('',#675,'mechanical');
#674=APPLICATION_PROTOCOL_DEFINITION('international standard',
'automotive_design',2010,#675);
#675=APPLICATION_CONTEXT(
'core data for automotive mechanical design processes');
ENDSEC;
END-ISO-10303-21;
