ISO-10303-21;
HEADER;
/* Generated by software containing ST-Developer
 * from STEP Tools, Inc. (www.steptools.com) 
 */
/* OPTION: using custom renumber hook */

FILE_DESCRIPTION(
/* description */ ('STEP AP214'),
/* implementation_level */ '2;1');

FILE_NAME(
/* name */ '555429_DADG-AK-90-1G18',
/* time_stamp */ '2024-08-12T16:35:22+02:00',
/* author */ ('License CC BY-ND 4.0'),
/* organization */ ('CADENAS'),
/* preprocessor_version */ 'ST-DEVELOPER v19.3',
/* originating_system */ 'PARTsolutions',
/* authorisation */ '  ');

FILE_SCHEMA (('AUTOMOTIVE_DESIGN {1 0 10303 214 3 1 1}'));
ENDSEC;

DATA;
#10=PROPERTY_DEFINITION_REPRESENTATION(#14,#12);
#11=PROPERTY_DEFINITION_REPRESENTATION(#15,#13);
#12=REPRESENTATION('',(#16),#595);
#13=REPRESENTATION('',(#17),#595);
#14=PROPERTY_DEFINITION('pmi validation property','',#602);
#15=PROPERTY_DEFINITION('pmi validation property','',#602);
#16=VALUE_REPRESENTATION_ITEM('number of annotations',COUNT_MEASURE(0.));
#17=VALUE_REPRESENTATION_ITEM('number of views',COUNT_MEASURE(0.));
#18=CONTEXT_DEPENDENT_SHAPE_REPRESENTATION(#20,#604);
#19=NEXT_ASSEMBLY_USAGE_OCCURRENCE('NAUO1','719814 DADG-AK-90-1G18',
'719814 DADG-AK-90-1G18',#605,#606,'');
#20=(
REPRESENTATION_RELATIONSHIP(' ',' ',#340,#339)
REPRESENTATION_RELATIONSHIP_WITH_TRANSFORMATION(#21)
SHAPE_REPRESENTATION_RELATIONSHIP()
);
#21=ITEM_DEFINED_TRANSFORMATION(' ',' ',#341,#396);
#22=SHAPE_REPRESENTATION_RELATIONSHIP('','',#340,#23);
#23=ADVANCED_BREP_SHAPE_REPRESENTATION('',(#336),#596);
#24=VERTEX_LOOP('',#152);
#25=VERTEX_LOOP('',#154);
#26=TOROIDAL_SURFACE('',#368,10.5,1.00000000000001);
#27=CONICAL_SURFACE('',#349,4.283,0.785398163397448);
#28=CONICAL_SURFACE('',#353,4.865,0.785398163397448);
#29=CONICAL_SURFACE('',#379,4.865,0.785398163397447);
#30=CONICAL_SURFACE('',#383,4.283,0.785398163397446);
#31=CONICAL_SURFACE('',#390,1.5,1.02974425867666);
#32=CONICAL_SURFACE('',#393,1.5,1.02974425867665);
#33=CONICAL_SURFACE('',#394,19.5,0.785398163397448);
#34=CONICAL_SURFACE('',#395,5.,0.261799387799148);
#35=CYLINDRICAL_SURFACE('',#345,3.);
#36=CYLINDRICAL_SURFACE('',#351,4.865);
#37=CYLINDRICAL_SURFACE('',#357,4.165);
#38=CYLINDRICAL_SURFACE('',#361,5.);
#39=CYLINDRICAL_SURFACE('',#366,9.5);
#40=CYLINDRICAL_SURFACE('',#372,19.5);
#41=CYLINDRICAL_SURFACE('',#381,4.283);
#42=CYLINDRICAL_SURFACE('',#387,5.);
#43=CYLINDRICAL_SURFACE('',#388,1.5);
#44=CYLINDRICAL_SURFACE('',#391,1.5);
#45=ORIENTED_EDGE('',*,*,#99,.T.);
#46=ORIENTED_EDGE('',*,*,#100,.F.);
#47=ORIENTED_EDGE('',*,*,#101,.T.);
#48=ORIENTED_EDGE('',*,*,#99,.F.);
#49=ORIENTED_EDGE('',*,*,#102,.T.);
#50=ORIENTED_EDGE('',*,*,#101,.F.);
#51=ORIENTED_EDGE('',*,*,#103,.T.);
#52=ORIENTED_EDGE('',*,*,#102,.F.);
#53=ORIENTED_EDGE('',*,*,#104,.T.);
#54=ORIENTED_EDGE('',*,*,#103,.F.);
#55=ORIENTED_EDGE('',*,*,#105,.T.);
#56=ORIENTED_EDGE('',*,*,#104,.F.);
#57=ORIENTED_EDGE('',*,*,#106,.T.);
#58=ORIENTED_EDGE('',*,*,#105,.F.);
#59=ORIENTED_EDGE('',*,*,#107,.T.);
#60=ORIENTED_EDGE('',*,*,#106,.F.);
#61=ORIENTED_EDGE('',*,*,#108,.T.);
#62=ORIENTED_EDGE('',*,*,#107,.F.);
#63=ORIENTED_EDGE('',*,*,#109,.T.);
#64=ORIENTED_EDGE('',*,*,#110,.F.);
#65=ORIENTED_EDGE('',*,*,#111,.T.);
#66=ORIENTED_EDGE('',*,*,#109,.F.);
#67=ORIENTED_EDGE('',*,*,#112,.T.);
#68=ORIENTED_EDGE('',*,*,#111,.F.);
#69=ORIENTED_EDGE('',*,*,#112,.F.);
#70=ORIENTED_EDGE('',*,*,#113,.T.);
#71=ORIENTED_EDGE('',*,*,#114,.T.);
#72=ORIENTED_EDGE('',*,*,#113,.F.);
#73=ORIENTED_EDGE('',*,*,#115,.T.);
#74=ORIENTED_EDGE('',*,*,#116,.F.);
#75=ORIENTED_EDGE('',*,*,#117,.T.);
#76=ORIENTED_EDGE('',*,*,#118,.T.);
#77=ORIENTED_EDGE('',*,*,#119,.T.);
#78=ORIENTED_EDGE('',*,*,#115,.F.);
#79=ORIENTED_EDGE('',*,*,#120,.T.);
#80=ORIENTED_EDGE('',*,*,#117,.F.);
#81=ORIENTED_EDGE('',*,*,#121,.T.);
#82=ORIENTED_EDGE('',*,*,#120,.F.);
#83=ORIENTED_EDGE('',*,*,#122,.T.);
#84=ORIENTED_EDGE('',*,*,#121,.F.);
#85=ORIENTED_EDGE('',*,*,#123,.T.);
#86=ORIENTED_EDGE('',*,*,#122,.F.);
#87=ORIENTED_EDGE('',*,*,#100,.T.);
#88=ORIENTED_EDGE('',*,*,#123,.F.);
#89=ORIENTED_EDGE('',*,*,#124,.T.);
#90=ORIENTED_EDGE('',*,*,#118,.F.);
#91=ORIENTED_EDGE('',*,*,#124,.F.);
#92=ORIENTED_EDGE('',*,*,#125,.T.);
#93=ORIENTED_EDGE('',*,*,#119,.F.);
#94=ORIENTED_EDGE('',*,*,#125,.F.);
#95=ORIENTED_EDGE('',*,*,#114,.F.);
#96=ORIENTED_EDGE('',*,*,#116,.T.);
#97=ORIENTED_EDGE('',*,*,#108,.F.);
#98=ORIENTED_EDGE('',*,*,#110,.T.);
#99=EDGE_CURVE('',#126,#126,#155,.T.);
#100=EDGE_CURVE('',#127,#127,#156,.T.);
#101=EDGE_CURVE('',#128,#128,#157,.T.);
#102=EDGE_CURVE('',#129,#129,#158,.T.);
#103=EDGE_CURVE('',#130,#130,#159,.T.);
#104=EDGE_CURVE('',#131,#131,#160,.T.);
#105=EDGE_CURVE('',#132,#132,#161,.T.);
#106=EDGE_CURVE('',#133,#133,#162,.T.);
#107=EDGE_CURVE('',#134,#134,#163,.T.);
#108=EDGE_CURVE('',#135,#135,#164,.T.);
#109=EDGE_CURVE('',#136,#136,#165,.T.);
#110=EDGE_CURVE('',#137,#137,#166,.T.);
#111=EDGE_CURVE('',#138,#138,#167,.T.);
#112=EDGE_CURVE('',#139,#139,#168,.T.);
#113=EDGE_CURVE('',#140,#140,#169,.T.);
#114=EDGE_CURVE('',#141,#141,#170,.T.);
#115=EDGE_CURVE('',#142,#142,#171,.T.);
#116=EDGE_CURVE('',#143,#143,#172,.T.);
#117=EDGE_CURVE('',#144,#144,#173,.T.);
#118=EDGE_CURVE('',#145,#145,#174,.F.);
#119=EDGE_CURVE('',#146,#146,#175,.T.);
#120=EDGE_CURVE('',#147,#147,#176,.T.);
#121=EDGE_CURVE('',#148,#148,#177,.T.);
#122=EDGE_CURVE('',#149,#149,#178,.T.);
#123=EDGE_CURVE('',#150,#150,#179,.T.);
#124=EDGE_CURVE('',#151,#151,#180,.T.);
#125=EDGE_CURVE('',#153,#153,#181,.T.);
#126=VERTEX_POINT('',#512);
#127=VERTEX_POINT('',#514);
#128=VERTEX_POINT('',#517);
#129=VERTEX_POINT('',#520);
#130=VERTEX_POINT('',#523);
#131=VERTEX_POINT('',#526);
#132=VERTEX_POINT('',#529);
#133=VERTEX_POINT('',#532);
#134=VERTEX_POINT('',#535);
#135=VERTEX_POINT('',#538);
#136=VERTEX_POINT('',#541);
#137=VERTEX_POINT('',#543);
#138=VERTEX_POINT('',#546);
#139=VERTEX_POINT('',#549);
#140=VERTEX_POINT('',#552);
#141=VERTEX_POINT('',#555);
#142=VERTEX_POINT('',#558);
#143=VERTEX_POINT('',#560);
#144=VERTEX_POINT('',#563);
#145=VERTEX_POINT('',#565);
#146=VERTEX_POINT('',#567);
#147=VERTEX_POINT('',#570);
#148=VERTEX_POINT('',#573);
#149=VERTEX_POINT('',#576);
#150=VERTEX_POINT('',#579);
#151=VERTEX_POINT('',#583);
#152=VERTEX_POINT('',#585);
#153=VERTEX_POINT('',#588);
#154=VERTEX_POINT('',#590);
#155=CIRCLE('',#343,3.);
#156=CIRCLE('',#344,5.);
#157=CIRCLE('',#346,3.);
#158=CIRCLE('',#348,4.283);
#159=CIRCLE('',#350,4.865);
#160=CIRCLE('',#352,4.865);
#161=CIRCLE('',#354,4.283);
#162=CIRCLE('',#356,4.165);
#163=CIRCLE('',#358,4.165);
#164=CIRCLE('',#360,4.86602540378444);
#165=CIRCLE('',#362,5.);
#166=CIRCLE('',#363,5.);
#167=CIRCLE('',#365,9.5);
#168=CIRCLE('',#367,9.5);
#169=CIRCLE('',#369,10.5);
#170=CIRCLE('',#371,18.);
#171=CIRCLE('',#373,19.5);
#172=CIRCLE('',#374,19.5);
#173=CIRCLE('',#376,4.865);
#174=CIRCLE('',#377,1.5);
#175=CIRCLE('',#378,1.5);
#176=CIRCLE('',#380,4.283);
#177=CIRCLE('',#382,4.283);
#178=CIRCLE('',#384,4.865);
#179=CIRCLE('',#386,5.);
#180=CIRCLE('',#389,1.5);
#181=CIRCLE('',#392,1.5);
#182=EDGE_LOOP('',(#45));
#183=EDGE_LOOP('',(#46));
#184=EDGE_LOOP('',(#47));
#185=EDGE_LOOP('',(#48));
#186=EDGE_LOOP('',(#49));
#187=EDGE_LOOP('',(#50));
#188=EDGE_LOOP('',(#51));
#189=EDGE_LOOP('',(#52));
#190=EDGE_LOOP('',(#53));
#191=EDGE_LOOP('',(#54));
#192=EDGE_LOOP('',(#55));
#193=EDGE_LOOP('',(#56));
#194=EDGE_LOOP('',(#57));
#195=EDGE_LOOP('',(#58));
#196=EDGE_LOOP('',(#59));
#197=EDGE_LOOP('',(#60));
#198=EDGE_LOOP('',(#61));
#199=EDGE_LOOP('',(#62));
#200=EDGE_LOOP('',(#63));
#201=EDGE_LOOP('',(#64));
#202=EDGE_LOOP('',(#65));
#203=EDGE_LOOP('',(#66));
#204=EDGE_LOOP('',(#67));
#205=EDGE_LOOP('',(#68));
#206=EDGE_LOOP('',(#69));
#207=EDGE_LOOP('',(#70));
#208=EDGE_LOOP('',(#71));
#209=EDGE_LOOP('',(#72));
#210=EDGE_LOOP('',(#73));
#211=EDGE_LOOP('',(#74));
#212=EDGE_LOOP('',(#75));
#213=EDGE_LOOP('',(#76));
#214=EDGE_LOOP('',(#77));
#215=EDGE_LOOP('',(#78));
#216=EDGE_LOOP('',(#79));
#217=EDGE_LOOP('',(#80));
#218=EDGE_LOOP('',(#81));
#219=EDGE_LOOP('',(#82));
#220=EDGE_LOOP('',(#83));
#221=EDGE_LOOP('',(#84));
#222=EDGE_LOOP('',(#85));
#223=EDGE_LOOP('',(#86));
#224=EDGE_LOOP('',(#87));
#225=EDGE_LOOP('',(#88));
#226=EDGE_LOOP('',(#89));
#227=EDGE_LOOP('',(#90));
#228=EDGE_LOOP('',(#91));
#229=EDGE_LOOP('',(#92));
#230=EDGE_LOOP('',(#93));
#231=EDGE_LOOP('',(#94));
#232=EDGE_LOOP('',(#95));
#233=EDGE_LOOP('',(#96));
#234=EDGE_LOOP('',(#97));
#235=EDGE_LOOP('',(#98));
#236=FACE_BOUND('',#182,.T.);
#237=FACE_BOUND('',#183,.T.);
#238=FACE_BOUND('',#184,.T.);
#239=FACE_BOUND('',#185,.T.);
#240=FACE_BOUND('',#186,.T.);
#241=FACE_BOUND('',#187,.T.);
#242=FACE_BOUND('',#188,.T.);
#243=FACE_BOUND('',#189,.T.);
#244=FACE_BOUND('',#190,.T.);
#245=FACE_BOUND('',#191,.T.);
#246=FACE_BOUND('',#192,.T.);
#247=FACE_BOUND('',#193,.T.);
#248=FACE_BOUND('',#194,.T.);
#249=FACE_BOUND('',#195,.T.);
#250=FACE_BOUND('',#196,.T.);
#251=FACE_BOUND('',#197,.T.);
#252=FACE_BOUND('',#198,.T.);
#253=FACE_BOUND('',#199,.T.);
#254=FACE_BOUND('',#200,.T.);
#255=FACE_BOUND('',#201,.T.);
#256=FACE_BOUND('',#202,.T.);
#257=FACE_BOUND('',#203,.T.);
#258=FACE_BOUND('',#204,.T.);
#259=FACE_BOUND('',#205,.T.);
#260=FACE_BOUND('',#206,.T.);
#261=FACE_BOUND('',#207,.T.);
#262=FACE_BOUND('',#208,.T.);
#263=FACE_BOUND('',#209,.T.);
#264=FACE_BOUND('',#210,.T.);
#265=FACE_BOUND('',#211,.T.);
#266=FACE_BOUND('',#212,.T.);
#267=FACE_BOUND('',#213,.T.);
#268=FACE_BOUND('',#214,.T.);
#269=FACE_BOUND('',#215,.T.);
#270=FACE_BOUND('',#216,.T.);
#271=FACE_BOUND('',#217,.T.);
#272=FACE_BOUND('',#218,.T.);
#273=FACE_BOUND('',#219,.T.);
#274=FACE_BOUND('',#220,.T.);
#275=FACE_BOUND('',#221,.T.);
#276=FACE_BOUND('',#222,.T.);
#277=FACE_BOUND('',#223,.T.);
#278=FACE_BOUND('',#224,.T.);
#279=FACE_BOUND('',#225,.T.);
#280=FACE_BOUND('',#226,.T.);
#281=FACE_BOUND('',#227,.T.);
#282=FACE_BOUND('',#24,.T.);
#283=FACE_BOUND('',#228,.T.);
#284=FACE_BOUND('',#229,.T.);
#285=FACE_BOUND('',#230,.T.);
#286=FACE_BOUND('',#25,.T.);
#287=FACE_BOUND('',#231,.T.);
#288=FACE_BOUND('',#232,.T.);
#289=FACE_BOUND('',#233,.T.);
#290=FACE_BOUND('',#234,.T.);
#291=FACE_BOUND('',#235,.T.);
#292=PLANE('',#342);
#293=PLANE('',#347);
#294=PLANE('',#355);
#295=PLANE('',#359);
#296=PLANE('',#364);
#297=PLANE('',#370);
#298=PLANE('',#375);
#299=PLANE('',#385);
#300=ADVANCED_FACE('',(#236,#237),#292,.T.);
#301=ADVANCED_FACE('',(#238,#239),#35,.F.);
#302=ADVANCED_FACE('',(#240,#241),#293,.T.);
#303=ADVANCED_FACE('',(#242,#243),#27,.T.);
#304=ADVANCED_FACE('',(#244,#245),#36,.T.);
#305=ADVANCED_FACE('',(#246,#247),#28,.T.);
#306=ADVANCED_FACE('',(#248,#249),#294,.T.);
#307=ADVANCED_FACE('',(#250,#251),#37,.T.);
#308=ADVANCED_FACE('',(#252,#253),#295,.T.);
#309=ADVANCED_FACE('',(#254,#255),#38,.T.);
#310=ADVANCED_FACE('',(#256,#257),#296,.T.);
#311=ADVANCED_FACE('',(#258,#259),#39,.T.);
#312=ADVANCED_FACE('',(#260,#261),#26,.F.);
#313=ADVANCED_FACE('',(#262,#263),#297,.T.);
#314=ADVANCED_FACE('',(#264,#265),#40,.T.);
#315=ADVANCED_FACE('',(#266,#267,#268,#269),#298,.T.);
#316=ADVANCED_FACE('',(#270,#271),#29,.F.);
#317=ADVANCED_FACE('',(#272,#273),#41,.F.);
#318=ADVANCED_FACE('',(#274,#275),#30,.F.);
#319=ADVANCED_FACE('',(#276,#277),#299,.T.);
#320=ADVANCED_FACE('',(#278,#279),#42,.F.);
#321=ADVANCED_FACE('',(#280,#281),#43,.F.);
#322=ADVANCED_FACE('',(#282,#283),#31,.F.);
#323=ADVANCED_FACE('',(#284,#285),#44,.F.);
#324=ADVANCED_FACE('',(#286,#287),#32,.F.);
#325=ADVANCED_FACE('',(#288,#289),#33,.T.);
#326=ADVANCED_FACE('',(#290,#291),#34,.T.);
#327=CLOSED_SHELL('',(#300,#301,#302,#303,#304,#305,#306,#307,#308,#309,
#310,#311,#312,#313,#314,#315,#316,#317,#318,#319,#320,#321,#322,#323,#324,
#325,#326));
#328=STYLED_ITEM('',(#329),#336);
#329=PRESENTATION_STYLE_ASSIGNMENT((#330));
#330=SURFACE_STYLE_USAGE(.BOTH.,#331);
#331=SURFACE_SIDE_STYLE('',(#332));
#332=SURFACE_STYLE_FILL_AREA(#333);
#333=FILL_AREA_STYLE('',(#334));
#334=FILL_AREA_STYLE_COLOUR('',#335);
#335=COLOUR_RGB('',0.689999997615814,0.689999997615814,0.689999997615814);
#336=MANIFOLD_SOLID_BREP('719814 DADG-AK-90-1G18',#327);
#337=SHAPE_DEFINITION_REPRESENTATION(#602,#339);
#338=SHAPE_DEFINITION_REPRESENTATION(#603,#340);
#339=SHAPE_REPRESENTATION('555429 DADG-AK-90-1G18',(#341,#396),#595);
#340=SHAPE_REPRESENTATION('719814 DADG-AK-90-1G18',(#341),#596);
#341=AXIS2_PLACEMENT_3D('',#509,#397,#398);
#342=AXIS2_PLACEMENT_3D('',#510,#399,#400);
#343=AXIS2_PLACEMENT_3D('',#511,#401,#402);
#344=AXIS2_PLACEMENT_3D('',#513,#403,#404);
#345=AXIS2_PLACEMENT_3D('',#515,#405,#406);
#346=AXIS2_PLACEMENT_3D('',#516,#407,#408);
#347=AXIS2_PLACEMENT_3D('',#518,#409,#410);
#348=AXIS2_PLACEMENT_3D('',#519,#411,#412);
#349=AXIS2_PLACEMENT_3D('',#521,#413,#414);
#350=AXIS2_PLACEMENT_3D('',#522,#415,#416);
#351=AXIS2_PLACEMENT_3D('',#524,#417,#418);
#352=AXIS2_PLACEMENT_3D('',#525,#419,#420);
#353=AXIS2_PLACEMENT_3D('',#527,#421,#422);
#354=AXIS2_PLACEMENT_3D('',#528,#423,#424);
#355=AXIS2_PLACEMENT_3D('',#530,#425,#426);
#356=AXIS2_PLACEMENT_3D('',#531,#427,#428);
#357=AXIS2_PLACEMENT_3D('',#533,#429,#430);
#358=AXIS2_PLACEMENT_3D('',#534,#431,#432);
#359=AXIS2_PLACEMENT_3D('',#536,#433,#434);
#360=AXIS2_PLACEMENT_3D('',#537,#435,#436);
#361=AXIS2_PLACEMENT_3D('',#539,#437,#438);
#362=AXIS2_PLACEMENT_3D('',#540,#439,#440);
#363=AXIS2_PLACEMENT_3D('',#542,#441,#442);
#364=AXIS2_PLACEMENT_3D('',#544,#443,#444);
#365=AXIS2_PLACEMENT_3D('',#545,#445,#446);
#366=AXIS2_PLACEMENT_3D('',#547,#447,#448);
#367=AXIS2_PLACEMENT_3D('',#548,#449,#450);
#368=AXIS2_PLACEMENT_3D('',#550,#451,#452);
#369=AXIS2_PLACEMENT_3D('',#551,#453,#454);
#370=AXIS2_PLACEMENT_3D('',#553,#455,#456);
#371=AXIS2_PLACEMENT_3D('',#554,#457,#458);
#372=AXIS2_PLACEMENT_3D('',#556,#459,#460);
#373=AXIS2_PLACEMENT_3D('',#557,#461,#462);
#374=AXIS2_PLACEMENT_3D('',#559,#463,#464);
#375=AXIS2_PLACEMENT_3D('',#561,#465,#466);
#376=AXIS2_PLACEMENT_3D('',#562,#467,#468);
#377=AXIS2_PLACEMENT_3D('',#564,#469,#470);
#378=AXIS2_PLACEMENT_3D('',#566,#471,#472);
#379=AXIS2_PLACEMENT_3D('',#568,#473,#474);
#380=AXIS2_PLACEMENT_3D('',#569,#475,#476);
#381=AXIS2_PLACEMENT_3D('',#571,#477,#478);
#382=AXIS2_PLACEMENT_3D('',#572,#479,#480);
#383=AXIS2_PLACEMENT_3D('',#574,#481,#482);
#384=AXIS2_PLACEMENT_3D('',#575,#483,#484);
#385=AXIS2_PLACEMENT_3D('',#577,#485,#486);
#386=AXIS2_PLACEMENT_3D('',#578,#487,#488);
#387=AXIS2_PLACEMENT_3D('',#580,#489,#490);
#388=AXIS2_PLACEMENT_3D('',#581,#491,#492);
#389=AXIS2_PLACEMENT_3D('',#582,#493,#494);
#390=AXIS2_PLACEMENT_3D('',#584,#495,#496);
#391=AXIS2_PLACEMENT_3D('',#586,#497,#498);
#392=AXIS2_PLACEMENT_3D('',#587,#499,#500);
#393=AXIS2_PLACEMENT_3D('',#589,#501,#502);
#394=AXIS2_PLACEMENT_3D('',#591,#503,#504);
#395=AXIS2_PLACEMENT_3D('',#592,#505,#506);
#396=AXIS2_PLACEMENT_3D('',#593,#507,#508);
#397=DIRECTION('',(0.,0.,1.));
#398=DIRECTION('',(1.,0.,0.));
#399=DIRECTION('',(0.,1.,0.));
#400=DIRECTION('',(0.,0.,1.));
#401=DIRECTION('',(0.,-1.,0.));
#402=DIRECTION('',(0.,0.,-1.));
#403=DIRECTION('',(0.,-1.,0.));
#404=DIRECTION('',(0.,0.,-1.));
#405=DIRECTION('',(0.,-1.,0.));
#406=DIRECTION('',(0.,0.,-1.));
#407=DIRECTION('',(0.,-1.,0.));
#408=DIRECTION('',(0.,0.,-1.));
#409=DIRECTION('',(0.,-1.,0.));
#410=DIRECTION('',(0.,0.,-1.));
#411=DIRECTION('',(0.,-1.,0.));
#412=DIRECTION('',(0.,0.,-1.));
#413=DIRECTION('',(0.,1.,0.));
#414=DIRECTION('',(0.,0.,1.));
#415=DIRECTION('',(0.,-1.,0.));
#416=DIRECTION('',(0.,0.,-1.));
#417=DIRECTION('',(0.,-1.,0.));
#418=DIRECTION('',(0.,0.,-1.));
#419=DIRECTION('',(0.,-1.,0.));
#420=DIRECTION('',(0.,0.,-1.));
#421=DIRECTION('',(0.,-1.,0.));
#422=DIRECTION('',(0.,0.,-1.));
#423=DIRECTION('',(0.,-1.,0.));
#424=DIRECTION('',(0.,0.,-1.));
#425=DIRECTION('',(0.,1.,0.));
#426=DIRECTION('',(0.,0.,1.));
#427=DIRECTION('',(0.,-1.,0.));
#428=DIRECTION('',(0.,0.,-1.));
#429=DIRECTION('',(0.,-1.,0.));
#430=DIRECTION('',(0.,0.,-1.));
#431=DIRECTION('',(0.,-1.,0.));
#432=DIRECTION('',(0.,0.,-1.));
#433=DIRECTION('',(0.,-1.,0.));
#434=DIRECTION('',(0.,0.,-1.));
#435=DIRECTION('',(0.,-1.,0.));
#436=DIRECTION('',(0.,0.,-1.));
#437=DIRECTION('',(0.,-1.,0.));
#438=DIRECTION('',(0.,0.,-1.));
#439=DIRECTION('',(0.,-1.,0.));
#440=DIRECTION('',(0.,0.,-1.));
#441=DIRECTION('',(0.,-1.,0.));
#442=DIRECTION('',(0.,0.,-1.));
#443=DIRECTION('',(0.,-1.,0.));
#444=DIRECTION('',(0.,0.,-1.));
#445=DIRECTION('',(0.,-1.,0.));
#446=DIRECTION('',(0.,0.,-1.));
#447=DIRECTION('',(0.,-1.,0.));
#448=DIRECTION('',(0.,0.,-1.));
#449=DIRECTION('',(0.,-1.,0.));
#450=DIRECTION('',(0.,0.,-1.));
#451=DIRECTION('',(0.,-1.,0.));
#452=DIRECTION('',(0.,0.,-1.));
#453=DIRECTION('',(0.,-1.,0.));
#454=DIRECTION('',(0.,0.,-1.));
#455=DIRECTION('',(0.,-1.,0.));
#456=DIRECTION('',(0.,0.,-1.));
#457=DIRECTION('',(0.,-1.,0.));
#458=DIRECTION('',(0.,0.,-1.));
#459=DIRECTION('',(0.,-1.,0.));
#460=DIRECTION('',(0.,0.,-1.));
#461=DIRECTION('',(0.,-1.,0.));
#462=DIRECTION('',(0.,0.,-1.));
#463=DIRECTION('',(0.,-1.,0.));
#464=DIRECTION('',(0.,0.,-1.));
#465=DIRECTION('',(0.,1.,0.));
#466=DIRECTION('',(0.,0.,1.));
#467=DIRECTION('',(0.,-1.,0.));
#468=DIRECTION('',(0.,0.,-1.));
#469=DIRECTION('',(0.,1.,0.));
#470=DIRECTION('',(0.,0.,1.));
#471=DIRECTION('',(0.,-1.,0.));
#472=DIRECTION('',(0.,0.,-1.));
#473=DIRECTION('',(0.,1.,0.));
#474=DIRECTION('',(0.,0.,1.));
#475=DIRECTION('',(0.,-1.,0.));
#476=DIRECTION('',(0.,0.,-1.));
#477=DIRECTION('',(0.,-1.,0.));
#478=DIRECTION('',(0.,0.,-1.));
#479=DIRECTION('',(0.,-1.,0.));
#480=DIRECTION('',(0.,0.,-1.));
#481=DIRECTION('',(0.,-1.,0.));
#482=DIRECTION('',(0.,0.,-1.));
#483=DIRECTION('',(0.,-1.,0.));
#484=DIRECTION('',(0.,0.,-1.));
#485=DIRECTION('',(0.,-1.,0.));
#486=DIRECTION('',(0.,0.,-1.));
#487=DIRECTION('',(0.,-1.,0.));
#488=DIRECTION('',(0.,0.,-1.));
#489=DIRECTION('',(0.,-1.,0.));
#490=DIRECTION('',(0.,0.,-1.));
#491=DIRECTION('',(0.,-1.,0.));
#492=DIRECTION('',(0.,0.,-1.));
#493=DIRECTION('',(0.,-1.,0.));
#494=DIRECTION('',(0.,0.,-1.));
#495=DIRECTION('',(0.,1.,0.));
#496=DIRECTION('',(0.,0.,1.));
#497=DIRECTION('',(0.,-1.,0.));
#498=DIRECTION('',(0.,0.,-1.));
#499=DIRECTION('',(0.,-1.,0.));
#500=DIRECTION('',(0.,0.,-1.));
#501=DIRECTION('',(0.,1.,0.));
#502=DIRECTION('',(0.,0.,1.));
#503=DIRECTION('',(0.,1.,0.));
#504=DIRECTION('',(0.,0.,1.));
#505=DIRECTION('',(0.,1.,0.));
#506=DIRECTION('',(0.,0.,1.));
#507=DIRECTION('',(0.,0.,1.));
#508=DIRECTION('',(1.,0.,0.));
#509=CARTESIAN_POINT('',(0.,0.,0.));
#510=CARTESIAN_POINT('',(5.,22.7,0.));
#511=CARTESIAN_POINT('',(0.,22.7,0.));
#512=CARTESIAN_POINT('',(0.,22.7,-3.));
#513=CARTESIAN_POINT('',(0.,22.7,0.));
#514=CARTESIAN_POINT('',(0.,22.7,-5.));
#515=CARTESIAN_POINT('',(0.,0.,0.));
#516=CARTESIAN_POINT('',(0.,0.,0.));
#517=CARTESIAN_POINT('',(0.,0.,-3.));
#518=CARTESIAN_POINT('',(3.,0.,0.));
#519=CARTESIAN_POINT('',(0.,0.,0.));
#520=CARTESIAN_POINT('',(0.,0.,-4.283));
#521=CARTESIAN_POINT('',(0.,0.,0.));
#522=CARTESIAN_POINT('',(0.,0.582,0.));
#523=CARTESIAN_POINT('',(0.,0.582,-4.865));
#524=CARTESIAN_POINT('',(0.,0.,0.));
#525=CARTESIAN_POINT('',(0.,8.218,0.));
#526=CARTESIAN_POINT('',(0.,8.218,-4.865));
#527=CARTESIAN_POINT('',(0.,8.218,0.));
#528=CARTESIAN_POINT('',(0.,8.8,0.));
#529=CARTESIAN_POINT('',(0.,8.8,-4.283));
#530=CARTESIAN_POINT('',(4.283,8.8,0.));
#531=CARTESIAN_POINT('',(0.,8.8,0.));
#532=CARTESIAN_POINT('',(0.,8.8,-4.165));
#533=CARTESIAN_POINT('',(0.,0.,0.));
#534=CARTESIAN_POINT('',(0.,10.,0.));
#535=CARTESIAN_POINT('',(0.,10.,-4.165));
#536=CARTESIAN_POINT('',(4.165,10.,0.));
#537=CARTESIAN_POINT('',(0.,10.,0.));
#538=CARTESIAN_POINT('',(0.,10.,-4.86602540378444));
#539=CARTESIAN_POINT('',(0.,0.,0.));
#540=CARTESIAN_POINT('',(0.,14.7,0.));
#541=CARTESIAN_POINT('',(0.,14.7,-5.));
#542=CARTESIAN_POINT('',(0.,10.5,0.));
#543=CARTESIAN_POINT('',(0.,10.5,-5.));
#544=CARTESIAN_POINT('',(5.,14.7,0.));
#545=CARTESIAN_POINT('',(0.,14.7,0.));
#546=CARTESIAN_POINT('',(0.,14.7,-9.5));
#547=CARTESIAN_POINT('',(0.,0.,0.));
#548=CARTESIAN_POINT('',(0.,17.7,0.));
#549=CARTESIAN_POINT('',(0.,17.7,-9.5));
#550=CARTESIAN_POINT('',(0.,17.7,0.));
#551=CARTESIAN_POINT('',(0.,18.7,0.));
#552=CARTESIAN_POINT('',(0.,18.7,-10.5));
#553=CARTESIAN_POINT('',(10.5,18.7,0.));
#554=CARTESIAN_POINT('',(0.,18.7,0.));
#555=CARTESIAN_POINT('',(0.,18.7,-18.));
#556=CARTESIAN_POINT('',(0.,0.,0.));
#557=CARTESIAN_POINT('',(0.,30.7,0.));
#558=CARTESIAN_POINT('',(0.,30.7,-19.5));
#559=CARTESIAN_POINT('',(0.,20.2,0.));
#560=CARTESIAN_POINT('',(0.,20.2,-19.5));
#561=CARTESIAN_POINT('',(19.5,30.7,0.));
#562=CARTESIAN_POINT('',(0.,30.7,0.));
#563=CARTESIAN_POINT('',(0.,30.7,-4.865));
#564=CARTESIAN_POINT('',(15.,30.7,0.));
#565=CARTESIAN_POINT('',(15.,30.7,1.5));
#566=CARTESIAN_POINT('',(-15.,30.7,0.));
#567=CARTESIAN_POINT('',(-15.,30.7,-1.5));
#568=CARTESIAN_POINT('',(0.,30.7,0.));
#569=CARTESIAN_POINT('',(0.,30.118,0.));
#570=CARTESIAN_POINT('',(0.,30.118,-4.283));
#571=CARTESIAN_POINT('',(0.,0.,0.));
#572=CARTESIAN_POINT('',(0.,24.032,0.));
#573=CARTESIAN_POINT('',(0.,24.032,-4.283));
#574=CARTESIAN_POINT('',(0.,24.032,0.));
#575=CARTESIAN_POINT('',(0.,23.45,0.));
#576=CARTESIAN_POINT('',(0.,23.45,-4.865));
#577=CARTESIAN_POINT('',(4.865,23.45,0.));
#578=CARTESIAN_POINT('',(0.,23.45,0.));
#579=CARTESIAN_POINT('',(0.,23.45,-5.));
#580=CARTESIAN_POINT('',(0.,0.,0.));
#581=CARTESIAN_POINT('',(15.,24.7987090714587,0.));
#582=CARTESIAN_POINT('',(15.,25.7,0.));
#583=CARTESIAN_POINT('',(15.,25.7,-1.5));
#584=CARTESIAN_POINT('',(15.,25.7,0.));
#585=CARTESIAN_POINT('',(15.,24.7987090714587,0.));
#586=CARTESIAN_POINT('',(-15.,24.7987090714587,0.));
#587=CARTESIAN_POINT('',(-15.,25.7,0.));
#588=CARTESIAN_POINT('',(-15.,25.7,-1.5));
#589=CARTESIAN_POINT('',(-15.,25.7,0.));
#590=CARTESIAN_POINT('',(-15.,24.7987090714587,0.));
#591=CARTESIAN_POINT('',(0.,20.2,0.));
#592=CARTESIAN_POINT('',(0.,10.5,0.));
#593=CARTESIAN_POINT('',(0.,-14.7,0.));
#594=MECHANICAL_DESIGN_GEOMETRIC_PRESENTATION_REPRESENTATION('',(#328),
#595);
#595=(
GEOMETRIC_REPRESENTATION_CONTEXT(3)
GLOBAL_UNCERTAINTY_ASSIGNED_CONTEXT((#597))
GLOBAL_UNIT_ASSIGNED_CONTEXT((#601,#600,#599))
REPRESENTATION_CONTEXT('555429 DADG-AK-90-1G18',
'TOP_LEVEL_ASSEMBLY_PART')
);
#596=(
GEOMETRIC_REPRESENTATION_CONTEXT(3)
GLOBAL_UNCERTAINTY_ASSIGNED_CONTEXT((#598))
GLOBAL_UNIT_ASSIGNED_CONTEXT((#601,#600,#599))
REPRESENTATION_CONTEXT('719814 DADG-AK-90-1G18','COMPONENT_PART')
);
#597=UNCERTAINTY_MEASURE_WITH_UNIT(LENGTH_MEASURE(0.005),#601,
'DISTANCE_ACCURACY_VALUE','Maximum Tolerance applied to model');
#598=UNCERTAINTY_MEASURE_WITH_UNIT(LENGTH_MEASURE(0.005),#601,
'DISTANCE_ACCURACY_VALUE','Maximum Tolerance applied to model');
#599=(
NAMED_UNIT(*)
SI_UNIT($,.STERADIAN.)
SOLID_ANGLE_UNIT()
);
#600=(
NAMED_UNIT(*)
PLANE_ANGLE_UNIT()
SI_UNIT($,.RADIAN.)
);
#601=(
LENGTH_UNIT()
NAMED_UNIT(*)
SI_UNIT(.MILLI.,.METRE.)
);
#602=PRODUCT_DEFINITION_SHAPE('','',#605);
#603=PRODUCT_DEFINITION_SHAPE('','',#606);
#604=PRODUCT_DEFINITION_SHAPE(' ','NAUO PRDDFN',#19);
#605=PRODUCT_DEFINITION('','',#609,#607);
#606=PRODUCT_DEFINITION('','',#610,#608);
#607=PRODUCT_DEFINITION_CONTEXT('',#620,'design');
#608=PRODUCT_DEFINITION_CONTEXT('',#620,'design');
#609=PRODUCT_DEFINITION_FORMATION_WITH_SPECIFIED_SOURCE('','',#613,
 .NOT_KNOWN.);
#610=PRODUCT_DEFINITION_FORMATION_WITH_SPECIFIED_SOURCE('','',#614,
 .NOT_KNOWN.);
#611=PRODUCT_RELATED_PRODUCT_CATEGORY('','',(#613));
#612=PRODUCT_RELATED_PRODUCT_CATEGORY('','',(#614));
#613=PRODUCT('555429 DADG-AK-90-1G18','555429 DADG-AK-90-1G18',
'555429 DADG-AK-90-1G18',(#617));
#614=PRODUCT('719814 DADG-AK-90-1G18','719814 DADG-AK-90-1G18',
'719814 DADG-AK-90-1G18',(#618));
#615=PRODUCT_CATEGORY('','');
#616=PRODUCT_CATEGORY('','');
#617=PRODUCT_CONTEXT('',#620,'mechanical');
#618=PRODUCT_CONTEXT('',#620,'mechanical');
#619=APPLICATION_PROTOCOL_DEFINITION('international standard',
'automotive_design',2010,#620);
#620=APPLICATION_CONTEXT(
'core data for automotive mechanical design processes');
ENDSEC;
END-ISO-10303-21;
