ISO-10303-21;
HEADER;
/* Generated by software containing ST-Developer
 * from STEP Tools, Inc. (www.steptools.com) 
 */
/* OPTION: using custom renumber hook */

FILE_DESCRIPTION(
/* description */ ('STEP AP214'),
/* implementation_level */ '2;1');

FILE_NAME(
/* name */ '555430_DADG-AK-140-1G14',
/* time_stamp */ '2024-08-12T16:33:04+02:00',
/* author */ ('License CC BY-ND 4.0'),
/* organization */ ('CADENAS'),
/* preprocessor_version */ 'ST-DEVELOPER v19.3',
/* originating_system */ 'PARTsolutions',
/* authorisation */ '  ');

FILE_SCHEMA (('AUTOMOTIVE_DESIGN {1 0 10303 214 3 1 1}'));
ENDSEC;

DATA;
#10=PROPERTY_DEFINITION_REPRESENTATION(#14,#12);
#11=PROPERTY_DEFINITION_REPRESENTATION(#15,#13);
#12=REPRESENTATION('',(#16),#575);
#13=REPRESENTATION('',(#17),#575);
#14=PROPERTY_DEFINITION('pmi validation property','',#582);
#15=PROPERTY_DEFINITION('pmi validation property','',#582);
#16=VALUE_REPRESENTATION_ITEM('number of annotations',COUNT_MEASURE(0.));
#17=VALUE_REPRESENTATION_ITEM('number of views',COUNT_MEASURE(0.));
#18=CONTEXT_DEPENDENT_SHAPE_REPRESENTATION(#20,#584);
#19=NEXT_ASSEMBLY_USAGE_OCCURRENCE('NAUO1','719815 DADG-AK-140-1G14',
'719815 DADG-AK-140-1G14',#585,#586,'');
#20=(
REPRESENTATION_RELATIONSHIP(' ',' ',#329,#328)
REPRESENTATION_RELATIONSHIP_WITH_TRANSFORMATION(#21)
SHAPE_REPRESENTATION_RELATIONSHIP()
);
#21=ITEM_DEFINED_TRANSFORMATION(' ',' ',#330,#383);
#22=SHAPE_REPRESENTATION_RELATIONSHIP('','',#329,#23);
#23=ADVANCED_BREP_SHAPE_REPRESENTATION('',(#325),#576);
#24=VERTEX_LOOP('',#147);
#25=VERTEX_LOOP('',#149);
#26=CONICAL_SURFACE('',#351,10.8865,0.785398163397446);
#27=CONICAL_SURFACE('',#355,11.5,0.785398163397451);
#28=CONICAL_SURFACE('',#363,6.58,0.785398163397441);
#29=CONICAL_SURFACE('',#375,5.7225,0.785398163397448);
#30=CONICAL_SURFACE('',#378,2.5,1.02974425867665);
#31=CONICAL_SURFACE('',#381,2.5,1.02974425867666);
#32=CONICAL_SURFACE('',#382,32.,0.523598775598299);
#33=TOROIDAL_SURFACE('',#341,19.,1.99999999999999);
#34=CYLINDRICAL_SURFACE('',#336,32.);
#35=CYLINDRICAL_SURFACE('',#343,17.);
#36=CYLINDRICAL_SURFACE('',#347,10.7);
#37=CYLINDRICAL_SURFACE('',#353,11.5);
#38=CYLINDRICAL_SURFACE('',#359,10.);
#39=CYLINDRICAL_SURFACE('',#365,5.7225);
#40=CYLINDRICAL_SURFACE('',#369,5.695);
#41=CYLINDRICAL_SURFACE('',#373,5.7225);
#42=CYLINDRICAL_SURFACE('',#376,2.5);
#43=CYLINDRICAL_SURFACE('',#379,2.5);
#44=ORIENTED_EDGE('',*,*,#96,.F.);
#45=ORIENTED_EDGE('',*,*,#97,.F.);
#46=ORIENTED_EDGE('',*,*,#98,.T.);
#47=ORIENTED_EDGE('',*,*,#99,.T.);
#48=ORIENTED_EDGE('',*,*,#100,.F.);
#49=ORIENTED_EDGE('',*,*,#96,.T.);
#50=ORIENTED_EDGE('',*,*,#101,.F.);
#51=ORIENTED_EDGE('',*,*,#102,.T.);
#52=ORIENTED_EDGE('',*,*,#103,.F.);
#53=ORIENTED_EDGE('',*,*,#101,.T.);
#54=ORIENTED_EDGE('',*,*,#104,.F.);
#55=ORIENTED_EDGE('',*,*,#103,.T.);
#56=ORIENTED_EDGE('',*,*,#105,.F.);
#57=ORIENTED_EDGE('',*,*,#104,.T.);
#58=ORIENTED_EDGE('',*,*,#106,.F.);
#59=ORIENTED_EDGE('',*,*,#105,.T.);
#60=ORIENTED_EDGE('',*,*,#107,.F.);
#61=ORIENTED_EDGE('',*,*,#106,.T.);
#62=ORIENTED_EDGE('',*,*,#108,.F.);
#63=ORIENTED_EDGE('',*,*,#107,.T.);
#64=ORIENTED_EDGE('',*,*,#109,.F.);
#65=ORIENTED_EDGE('',*,*,#108,.T.);
#66=ORIENTED_EDGE('',*,*,#110,.F.);
#67=ORIENTED_EDGE('',*,*,#109,.T.);
#68=ORIENTED_EDGE('',*,*,#111,.F.);
#69=ORIENTED_EDGE('',*,*,#110,.T.);
#70=ORIENTED_EDGE('',*,*,#112,.F.);
#71=ORIENTED_EDGE('',*,*,#111,.T.);
#72=ORIENTED_EDGE('',*,*,#113,.F.);
#73=ORIENTED_EDGE('',*,*,#112,.T.);
#74=ORIENTED_EDGE('',*,*,#114,.T.);
#75=ORIENTED_EDGE('',*,*,#99,.F.);
#76=ORIENTED_EDGE('',*,*,#115,.T.);
#77=ORIENTED_EDGE('',*,*,#114,.F.);
#78=ORIENTED_EDGE('',*,*,#116,.T.);
#79=ORIENTED_EDGE('',*,*,#115,.F.);
#80=ORIENTED_EDGE('',*,*,#117,.T.);
#81=ORIENTED_EDGE('',*,*,#116,.F.);
#82=ORIENTED_EDGE('',*,*,#118,.T.);
#83=ORIENTED_EDGE('',*,*,#117,.F.);
#84=ORIENTED_EDGE('',*,*,#119,.T.);
#85=ORIENTED_EDGE('',*,*,#118,.F.);
#86=ORIENTED_EDGE('',*,*,#113,.T.);
#87=ORIENTED_EDGE('',*,*,#119,.F.);
#88=ORIENTED_EDGE('',*,*,#120,.T.);
#89=ORIENTED_EDGE('',*,*,#97,.T.);
#90=ORIENTED_EDGE('',*,*,#120,.F.);
#91=ORIENTED_EDGE('',*,*,#121,.T.);
#92=ORIENTED_EDGE('',*,*,#98,.F.);
#93=ORIENTED_EDGE('',*,*,#121,.F.);
#94=ORIENTED_EDGE('',*,*,#102,.F.);
#95=ORIENTED_EDGE('',*,*,#100,.T.);
#96=EDGE_CURVE('',#122,#122,#150,.T.);
#97=EDGE_CURVE('',#123,#123,#151,.F.);
#98=EDGE_CURVE('',#124,#124,#152,.T.);
#99=EDGE_CURVE('',#125,#125,#153,.T.);
#100=EDGE_CURVE('',#126,#126,#154,.T.);
#101=EDGE_CURVE('',#127,#127,#155,.T.);
#102=EDGE_CURVE('',#128,#128,#156,.T.);
#103=EDGE_CURVE('',#129,#129,#157,.T.);
#104=EDGE_CURVE('',#130,#130,#158,.T.);
#105=EDGE_CURVE('',#131,#131,#159,.T.);
#106=EDGE_CURVE('',#132,#132,#160,.T.);
#107=EDGE_CURVE('',#133,#133,#161,.T.);
#108=EDGE_CURVE('',#134,#134,#162,.T.);
#109=EDGE_CURVE('',#135,#135,#163,.T.);
#110=EDGE_CURVE('',#136,#136,#164,.T.);
#111=EDGE_CURVE('',#137,#137,#165,.T.);
#112=EDGE_CURVE('',#138,#138,#166,.T.);
#113=EDGE_CURVE('',#139,#139,#167,.T.);
#114=EDGE_CURVE('',#140,#140,#168,.T.);
#115=EDGE_CURVE('',#141,#141,#169,.T.);
#116=EDGE_CURVE('',#142,#142,#170,.T.);
#117=EDGE_CURVE('',#143,#143,#171,.T.);
#118=EDGE_CURVE('',#144,#144,#172,.T.);
#119=EDGE_CURVE('',#145,#145,#173,.T.);
#120=EDGE_CURVE('',#146,#146,#174,.T.);
#121=EDGE_CURVE('',#148,#148,#175,.T.);
#122=VERTEX_POINT('',#495);
#123=VERTEX_POINT('',#497);
#124=VERTEX_POINT('',#499);
#125=VERTEX_POINT('',#501);
#126=VERTEX_POINT('',#504);
#127=VERTEX_POINT('',#507);
#128=VERTEX_POINT('',#509);
#129=VERTEX_POINT('',#512);
#130=VERTEX_POINT('',#515);
#131=VERTEX_POINT('',#518);
#132=VERTEX_POINT('',#521);
#133=VERTEX_POINT('',#524);
#134=VERTEX_POINT('',#527);
#135=VERTEX_POINT('',#530);
#136=VERTEX_POINT('',#533);
#137=VERTEX_POINT('',#536);
#138=VERTEX_POINT('',#539);
#139=VERTEX_POINT('',#542);
#140=VERTEX_POINT('',#545);
#141=VERTEX_POINT('',#548);
#142=VERTEX_POINT('',#551);
#143=VERTEX_POINT('',#554);
#144=VERTEX_POINT('',#557);
#145=VERTEX_POINT('',#560);
#146=VERTEX_POINT('',#564);
#147=VERTEX_POINT('',#566);
#148=VERTEX_POINT('',#569);
#149=VERTEX_POINT('',#571);
#150=CIRCLE('',#332,32.);
#151=CIRCLE('',#333,2.5);
#152=CIRCLE('',#334,2.5);
#153=CIRCLE('',#335,6.58);
#154=CIRCLE('',#337,32.);
#155=CIRCLE('',#339,19.);
#156=CIRCLE('',#340,29.1132486540519);
#157=CIRCLE('',#342,17.);
#158=CIRCLE('',#344,17.);
#159=CIRCLE('',#346,10.7);
#160=CIRCLE('',#348,10.7);
#161=CIRCLE('',#350,10.8865);
#162=CIRCLE('',#352,11.5);
#163=CIRCLE('',#354,11.5);
#164=CIRCLE('',#356,10.8865);
#165=CIRCLE('',#358,10.);
#166=CIRCLE('',#360,10.);
#167=CIRCLE('',#362,6.58);
#168=CIRCLE('',#364,5.7225);
#169=CIRCLE('',#366,5.7225);
#170=CIRCLE('',#368,5.695);
#171=CIRCLE('',#370,5.695);
#172=CIRCLE('',#372,5.7225);
#173=CIRCLE('',#374,5.7225);
#174=CIRCLE('',#377,2.5);
#175=CIRCLE('',#380,2.5);
#176=EDGE_LOOP('',(#44));
#177=EDGE_LOOP('',(#45));
#178=EDGE_LOOP('',(#46));
#179=EDGE_LOOP('',(#47));
#180=EDGE_LOOP('',(#48));
#181=EDGE_LOOP('',(#49));
#182=EDGE_LOOP('',(#50));
#183=EDGE_LOOP('',(#51));
#184=EDGE_LOOP('',(#52));
#185=EDGE_LOOP('',(#53));
#186=EDGE_LOOP('',(#54));
#187=EDGE_LOOP('',(#55));
#188=EDGE_LOOP('',(#56));
#189=EDGE_LOOP('',(#57));
#190=EDGE_LOOP('',(#58));
#191=EDGE_LOOP('',(#59));
#192=EDGE_LOOP('',(#60));
#193=EDGE_LOOP('',(#61));
#194=EDGE_LOOP('',(#62));
#195=EDGE_LOOP('',(#63));
#196=EDGE_LOOP('',(#64));
#197=EDGE_LOOP('',(#65));
#198=EDGE_LOOP('',(#66));
#199=EDGE_LOOP('',(#67));
#200=EDGE_LOOP('',(#68));
#201=EDGE_LOOP('',(#69));
#202=EDGE_LOOP('',(#70));
#203=EDGE_LOOP('',(#71));
#204=EDGE_LOOP('',(#72));
#205=EDGE_LOOP('',(#73));
#206=EDGE_LOOP('',(#74));
#207=EDGE_LOOP('',(#75));
#208=EDGE_LOOP('',(#76));
#209=EDGE_LOOP('',(#77));
#210=EDGE_LOOP('',(#78));
#211=EDGE_LOOP('',(#79));
#212=EDGE_LOOP('',(#80));
#213=EDGE_LOOP('',(#81));
#214=EDGE_LOOP('',(#82));
#215=EDGE_LOOP('',(#83));
#216=EDGE_LOOP('',(#84));
#217=EDGE_LOOP('',(#85));
#218=EDGE_LOOP('',(#86));
#219=EDGE_LOOP('',(#87));
#220=EDGE_LOOP('',(#88));
#221=EDGE_LOOP('',(#89));
#222=EDGE_LOOP('',(#90));
#223=EDGE_LOOP('',(#91));
#224=EDGE_LOOP('',(#92));
#225=EDGE_LOOP('',(#93));
#226=EDGE_LOOP('',(#94));
#227=EDGE_LOOP('',(#95));
#228=FACE_BOUND('',#176,.T.);
#229=FACE_BOUND('',#177,.T.);
#230=FACE_BOUND('',#178,.T.);
#231=FACE_BOUND('',#179,.T.);
#232=FACE_BOUND('',#180,.T.);
#233=FACE_BOUND('',#181,.T.);
#234=FACE_BOUND('',#182,.T.);
#235=FACE_BOUND('',#183,.T.);
#236=FACE_BOUND('',#184,.T.);
#237=FACE_BOUND('',#185,.T.);
#238=FACE_BOUND('',#186,.T.);
#239=FACE_BOUND('',#187,.T.);
#240=FACE_BOUND('',#188,.T.);
#241=FACE_BOUND('',#189,.T.);
#242=FACE_BOUND('',#190,.T.);
#243=FACE_BOUND('',#191,.T.);
#244=FACE_BOUND('',#192,.T.);
#245=FACE_BOUND('',#193,.T.);
#246=FACE_BOUND('',#194,.T.);
#247=FACE_BOUND('',#195,.T.);
#248=FACE_BOUND('',#196,.T.);
#249=FACE_BOUND('',#197,.T.);
#250=FACE_BOUND('',#198,.T.);
#251=FACE_BOUND('',#199,.T.);
#252=FACE_BOUND('',#200,.T.);
#253=FACE_BOUND('',#201,.T.);
#254=FACE_BOUND('',#202,.T.);
#255=FACE_BOUND('',#203,.T.);
#256=FACE_BOUND('',#204,.T.);
#257=FACE_BOUND('',#205,.T.);
#258=FACE_BOUND('',#206,.T.);
#259=FACE_BOUND('',#207,.T.);
#260=FACE_BOUND('',#208,.T.);
#261=FACE_BOUND('',#209,.T.);
#262=FACE_BOUND('',#210,.T.);
#263=FACE_BOUND('',#211,.T.);
#264=FACE_BOUND('',#212,.T.);
#265=FACE_BOUND('',#213,.T.);
#266=FACE_BOUND('',#214,.T.);
#267=FACE_BOUND('',#215,.T.);
#268=FACE_BOUND('',#216,.T.);
#269=FACE_BOUND('',#217,.T.);
#270=FACE_BOUND('',#218,.T.);
#271=FACE_BOUND('',#219,.T.);
#272=FACE_BOUND('',#220,.T.);
#273=FACE_BOUND('',#221,.T.);
#274=FACE_BOUND('',#24,.T.);
#275=FACE_BOUND('',#222,.T.);
#276=FACE_BOUND('',#223,.T.);
#277=FACE_BOUND('',#224,.T.);
#278=FACE_BOUND('',#25,.T.);
#279=FACE_BOUND('',#225,.T.);
#280=FACE_BOUND('',#226,.T.);
#281=FACE_BOUND('',#227,.T.);
#282=PLANE('',#331);
#283=PLANE('',#338);
#284=PLANE('',#345);
#285=PLANE('',#349);
#286=PLANE('',#357);
#287=PLANE('',#361);
#288=PLANE('',#367);
#289=PLANE('',#371);
#290=ADVANCED_FACE('',(#228,#229,#230,#231),#282,.F.);
#291=ADVANCED_FACE('',(#232,#233),#34,.T.);
#292=ADVANCED_FACE('',(#234,#235),#283,.F.);
#293=ADVANCED_FACE('',(#236,#237),#33,.F.);
#294=ADVANCED_FACE('',(#238,#239),#35,.T.);
#295=ADVANCED_FACE('',(#240,#241),#284,.F.);
#296=ADVANCED_FACE('',(#242,#243),#36,.T.);
#297=ADVANCED_FACE('',(#244,#245),#285,.F.);
#298=ADVANCED_FACE('',(#246,#247),#26,.T.);
#299=ADVANCED_FACE('',(#248,#249),#37,.T.);
#300=ADVANCED_FACE('',(#250,#251),#27,.T.);
#301=ADVANCED_FACE('',(#252,#253),#286,.F.);
#302=ADVANCED_FACE('',(#254,#255),#38,.T.);
#303=ADVANCED_FACE('',(#256,#257),#287,.F.);
#304=ADVANCED_FACE('',(#258,#259),#28,.F.);
#305=ADVANCED_FACE('',(#260,#261),#39,.F.);
#306=ADVANCED_FACE('',(#262,#263),#288,.T.);
#307=ADVANCED_FACE('',(#264,#265),#40,.F.);
#308=ADVANCED_FACE('',(#266,#267),#289,.T.);
#309=ADVANCED_FACE('',(#268,#269),#41,.F.);
#310=ADVANCED_FACE('',(#270,#271),#29,.F.);
#311=ADVANCED_FACE('',(#272,#273),#42,.F.);
#312=ADVANCED_FACE('',(#274,#275),#30,.F.);
#313=ADVANCED_FACE('',(#276,#277),#43,.F.);
#314=ADVANCED_FACE('',(#278,#279),#31,.F.);
#315=ADVANCED_FACE('',(#280,#281),#32,.T.);
#316=CLOSED_SHELL('',(#290,#291,#292,#293,#294,#295,#296,#297,#298,#299,
#300,#301,#302,#303,#304,#305,#306,#307,#308,#309,#310,#311,#312,#313,#314,
#315));
#317=STYLED_ITEM('',(#318),#325);
#318=PRESENTATION_STYLE_ASSIGNMENT((#319));
#319=SURFACE_STYLE_USAGE(.BOTH.,#320);
#320=SURFACE_SIDE_STYLE('',(#321));
#321=SURFACE_STYLE_FILL_AREA(#322);
#322=FILL_AREA_STYLE('',(#323));
#323=FILL_AREA_STYLE_COLOUR('',#324);
#324=COLOUR_RGB('',0.689999997615814,0.689999997615814,0.689999997615814);
#325=MANIFOLD_SOLID_BREP('719815 DADG-AK-140-1G14',#316);
#326=SHAPE_DEFINITION_REPRESENTATION(#582,#328);
#327=SHAPE_DEFINITION_REPRESENTATION(#583,#329);
#328=SHAPE_REPRESENTATION('555430 DADG-AK-140-1G14',(#330,#383),#575);
#329=SHAPE_REPRESENTATION('719815 DADG-AK-140-1G14',(#330),#576);
#330=AXIS2_PLACEMENT_3D('',#492,#384,#385);
#331=AXIS2_PLACEMENT_3D('',#493,#386,#387);
#332=AXIS2_PLACEMENT_3D('',#494,#388,#389);
#333=AXIS2_PLACEMENT_3D('',#496,#390,#391);
#334=AXIS2_PLACEMENT_3D('',#498,#392,#393);
#335=AXIS2_PLACEMENT_3D('',#500,#394,#395);
#336=AXIS2_PLACEMENT_3D('',#502,#396,#397);
#337=AXIS2_PLACEMENT_3D('',#503,#398,#399);
#338=AXIS2_PLACEMENT_3D('',#505,#400,#401);
#339=AXIS2_PLACEMENT_3D('',#506,#402,#403);
#340=AXIS2_PLACEMENT_3D('',#508,#404,#405);
#341=AXIS2_PLACEMENT_3D('',#510,#406,#407);
#342=AXIS2_PLACEMENT_3D('',#511,#408,#409);
#343=AXIS2_PLACEMENT_3D('',#513,#410,#411);
#344=AXIS2_PLACEMENT_3D('',#514,#412,#413);
#345=AXIS2_PLACEMENT_3D('',#516,#414,#415);
#346=AXIS2_PLACEMENT_3D('',#517,#416,#417);
#347=AXIS2_PLACEMENT_3D('',#519,#418,#419);
#348=AXIS2_PLACEMENT_3D('',#520,#420,#421);
#349=AXIS2_PLACEMENT_3D('',#522,#422,#423);
#350=AXIS2_PLACEMENT_3D('',#523,#424,#425);
#351=AXIS2_PLACEMENT_3D('',#525,#426,#427);
#352=AXIS2_PLACEMENT_3D('',#526,#428,#429);
#353=AXIS2_PLACEMENT_3D('',#528,#430,#431);
#354=AXIS2_PLACEMENT_3D('',#529,#432,#433);
#355=AXIS2_PLACEMENT_3D('',#531,#434,#435);
#356=AXIS2_PLACEMENT_3D('',#532,#436,#437);
#357=AXIS2_PLACEMENT_3D('',#534,#438,#439);
#358=AXIS2_PLACEMENT_3D('',#535,#440,#441);
#359=AXIS2_PLACEMENT_3D('',#537,#442,#443);
#360=AXIS2_PLACEMENT_3D('',#538,#444,#445);
#361=AXIS2_PLACEMENT_3D('',#540,#446,#447);
#362=AXIS2_PLACEMENT_3D('',#541,#448,#449);
#363=AXIS2_PLACEMENT_3D('',#543,#450,#451);
#364=AXIS2_PLACEMENT_3D('',#544,#452,#453);
#365=AXIS2_PLACEMENT_3D('',#546,#454,#455);
#366=AXIS2_PLACEMENT_3D('',#547,#456,#457);
#367=AXIS2_PLACEMENT_3D('',#549,#458,#459);
#368=AXIS2_PLACEMENT_3D('',#550,#460,#461);
#369=AXIS2_PLACEMENT_3D('',#552,#462,#463);
#370=AXIS2_PLACEMENT_3D('',#553,#464,#465);
#371=AXIS2_PLACEMENT_3D('',#555,#466,#467);
#372=AXIS2_PLACEMENT_3D('',#556,#468,#469);
#373=AXIS2_PLACEMENT_3D('',#558,#470,#471);
#374=AXIS2_PLACEMENT_3D('',#559,#472,#473);
#375=AXIS2_PLACEMENT_3D('',#561,#474,#475);
#376=AXIS2_PLACEMENT_3D('',#562,#476,#477);
#377=AXIS2_PLACEMENT_3D('',#563,#478,#479);
#378=AXIS2_PLACEMENT_3D('',#565,#480,#481);
#379=AXIS2_PLACEMENT_3D('',#567,#482,#483);
#380=AXIS2_PLACEMENT_3D('',#568,#484,#485);
#381=AXIS2_PLACEMENT_3D('',#570,#486,#487);
#382=AXIS2_PLACEMENT_3D('',#572,#488,#489);
#383=AXIS2_PLACEMENT_3D('',#573,#490,#491);
#384=DIRECTION('',(0.,0.,1.));
#385=DIRECTION('',(1.,0.,0.));
#386=DIRECTION('',(0.,-1.,0.));
#387=DIRECTION('',(0.,0.,-1.));
#388=DIRECTION('',(0.,-1.,0.));
#389=DIRECTION('',(0.,0.,-1.));
#390=DIRECTION('',(0.,-1.,0.));
#391=DIRECTION('',(0.,0.,-1.));
#392=DIRECTION('',(0.,-1.,0.));
#393=DIRECTION('',(0.,0.,-1.));
#394=DIRECTION('',(0.,-1.,0.));
#395=DIRECTION('',(0.,0.,-1.));
#396=DIRECTION('',(0.,-1.,0.));
#397=DIRECTION('',(0.,0.,-1.));
#398=DIRECTION('',(0.,-1.,0.));
#399=DIRECTION('',(0.,0.,-1.));
#400=DIRECTION('',(0.,1.,0.));
#401=DIRECTION('',(0.,0.,1.));
#402=DIRECTION('',(0.,-1.,0.));
#403=DIRECTION('',(0.,0.,-1.));
#404=DIRECTION('',(0.,-1.,0.));
#405=DIRECTION('',(0.,0.,-1.));
#406=DIRECTION('',(0.,-1.,0.));
#407=DIRECTION('',(0.,0.,-1.));
#408=DIRECTION('',(0.,-1.,0.));
#409=DIRECTION('',(0.,0.,-1.));
#410=DIRECTION('',(0.,-1.,0.));
#411=DIRECTION('',(0.,0.,-1.));
#412=DIRECTION('',(0.,-1.,0.));
#413=DIRECTION('',(0.,0.,-1.));
#414=DIRECTION('',(0.,1.,0.));
#415=DIRECTION('',(0.,0.,1.));
#416=DIRECTION('',(0.,-1.,0.));
#417=DIRECTION('',(0.,0.,-1.));
#418=DIRECTION('',(0.,-1.,0.));
#419=DIRECTION('',(0.,0.,-1.));
#420=DIRECTION('',(0.,-1.,0.));
#421=DIRECTION('',(0.,0.,-1.));
#422=DIRECTION('',(0.,-1.,0.));
#423=DIRECTION('',(0.,0.,-1.));
#424=DIRECTION('',(0.,-1.,0.));
#425=DIRECTION('',(0.,0.,-1.));
#426=DIRECTION('',(0.,-1.,0.));
#427=DIRECTION('',(0.,0.,-1.));
#428=DIRECTION('',(0.,-1.,0.));
#429=DIRECTION('',(0.,0.,-1.));
#430=DIRECTION('',(0.,-1.,0.));
#431=DIRECTION('',(0.,0.,-1.));
#432=DIRECTION('',(0.,-1.,0.));
#433=DIRECTION('',(0.,0.,-1.));
#434=DIRECTION('',(0.,1.,0.));
#435=DIRECTION('',(0.,0.,1.));
#436=DIRECTION('',(0.,-1.,0.));
#437=DIRECTION('',(0.,0.,-1.));
#438=DIRECTION('',(0.,1.,0.));
#439=DIRECTION('',(0.,0.,1.));
#440=DIRECTION('',(0.,-1.,0.));
#441=DIRECTION('',(0.,0.,-1.));
#442=DIRECTION('',(0.,-1.,0.));
#443=DIRECTION('',(0.,0.,-1.));
#444=DIRECTION('',(0.,-1.,0.));
#445=DIRECTION('',(0.,0.,-1.));
#446=DIRECTION('',(0.,1.,0.));
#447=DIRECTION('',(0.,0.,1.));
#448=DIRECTION('',(0.,-1.,0.));
#449=DIRECTION('',(0.,0.,-1.));
#450=DIRECTION('',(0.,1.,0.));
#451=DIRECTION('',(0.,0.,1.));
#452=DIRECTION('',(0.,-1.,0.));
#453=DIRECTION('',(0.,0.,-1.));
#454=DIRECTION('',(0.,-1.,0.));
#455=DIRECTION('',(0.,0.,-1.));
#456=DIRECTION('',(0.,-1.,0.));
#457=DIRECTION('',(0.,0.,-1.));
#458=DIRECTION('',(0.,1.,0.));
#459=DIRECTION('',(0.,0.,1.));
#460=DIRECTION('',(0.,-1.,0.));
#461=DIRECTION('',(0.,0.,-1.));
#462=DIRECTION('',(0.,-1.,0.));
#463=DIRECTION('',(0.,0.,-1.));
#464=DIRECTION('',(0.,-1.,0.));
#465=DIRECTION('',(0.,0.,-1.));
#466=DIRECTION('',(0.,-1.,0.));
#467=DIRECTION('',(0.,0.,-1.));
#468=DIRECTION('',(0.,-1.,0.));
#469=DIRECTION('',(0.,0.,-1.));
#470=DIRECTION('',(0.,-1.,0.));
#471=DIRECTION('',(0.,0.,-1.));
#472=DIRECTION('',(0.,-1.,0.));
#473=DIRECTION('',(0.,0.,-1.));
#474=DIRECTION('',(0.,-1.,0.));
#475=DIRECTION('',(0.,0.,-1.));
#476=DIRECTION('',(0.,-1.,0.));
#477=DIRECTION('',(0.,0.,-1.));
#478=DIRECTION('',(0.,-1.,0.));
#479=DIRECTION('',(0.,0.,-1.));
#480=DIRECTION('',(0.,1.,0.));
#481=DIRECTION('',(0.,0.,1.));
#482=DIRECTION('',(0.,-1.,0.));
#483=DIRECTION('',(0.,0.,-1.));
#484=DIRECTION('',(0.,-1.,0.));
#485=DIRECTION('',(0.,0.,-1.));
#486=DIRECTION('',(0.,1.,0.));
#487=DIRECTION('',(0.,0.,1.));
#488=DIRECTION('',(0.,1.,0.));
#489=DIRECTION('',(0.,0.,1.));
#490=DIRECTION('',(0.,0.,1.));
#491=DIRECTION('',(1.,0.,0.));
#492=CARTESIAN_POINT('',(0.,0.,0.));
#493=CARTESIAN_POINT('',(0.,72.,0.));
#494=CARTESIAN_POINT('',(0.,72.,0.));
#495=CARTESIAN_POINT('',(0.,72.,-32.));
#496=CARTESIAN_POINT('',(25.,72.,0.));
#497=CARTESIAN_POINT('',(25.,72.,-2.5));
#498=CARTESIAN_POINT('',(-25.,72.,0.));
#499=CARTESIAN_POINT('',(-25.,72.,-2.5));
#500=CARTESIAN_POINT('',(0.,72.,0.));
#501=CARTESIAN_POINT('',(0.,72.,-6.58));
#502=CARTESIAN_POINT('',(0.,50.,0.));
#503=CARTESIAN_POINT('',(0.,60.,0.));
#504=CARTESIAN_POINT('',(0.,60.,-32.));
#505=CARTESIAN_POINT('',(32.,55.,0.));
#506=CARTESIAN_POINT('',(0.,55.,0.));
#507=CARTESIAN_POINT('',(0.,55.,-19.));
#508=CARTESIAN_POINT('',(0.,55.,0.));
#509=CARTESIAN_POINT('',(0.,55.,-29.1132486540519));
#510=CARTESIAN_POINT('',(0.,53.,0.));
#511=CARTESIAN_POINT('',(0.,53.,0.));
#512=CARTESIAN_POINT('',(0.,53.,-17.));
#513=CARTESIAN_POINT('',(0.,50.,0.));
#514=CARTESIAN_POINT('',(0.,50.,0.));
#515=CARTESIAN_POINT('',(0.,50.,-17.));
#516=CARTESIAN_POINT('',(17.,50.,0.));
#517=CARTESIAN_POINT('',(0.,50.,0.));
#518=CARTESIAN_POINT('',(0.,50.,-10.7));
#519=CARTESIAN_POINT('',(0.,0.,0.));
#520=CARTESIAN_POINT('',(0.,47.7,0.));
#521=CARTESIAN_POINT('',(0.,47.7,-10.7));
#522=CARTESIAN_POINT('',(10.7,47.7,0.));
#523=CARTESIAN_POINT('',(0.,47.7,0.));
#524=CARTESIAN_POINT('',(0.,47.7,-10.8865));
#525=CARTESIAN_POINT('',(0.,47.7,0.));
#526=CARTESIAN_POINT('',(0.,47.0865,0.));
#527=CARTESIAN_POINT('',(0.,47.0865,-11.5));
#528=CARTESIAN_POINT('',(0.,0.,0.));
#529=CARTESIAN_POINT('',(0.,40.6135,0.));
#530=CARTESIAN_POINT('',(0.,40.6135,-11.5));
#531=CARTESIAN_POINT('',(0.,40.6135,0.));
#532=CARTESIAN_POINT('',(0.,40.,0.));
#533=CARTESIAN_POINT('',(0.,40.,-10.8865));
#534=CARTESIAN_POINT('',(10.8865,40.,0.));
#535=CARTESIAN_POINT('',(0.,40.,0.));
#536=CARTESIAN_POINT('',(0.,40.,-10.));
#537=CARTESIAN_POINT('',(0.,0.,0.));
#538=CARTESIAN_POINT('',(0.,0.,0.));
#539=CARTESIAN_POINT('',(0.,0.,-10.));
#540=CARTESIAN_POINT('',(10.,0.,0.));
#541=CARTESIAN_POINT('',(0.,0.,0.));
#542=CARTESIAN_POINT('',(0.,0.,-6.58));
#543=CARTESIAN_POINT('',(0.,72.,0.));
#544=CARTESIAN_POINT('',(0.,71.1425,0.));
#545=CARTESIAN_POINT('',(0.,71.1425,-5.7225));
#546=CARTESIAN_POINT('',(0.,0.,0.));
#547=CARTESIAN_POINT('',(0.,60.,0.));
#548=CARTESIAN_POINT('',(0.,60.,-5.7225));
#549=CARTESIAN_POINT('',(5.7225,60.,0.));
#550=CARTESIAN_POINT('',(0.,60.,0.));
#551=CARTESIAN_POINT('',(0.,60.,-5.695));
#552=CARTESIAN_POINT('',(0.,0.,0.));
#553=CARTESIAN_POINT('',(0.,12.,0.));
#554=CARTESIAN_POINT('',(0.,12.,-5.695));
#555=CARTESIAN_POINT('',(5.695,12.,0.));
#556=CARTESIAN_POINT('',(0.,12.,0.));
#557=CARTESIAN_POINT('',(0.,12.,-5.7225));
#558=CARTESIAN_POINT('',(0.,0.,0.));
#559=CARTESIAN_POINT('',(0.,0.857500000000001,0.));
#560=CARTESIAN_POINT('',(0.,0.857500000000001,-5.7225));
#561=CARTESIAN_POINT('',(0.,0.857500000000001,0.));
#562=CARTESIAN_POINT('',(25.,63.4978484524311,0.));
#563=CARTESIAN_POINT('',(25.,65.,0.));
#564=CARTESIAN_POINT('',(25.,65.,-2.5));
#565=CARTESIAN_POINT('',(25.,65.,0.));
#566=CARTESIAN_POINT('',(25.,63.4978484524311,0.));
#567=CARTESIAN_POINT('',(-25.,63.4978484524311,0.));
#568=CARTESIAN_POINT('',(-25.,65.,0.));
#569=CARTESIAN_POINT('',(-25.,65.,-2.5));
#570=CARTESIAN_POINT('',(-25.,65.,0.));
#571=CARTESIAN_POINT('',(-25.,63.4978484524311,0.));
#572=CARTESIAN_POINT('',(0.,60.,0.));
#573=CARTESIAN_POINT('',(0.,-50.,0.));
#574=MECHANICAL_DESIGN_GEOMETRIC_PRESENTATION_REPRESENTATION('',(#317),
#575);
#575=(
GEOMETRIC_REPRESENTATION_CONTEXT(3)
GLOBAL_UNCERTAINTY_ASSIGNED_CONTEXT((#577))
GLOBAL_UNIT_ASSIGNED_CONTEXT((#581,#580,#579))
REPRESENTATION_CONTEXT('555430 DADG-AK-140-1G14',
'TOP_LEVEL_ASSEMBLY_PART')
);
#576=(
GEOMETRIC_REPRESENTATION_CONTEXT(3)
GLOBAL_UNCERTAINTY_ASSIGNED_CONTEXT((#578))
GLOBAL_UNIT_ASSIGNED_CONTEXT((#581,#580,#579))
REPRESENTATION_CONTEXT('719815 DADG-AK-140-1G14','COMPONENT_PART')
);
#577=UNCERTAINTY_MEASURE_WITH_UNIT(LENGTH_MEASURE(0.005),#581,
'DISTANCE_ACCURACY_VALUE','Maximum Tolerance applied to model');
#578=UNCERTAINTY_MEASURE_WITH_UNIT(LENGTH_MEASURE(0.005),#581,
'DISTANCE_ACCURACY_VALUE','Maximum Tolerance applied to model');
#579=(
NAMED_UNIT(*)
SI_UNIT($,.STERADIAN.)
SOLID_ANGLE_UNIT()
);
#580=(
NAMED_UNIT(*)
PLANE_ANGLE_UNIT()
SI_UNIT($,.RADIAN.)
);
#581=(
LENGTH_UNIT()
NAMED_UNIT(*)
SI_UNIT(.MILLI.,.METRE.)
);
#582=PRODUCT_DEFINITION_SHAPE('','',#585);
#583=PRODUCT_DEFINITION_SHAPE('','',#586);
#584=PRODUCT_DEFINITION_SHAPE(' ','NAUO PRDDFN',#19);
#585=PRODUCT_DEFINITION('','',#589,#587);
#586=PRODUCT_DEFINITION('','',#590,#588);
#587=PRODUCT_DEFINITION_CONTEXT('',#600,'design');
#588=PRODUCT_DEFINITION_CONTEXT('',#600,'design');
#589=PRODUCT_DEFINITION_FORMATION_WITH_SPECIFIED_SOURCE('','',#593,
 .NOT_KNOWN.);
#590=PRODUCT_DEFINITION_FORMATION_WITH_SPECIFIED_SOURCE('','',#594,
 .NOT_KNOWN.);
#591=PRODUCT_RELATED_PRODUCT_CATEGORY('','',(#593));
#592=PRODUCT_RELATED_PRODUCT_CATEGORY('','',(#594));
#593=PRODUCT('555430 DADG-AK-140-1G14','555430 DADG-AK-140-1G14',
'555430 DADG-AK-140-1G14',(#597));
#594=PRODUCT('719815 DADG-AK-140-1G14','719815 DADG-AK-140-1G14',
'719815 DADG-AK-140-1G14',(#598));
#595=PRODUCT_CATEGORY('','');
#596=PRODUCT_CATEGORY('','');
#597=PRODUCT_CONTEXT('',#600,'mechanical');
#598=PRODUCT_CONTEXT('',#600,'mechanical');
#599=APPLICATION_PROTOCOL_DEFINITION('international standard',
'automotive_design',2010,#600);
#600=APPLICATION_CONTEXT(
'core data for automotive mechanical design processes');
ENDSEC;
END-ISO-10303-21;
