ISO-10303-21;
HEADER;
/* Generated by software containing ST-Developer
 * from STEP Tools, Inc. (www.steptools.com) 
 */
/* OPTION: using custom renumber hook */

FILE_DESCRIPTION(
/* description */ ('STEP AP214'),
/* implementation_level */ '2;1');

FILE_NAME(
/* name */ '558045_ABAN-3-1_M3-4-M-P1',
/* time_stamp */ '2024-07-24T13:13:20+02:00',
/* author */ ('License CC BY-ND 4.0'),
/* organization */ ('CADENAS'),
/* preprocessor_version */ 'ST-DEVELOPER v19.3',
/* originating_system */ 'PARTsolutions',
/* authorisation */ '  ');

FILE_SCHEMA (('AUTOMOTIVE_DESIGN {1 0 10303 214 3 1 1}'));
ENDSEC;

DATA;
#10=PROPERTY_DEFINITION_REPRESENTATION(#14,#12);
#11=PROPERTY_DEFINITION_REPRESENTATION(#15,#13);
#12=REPRESENTATION('',(#16),#429);
#13=REPRESENTATION('',(#17),#429);
#14=PROPERTY_DEFINITION('pmi validation property','',#434);
#15=PROPERTY_DEFINITION('pmi validation property','',#434);
#16=VALUE_REPRESENTATION_ITEM('number of annotations',COUNT_MEASURE(0.));
#17=VALUE_REPRESENTATION_ITEM('number of views',COUNT_MEASURE(0.));
#18=SHAPE_REPRESENTATION_RELATIONSHIP('','',#257,#19);
#19=ADVANCED_BREP_SHAPE_REPRESENTATION('',(#255),#429);
#20=CONICAL_SURFACE('',#283,1.2295,0.785398163397449);
#21=PLANE('',#262);
#22=PLANE('',#267);
#23=PLANE('',#271);
#24=PLANE('',#276);
#25=PLANE('',#277);
#26=PLANE('',#279);
#27=PLANE('',#280);
#28=CIRCLE('',#260,0.400000000000001);
#29=CIRCLE('',#261,0.400000000000001);
#30=CIRCLE('',#263,1.2295);
#31=CIRCLE('',#265,0.4);
#32=CIRCLE('',#266,0.4);
#33=CIRCLE('',#269,0.4);
#34=CIRCLE('',#270,0.4);
#35=CIRCLE('',#272,1.65);
#36=CIRCLE('',#274,0.4);
#37=CIRCLE('',#275,0.4);
#38=CIRCLE('',#278,1.2295);
#39=CIRCLE('',#282,1.2295);
#40=LINE('',#362,#58);
#41=LINE('',#366,#59);
#42=LINE('',#370,#60);
#43=LINE('',#374,#61);
#44=LINE('',#376,#62);
#45=LINE('',#385,#63);
#46=LINE('',#389,#64);
#47=LINE('',#391,#65);
#48=LINE('',#393,#66);
#49=LINE('',#395,#67);
#50=LINE('',#399,#68);
#51=LINE('',#405,#69);
#52=LINE('',#407,#70);
#53=LINE('',#409,#71);
#54=LINE('',#413,#72);
#55=LINE('',#417,#73);
#56=LINE('',#418,#74);
#57=LINE('',#421,#75);
#58=VECTOR('',#288,1000.);
#59=VECTOR('',#291,1000.);
#60=VECTOR('',#294,1000.);
#61=VECTOR('',#299,1000.);
#62=VECTOR('',#300,1000.);
#63=VECTOR('',#305,1000.);
#64=VECTOR('',#308,1000.);
#65=VECTOR('',#311,1000.);
#66=VECTOR('',#312,1000.);
#67=VECTOR('',#313,1000.);
#68=VECTOR('',#318,1000.);
#69=VECTOR('',#325,1000.);
#70=VECTOR('',#326,1000.);
#71=VECTOR('',#327,1000.);
#72=VECTOR('',#332,1000.);
#73=VECTOR('',#337,1000.);
#74=VECTOR('',#338,1000.);
#75=VECTOR('',#343,1000.);
#76=ORIENTED_EDGE('',*,*,#140,.T.);
#77=ORIENTED_EDGE('',*,*,#141,.F.);
#78=ORIENTED_EDGE('',*,*,#142,.F.);
#79=ORIENTED_EDGE('',*,*,#143,.T.);
#80=ORIENTED_EDGE('',*,*,#144,.T.);
#81=ORIENTED_EDGE('',*,*,#145,.F.);
#82=ORIENTED_EDGE('',*,*,#146,.T.);
#83=ORIENTED_EDGE('',*,*,#145,.T.);
#84=ORIENTED_EDGE('',*,*,#147,.T.);
#85=ORIENTED_EDGE('',*,*,#148,.F.);
#86=ORIENTED_EDGE('',*,*,#149,.F.);
#87=ORIENTED_EDGE('',*,*,#148,.T.);
#88=ORIENTED_EDGE('',*,*,#150,.T.);
#89=ORIENTED_EDGE('',*,*,#151,.F.);
#90=ORIENTED_EDGE('',*,*,#152,.F.);
#91=ORIENTED_EDGE('',*,*,#153,.T.);
#92=ORIENTED_EDGE('',*,*,#154,.T.);
#93=ORIENTED_EDGE('',*,*,#155,.F.);
#94=ORIENTED_EDGE('',*,*,#156,.F.);
#95=ORIENTED_EDGE('',*,*,#151,.T.);
#96=ORIENTED_EDGE('',*,*,#157,.T.);
#97=ORIENTED_EDGE('',*,*,#158,.F.);
#98=ORIENTED_EDGE('',*,*,#159,.F.);
#99=ORIENTED_EDGE('',*,*,#155,.T.);
#100=ORIENTED_EDGE('',*,*,#160,.F.);
#101=ORIENTED_EDGE('',*,*,#161,.T.);
#102=ORIENTED_EDGE('',*,*,#162,.F.);
#103=ORIENTED_EDGE('',*,*,#163,.F.);
#104=ORIENTED_EDGE('',*,*,#158,.T.);
#105=ORIENTED_EDGE('',*,*,#164,.T.);
#106=ORIENTED_EDGE('',*,*,#165,.F.);
#107=ORIENTED_EDGE('',*,*,#166,.F.);
#108=ORIENTED_EDGE('',*,*,#162,.T.);
#109=ORIENTED_EDGE('',*,*,#167,.T.);
#110=ORIENTED_EDGE('',*,*,#143,.F.);
#111=ORIENTED_EDGE('',*,*,#168,.F.);
#112=ORIENTED_EDGE('',*,*,#165,.T.);
#113=ORIENTED_EDGE('',*,*,#169,.T.);
#114=ORIENTED_EDGE('',*,*,#153,.F.);
#115=ORIENTED_EDGE('',*,*,#170,.F.);
#116=ORIENTED_EDGE('',*,*,#141,.T.);
#117=ORIENTED_EDGE('',*,*,#156,.T.);
#118=ORIENTED_EDGE('',*,*,#159,.T.);
#119=ORIENTED_EDGE('',*,*,#163,.T.);
#120=ORIENTED_EDGE('',*,*,#166,.T.);
#121=ORIENTED_EDGE('',*,*,#168,.T.);
#122=ORIENTED_EDGE('',*,*,#142,.T.);
#123=ORIENTED_EDGE('',*,*,#170,.T.);
#124=ORIENTED_EDGE('',*,*,#152,.T.);
#125=ORIENTED_EDGE('',*,*,#154,.F.);
#126=ORIENTED_EDGE('',*,*,#150,.F.);
#127=ORIENTED_EDGE('',*,*,#147,.F.);
#128=ORIENTED_EDGE('',*,*,#144,.F.);
#129=ORIENTED_EDGE('',*,*,#167,.F.);
#130=ORIENTED_EDGE('',*,*,#164,.F.);
#131=ORIENTED_EDGE('',*,*,#161,.F.);
#132=ORIENTED_EDGE('',*,*,#157,.F.);
#133=ORIENTED_EDGE('',*,*,#171,.T.);
#134=ORIENTED_EDGE('',*,*,#140,.F.);
#135=ORIENTED_EDGE('',*,*,#146,.F.);
#136=ORIENTED_EDGE('',*,*,#149,.T.);
#137=ORIENTED_EDGE('',*,*,#169,.F.);
#138=ORIENTED_EDGE('',*,*,#160,.T.);
#139=ORIENTED_EDGE('',*,*,#171,.F.);
#140=EDGE_CURVE('',#172,#173,#194,.F.);
#141=EDGE_CURVE('',#174,#173,#40,.T.);
#142=EDGE_CURVE('',#175,#174,#28,.T.);
#143=EDGE_CURVE('',#175,#176,#41,.T.);
#144=EDGE_CURVE('',#176,#177,#29,.T.);
#145=EDGE_CURVE('',#172,#177,#42,.T.);
#146=EDGE_CURVE('',#178,#172,#30,.T.);
#147=EDGE_CURVE('',#177,#179,#43,.T.);
#148=EDGE_CURVE('',#178,#179,#44,.T.);
#149=EDGE_CURVE('',#178,#180,#195,.T.);
#150=EDGE_CURVE('',#179,#181,#31,.T.);
#151=EDGE_CURVE('',#182,#181,#45,.T.);
#152=EDGE_CURVE('',#183,#182,#32,.T.);
#153=EDGE_CURVE('',#183,#180,#46,.T.);
#154=EDGE_CURVE('',#181,#184,#47,.T.);
#155=EDGE_CURVE('',#185,#184,#48,.T.);
#156=EDGE_CURVE('',#182,#185,#49,.T.);
#157=EDGE_CURVE('',#184,#186,#33,.T.);
#158=EDGE_CURVE('',#187,#186,#50,.T.);
#159=EDGE_CURVE('',#185,#187,#34,.T.);
#160=EDGE_CURVE('',#188,#188,#35,.T.);
#161=EDGE_CURVE('',#186,#189,#51,.T.);
#162=EDGE_CURVE('',#190,#189,#52,.T.);
#163=EDGE_CURVE('',#187,#190,#53,.T.);
#164=EDGE_CURVE('',#189,#191,#36,.T.);
#165=EDGE_CURVE('',#192,#191,#54,.T.);
#166=EDGE_CURVE('',#190,#192,#37,.T.);
#167=EDGE_CURVE('',#191,#176,#55,.T.);
#168=EDGE_CURVE('',#192,#175,#56,.T.);
#169=EDGE_CURVE('',#173,#180,#38,.T.);
#170=EDGE_CURVE('',#174,#183,#57,.T.);
#171=EDGE_CURVE('',#193,#193,#39,.T.);
#172=VERTEX_POINT('',#360);
#173=VERTEX_POINT('',#361);
#174=VERTEX_POINT('',#363);
#175=VERTEX_POINT('',#365);
#176=VERTEX_POINT('',#367);
#177=VERTEX_POINT('',#369);
#178=VERTEX_POINT('',#373);
#179=VERTEX_POINT('',#375);
#180=VERTEX_POINT('',#382);
#181=VERTEX_POINT('',#384);
#182=VERTEX_POINT('',#386);
#183=VERTEX_POINT('',#388);
#184=VERTEX_POINT('',#392);
#185=VERTEX_POINT('',#394);
#186=VERTEX_POINT('',#398);
#187=VERTEX_POINT('',#400);
#188=VERTEX_POINT('',#404);
#189=VERTEX_POINT('',#406);
#190=VERTEX_POINT('',#408);
#191=VERTEX_POINT('',#412);
#192=VERTEX_POINT('',#414);
#193=VERTEX_POINT('',#426);
#194=B_SPLINE_CURVE_WITH_KNOTS('',3,(#356,#357,#358,#359),.UNSPECIFIED.,
 .F.,.F.,(4,4),(0.,1.),.UNSPECIFIED.);
#195=B_SPLINE_CURVE_WITH_KNOTS('',3,(#378,#379,#380,#381),.UNSPECIFIED.,
 .F.,.F.,(4,4),(0.,1.),.UNSPECIFIED.);
#196=EDGE_LOOP('',(#76,#77,#78,#79,#80,#81));
#197=EDGE_LOOP('',(#82,#83,#84,#85));
#198=EDGE_LOOP('',(#86,#87,#88,#89,#90,#91));
#199=EDGE_LOOP('',(#92,#93,#94,#95));
#200=EDGE_LOOP('',(#96,#97,#98,#99));
#201=EDGE_LOOP('',(#100));
#202=EDGE_LOOP('',(#101,#102,#103,#104));
#203=EDGE_LOOP('',(#105,#106,#107,#108));
#204=EDGE_LOOP('',(#109,#110,#111,#112));
#205=EDGE_LOOP('',(#113,#114,#115,#116));
#206=EDGE_LOOP('',(#117,#118,#119,#120,#121,#122,#123,#124));
#207=EDGE_LOOP('',(#125,#126,#127,#128,#129,#130,#131,#132));
#208=EDGE_LOOP('',(#133));
#209=EDGE_LOOP('',(#134,#135,#136,#137));
#210=EDGE_LOOP('',(#138));
#211=EDGE_LOOP('',(#139));
#212=FACE_BOUND('',#196,.T.);
#213=FACE_BOUND('',#197,.T.);
#214=FACE_BOUND('',#198,.T.);
#215=FACE_BOUND('',#199,.T.);
#216=FACE_BOUND('',#200,.T.);
#217=FACE_BOUND('',#201,.T.);
#218=FACE_BOUND('',#202,.T.);
#219=FACE_BOUND('',#203,.T.);
#220=FACE_BOUND('',#204,.T.);
#221=FACE_BOUND('',#205,.T.);
#222=FACE_BOUND('',#206,.T.);
#223=FACE_BOUND('',#207,.T.);
#224=FACE_BOUND('',#208,.T.);
#225=FACE_BOUND('',#209,.T.);
#226=FACE_BOUND('',#210,.T.);
#227=FACE_BOUND('',#211,.T.);
#228=CYLINDRICAL_SURFACE('',#259,0.400000000000001);
#229=CYLINDRICAL_SURFACE('',#264,0.4);
#230=CYLINDRICAL_SURFACE('',#268,0.4);
#231=CYLINDRICAL_SURFACE('',#273,0.4);
#232=CYLINDRICAL_SURFACE('',#281,1.2295);
#233=ADVANCED_FACE('',(#212),#228,.T.);
#234=ADVANCED_FACE('',(#213),#21,.F.);
#235=ADVANCED_FACE('',(#214),#229,.T.);
#236=ADVANCED_FACE('',(#215),#22,.F.);
#237=ADVANCED_FACE('',(#216),#230,.T.);
#238=ADVANCED_FACE('',(#217,#218),#23,.F.);
#239=ADVANCED_FACE('',(#219),#231,.T.);
#240=ADVANCED_FACE('',(#220),#24,.F.);
#241=ADVANCED_FACE('',(#221),#25,.F.);
#242=ADVANCED_FACE('',(#222),#26,.T.);
#243=ADVANCED_FACE('',(#223),#27,.F.);
#244=ADVANCED_FACE('',(#224,#225),#232,.F.);
#245=ADVANCED_FACE('',(#226,#227),#20,.F.);
#246=CLOSED_SHELL('',(#233,#234,#235,#236,#237,#238,#239,#240,#241,#242,
#243,#244,#245));
#247=STYLED_ITEM('',(#248),#255);
#248=PRESENTATION_STYLE_ASSIGNMENT((#249));
#249=SURFACE_STYLE_USAGE(.BOTH.,#250);
#250=SURFACE_SIDE_STYLE('',(#251));
#251=SURFACE_STYLE_FILL_AREA(#252);
#252=FILL_AREA_STYLE('',(#253));
#253=FILL_AREA_STYLE_COLOUR('',#254);
#254=COLOUR_RGB('',0.689999997615814,0.689999997615814,0.689999997615814);
#255=MANIFOLD_SOLID_BREP('558045 ABAN-3-1 M3-4-M-P1',#246);
#256=SHAPE_DEFINITION_REPRESENTATION(#434,#257);
#257=SHAPE_REPRESENTATION('558045 ABAN-3-1 M3-4-M-P1',(#258),#429);
#258=AXIS2_PLACEMENT_3D('',#354,#284,#285);
#259=AXIS2_PLACEMENT_3D('',#355,#286,#287);
#260=AXIS2_PLACEMENT_3D('',#364,#289,#290);
#261=AXIS2_PLACEMENT_3D('',#368,#292,#293);
#262=AXIS2_PLACEMENT_3D('',#371,#295,#296);
#263=AXIS2_PLACEMENT_3D('',#372,#297,#298);
#264=AXIS2_PLACEMENT_3D('',#377,#301,#302);
#265=AXIS2_PLACEMENT_3D('',#383,#303,#304);
#266=AXIS2_PLACEMENT_3D('',#387,#306,#307);
#267=AXIS2_PLACEMENT_3D('',#390,#309,#310);
#268=AXIS2_PLACEMENT_3D('',#396,#314,#315);
#269=AXIS2_PLACEMENT_3D('',#397,#316,#317);
#270=AXIS2_PLACEMENT_3D('',#401,#319,#320);
#271=AXIS2_PLACEMENT_3D('',#402,#321,#322);
#272=AXIS2_PLACEMENT_3D('',#403,#323,#324);
#273=AXIS2_PLACEMENT_3D('',#410,#328,#329);
#274=AXIS2_PLACEMENT_3D('',#411,#330,#331);
#275=AXIS2_PLACEMENT_3D('',#415,#333,#334);
#276=AXIS2_PLACEMENT_3D('',#416,#335,#336);
#277=AXIS2_PLACEMENT_3D('',#419,#339,#340);
#278=AXIS2_PLACEMENT_3D('',#420,#341,#342);
#279=AXIS2_PLACEMENT_3D('',#422,#344,#345);
#280=AXIS2_PLACEMENT_3D('',#423,#346,#347);
#281=AXIS2_PLACEMENT_3D('',#424,#348,#349);
#282=AXIS2_PLACEMENT_3D('',#425,#350,#351);
#283=AXIS2_PLACEMENT_3D('',#427,#352,#353);
#284=DIRECTION('',(0.,0.,1.));
#285=DIRECTION('',(1.,0.,0.));
#286=DIRECTION('',(-1.,0.,0.));
#287=DIRECTION('',(0.,0.,1.));
#288=DIRECTION('',(-1.,0.,0.));
#289=DIRECTION('',(1.,0.,0.));
#290=DIRECTION('',(0.,0.,-1.));
#291=DIRECTION('',(-1.,0.,0.));
#292=DIRECTION('',(1.,0.,0.));
#293=DIRECTION('',(0.,0.,-1.));
#294=DIRECTION('',(-1.,0.,0.));
#295=DIRECTION('',(0.,-1.,0.));
#296=DIRECTION('',(0.,0.,-1.));
#297=DIRECTION('',(0.,-1.,0.));
#298=DIRECTION('',(0.,0.,-1.));
#299=DIRECTION('',(0.,0.,1.));
#300=DIRECTION('',(-1.,0.,0.));
#301=DIRECTION('',(-1.,0.,0.));
#302=DIRECTION('',(0.,0.,1.));
#303=DIRECTION('',(1.,0.,0.));
#304=DIRECTION('',(0.,0.,-1.));
#305=DIRECTION('',(-1.,0.,0.));
#306=DIRECTION('',(1.,0.,0.));
#307=DIRECTION('',(0.,0.,-1.));
#308=DIRECTION('',(-1.,0.,0.));
#309=DIRECTION('',(0.,-0.707106781186547,-0.707106781186547));
#310=DIRECTION('',(0.,0.707106781186548,-0.707106781186548));
#311=DIRECTION('',(0.,-0.707106781186548,0.707106781186548));
#312=DIRECTION('',(-1.,0.,0.));
#313=DIRECTION('',(0.,-0.707106781186548,0.707106781186548));
#314=DIRECTION('',(-1.,0.,0.));
#315=DIRECTION('',(0.,0.,1.));
#316=DIRECTION('',(1.,0.,0.));
#317=DIRECTION('',(0.,0.,-1.));
#318=DIRECTION('',(-1.,0.,0.));
#319=DIRECTION('',(1.,0.,0.));
#320=DIRECTION('',(0.,0.,-1.));
#321=DIRECTION('',(0.,1.,0.));
#322=DIRECTION('',(0.,0.,1.));
#323=DIRECTION('',(0.,-1.,0.));
#324=DIRECTION('',(0.,0.,-1.));
#325=DIRECTION('',(0.,0.,-1.));
#326=DIRECTION('',(-1.,0.,0.));
#327=DIRECTION('',(0.,0.,-1.));
#328=DIRECTION('',(-1.,0.,0.));
#329=DIRECTION('',(0.,0.,1.));
#330=DIRECTION('',(1.,0.,0.));
#331=DIRECTION('',(0.,0.,-1.));
#332=DIRECTION('',(-1.,0.,0.));
#333=DIRECTION('',(1.,0.,0.));
#334=DIRECTION('',(0.,0.,-1.));
#335=DIRECTION('',(0.,-0.707106781186547,0.707106781186548));
#336=DIRECTION('',(0.,-0.707106781186548,-0.707106781186547));
#337=DIRECTION('',(0.,0.707106781186548,0.707106781186548));
#338=DIRECTION('',(0.,0.707106781186548,0.707106781186548));
#339=DIRECTION('',(0.,-1.,0.));
#340=DIRECTION('',(0.,0.,-1.));
#341=DIRECTION('',(0.,-1.,0.));
#342=DIRECTION('',(0.,0.,-1.));
#343=DIRECTION('',(0.,0.,1.));
#344=DIRECTION('',(1.,0.,0.));
#345=DIRECTION('',(0.,0.,-1.));
#346=DIRECTION('',(1.,0.,0.));
#347=DIRECTION('',(0.,0.,-1.));
#348=DIRECTION('',(0.,-1.,0.));
#349=DIRECTION('',(0.,0.,-1.));
#350=DIRECTION('',(0.,-1.,0.));
#351=DIRECTION('',(0.,0.,-1.));
#352=DIRECTION('',(0.,-1.,0.));
#353=DIRECTION('',(0.,0.,-1.));
#354=CARTESIAN_POINT('',(0.,0.,0.));
#355=CARTESIAN_POINT('',(2.,2.,-1.18431457505076));
#356=CARTESIAN_POINT('',(0.330256320639489,2.4,-1.18431457505076));
#357=CARTESIAN_POINT('',(0.110085440213163,2.4,-1.24571112155399));
#358=CARTESIAN_POINT('',(-0.110085440213163,2.4,-1.24571112155399));
#359=CARTESIAN_POINT('',(-0.330256320639489,2.4,-1.18431457505076));
#360=CARTESIAN_POINT('',(-0.330256320639489,2.4,-1.18431457505076));
#361=CARTESIAN_POINT('',(0.330256320639489,2.4,-1.18431457505076));
#362=CARTESIAN_POINT('',(2.,2.4,-1.18431457505076));
#363=CARTESIAN_POINT('',(2.,2.4,-1.18431457505076));
#364=CARTESIAN_POINT('',(2.,2.,-1.18431457505076));
#365=CARTESIAN_POINT('',(2.,2.28284271247462,-1.46715728752538));
#366=CARTESIAN_POINT('',(2.,2.28284271247462,-1.46715728752538));
#367=CARTESIAN_POINT('',(-2.,2.28284271247462,-1.46715728752538));
#368=CARTESIAN_POINT('',(-2.,2.,-1.18431457505076));
#369=CARTESIAN_POINT('',(-2.,2.4,-1.18431457505076));
#370=CARTESIAN_POINT('',(2.,2.4,-1.18431457505076));
#371=CARTESIAN_POINT('',(2.,2.4,-1.18431457505076));
#372=CARTESIAN_POINT('',(0.,2.4,0.));
#373=CARTESIAN_POINT('',(-0.330256320639489,2.4,1.18431457505076));
#374=CARTESIAN_POINT('',(-2.,2.4,-1.18431457505076));
#375=CARTESIAN_POINT('',(-2.,2.4,1.18431457505076));
#376=CARTESIAN_POINT('',(2.,2.4,1.18431457505076));
#377=CARTESIAN_POINT('',(2.,2.,1.18431457505076));
#378=CARTESIAN_POINT('',(-0.330256320639489,2.4,1.18431457505076));
#379=CARTESIAN_POINT('',(-0.110085440213163,2.4,1.24571112155399));
#380=CARTESIAN_POINT('',(0.110085440213163,2.4,1.24571112155399));
#381=CARTESIAN_POINT('',(0.330256320639489,2.4,1.18431457505076));
#382=CARTESIAN_POINT('',(0.330256320639489,2.4,1.18431457505076));
#383=CARTESIAN_POINT('',(-2.,2.,1.18431457505076));
#384=CARTESIAN_POINT('',(-2.,2.28284271247462,1.46715728752538));
#385=CARTESIAN_POINT('',(2.,2.28284271247462,1.46715728752538));
#386=CARTESIAN_POINT('',(2.,2.28284271247462,1.46715728752538));
#387=CARTESIAN_POINT('',(2.,2.,1.18431457505076));
#388=CARTESIAN_POINT('',(2.,2.4,1.18431457505076));
#389=CARTESIAN_POINT('',(2.,2.4,1.18431457505076));
#390=CARTESIAN_POINT('',(2.,2.28284271247462,1.46715728752538));
#391=CARTESIAN_POINT('',(-2.,2.28284271247462,1.46715728752538));
#392=CARTESIAN_POINT('',(-2.,0.682842712474619,3.06715728752538));
#393=CARTESIAN_POINT('',(2.,0.682842712474619,3.06715728752538));
#394=CARTESIAN_POINT('',(2.,0.682842712474619,3.06715728752538));
#395=CARTESIAN_POINT('',(2.,2.28284271247462,1.46715728752538));
#396=CARTESIAN_POINT('',(2.,0.4,2.78431457505076));
#397=CARTESIAN_POINT('',(-2.,0.4,2.78431457505076));
#398=CARTESIAN_POINT('',(-2.,-5.42101086242752E-17,2.78431457505076));
#399=CARTESIAN_POINT('',(2.,-5.42101086242752E-17,2.78431457505076));
#400=CARTESIAN_POINT('',(2.,-5.42101086242752E-17,2.78431457505076));
#401=CARTESIAN_POINT('',(2.,0.4,2.78431457505076));
#402=CARTESIAN_POINT('',(2.,0.,2.78431457505076));
#403=CARTESIAN_POINT('',(0.,0.,0.));
#404=CARTESIAN_POINT('',(0.,0.,-1.65));
#405=CARTESIAN_POINT('',(-2.,0.,2.78431457505076));
#406=CARTESIAN_POINT('',(-2.,0.,-2.78431457505076));
#407=CARTESIAN_POINT('',(2.,0.,-2.78431457505076));
#408=CARTESIAN_POINT('',(2.,0.,-2.78431457505076));
#409=CARTESIAN_POINT('',(2.,0.,2.78431457505076));
#410=CARTESIAN_POINT('',(2.,0.4,-2.78431457505076));
#411=CARTESIAN_POINT('',(-2.,0.4,-2.78431457505076));
#412=CARTESIAN_POINT('',(-2.,0.682842712474619,-3.06715728752538));
#413=CARTESIAN_POINT('',(2.,0.682842712474619,-3.06715728752538));
#414=CARTESIAN_POINT('',(2.,0.682842712474619,-3.06715728752538));
#415=CARTESIAN_POINT('',(2.,0.4,-2.78431457505076));
#416=CARTESIAN_POINT('',(2.,0.682842712474619,-3.06715728752538));
#417=CARTESIAN_POINT('',(-2.,0.682842712474619,-3.06715728752538));
#418=CARTESIAN_POINT('',(2.,0.682842712474619,-3.06715728752538));
#419=CARTESIAN_POINT('',(2.,2.4,-1.18431457505076));
#420=CARTESIAN_POINT('',(0.,2.4,0.));
#421=CARTESIAN_POINT('',(2.,2.4,-1.18431457505076));
#422=CARTESIAN_POINT('',(2.,0.4,2.78431457505076));
#423=CARTESIAN_POINT('',(-2.,0.4,2.78431457505076));
#424=CARTESIAN_POINT('',(0.,0.,0.));
#425=CARTESIAN_POINT('',(0.,0.420499999999999,0.));
#426=CARTESIAN_POINT('',(0.,0.420499999999999,-1.2295));
#427=CARTESIAN_POINT('',(0.,0.420499999999999,0.));
#428=MECHANICAL_DESIGN_GEOMETRIC_PRESENTATION_REPRESENTATION('',(#247),
#429);
#429=(
GEOMETRIC_REPRESENTATION_CONTEXT(3)
GLOBAL_UNCERTAINTY_ASSIGNED_CONTEXT((#430))
GLOBAL_UNIT_ASSIGNED_CONTEXT((#433,#432,#431))
REPRESENTATION_CONTEXT('558045 ABAN-3-1 M3-4-M-P1',
'TOP_LEVEL_ASSEMBLY_PART')
);
#430=UNCERTAINTY_MEASURE_WITH_UNIT(LENGTH_MEASURE(0.005),#433,
'DISTANCE_ACCURACY_VALUE','Maximum Tolerance applied to model');
#431=(
NAMED_UNIT(*)
SI_UNIT($,.STERADIAN.)
SOLID_ANGLE_UNIT()
);
#432=(
NAMED_UNIT(*)
PLANE_ANGLE_UNIT()
SI_UNIT($,.RADIAN.)
);
#433=(
LENGTH_UNIT()
NAMED_UNIT(*)
SI_UNIT(.MILLI.,.METRE.)
);
#434=PRODUCT_DEFINITION_SHAPE('','',#435);
#435=PRODUCT_DEFINITION('','',#437,#436);
#436=PRODUCT_DEFINITION_CONTEXT('',#443,'design');
#437=PRODUCT_DEFINITION_FORMATION_WITH_SPECIFIED_SOURCE('','',#439,
 .NOT_KNOWN.);
#438=PRODUCT_RELATED_PRODUCT_CATEGORY('','',(#439));
#439=PRODUCT('558045 ABAN-3-1 M3-4-M-P1','558045 ABAN-3-1 M3-4-M-P1',
'558045 ABAN-3-1 M3-4-M-P1',(#441));
#440=PRODUCT_CATEGORY('','');
#441=PRODUCT_CONTEXT('',#443,'mechanical');
#442=APPLICATION_PROTOCOL_DEFINITION('international standard',
'automotive_design',2010,#443);
#443=APPLICATION_CONTEXT(
'core data for automotive mechanical design processes');
ENDSEC;
END-ISO-10303-21;
