ISO-10303-21;
HEADER;
/* Generated by software containing ST-Developer
 * from STEP Tools, Inc. (www.steptools.com) 
 */
/* OPTION: using custom renumber hook */

FILE_DESCRIPTION(
/* description */ ('STEP AP214'),
/* implementation_level */ '2;1');

FILE_NAME(
/* name */ '558763_NPQM-D-Q10-E-P10',
/* time_stamp */ '2024-09-13T06:14:56+02:00',
/* author */ ('License CC BY-ND 4.0'),
/* organization */ ('CADENAS'),
/* preprocessor_version */ 'ST-DEVELOPER v19.3',
/* originating_system */ 'PARTsolutions',
/* authorisation */ '  ');

FILE_SCHEMA (('AUTOMOTIVE_DESIGN {1 0 10303 214 3 1 1}'));
ENDSEC;

DATA;
#10=PROPERTY_DEFINITION_REPRESENTATION(#14,#12);
#11=PROPERTY_DEFINITION_REPRESENTATION(#15,#13);
#12=REPRESENTATION('',(#16),#597);
#13=REPRESENTATION('',(#17),#597);
#14=PROPERTY_DEFINITION('pmi validation property','',#602);
#15=PROPERTY_DEFINITION('pmi validation property','',#602);
#16=VALUE_REPRESENTATION_ITEM('number of annotations',COUNT_MEASURE(0.));
#17=VALUE_REPRESENTATION_ITEM('number of views',COUNT_MEASURE(0.));
#18=SHAPE_REPRESENTATION_RELATIONSHIP('','',#339,#19);
#19=ADVANCED_BREP_SHAPE_REPRESENTATION('',(#337),#597);
#20=PLANE('',#346);
#21=PLANE('',#352);
#22=PLANE('',#358);
#23=PLANE('',#364);
#24=PLANE('',#368);
#25=PLANE('',#374);
#26=PLANE('',#380);
#27=PLANE('',#386);
#28=CONICAL_SURFACE('',#344,8.,0.523598775598308);
#29=CONICAL_SURFACE('',#350,5.7,0.785398163397461);
#30=CONICAL_SURFACE('',#356,8.,0.78539816339743);
#31=CONICAL_SURFACE('',#360,5.25,0.523598775598297);
#32=CONICAL_SURFACE('',#372,5.,0.523598775598297);
#33=CONICAL_SURFACE('',#376,7.85857864376269,0.785398163397442);
#34=CONICAL_SURFACE('',#382,5.77071067811865,0.785398163397461);
#35=CONICAL_SURFACE('',#388,7.9,0.523598775598299);
#36=CONICAL_SURFACE('',#392,8.,0.785398163397449);
#37=CONICAL_SURFACE('',#396,6.5,0.785398163397449);
#38=ORIENTED_EDGE('',*,*,#94,.T.);
#39=ORIENTED_EDGE('',*,*,#95,.F.);
#40=ORIENTED_EDGE('',*,*,#96,.T.);
#41=ORIENTED_EDGE('',*,*,#94,.F.);
#42=ORIENTED_EDGE('',*,*,#97,.T.);
#43=ORIENTED_EDGE('',*,*,#96,.F.);
#44=ORIENTED_EDGE('',*,*,#98,.T.);
#45=ORIENTED_EDGE('',*,*,#97,.F.);
#46=ORIENTED_EDGE('',*,*,#99,.T.);
#47=ORIENTED_EDGE('',*,*,#98,.F.);
#48=ORIENTED_EDGE('',*,*,#100,.T.);
#49=ORIENTED_EDGE('',*,*,#99,.F.);
#50=ORIENTED_EDGE('',*,*,#101,.T.);
#51=ORIENTED_EDGE('',*,*,#100,.F.);
#52=ORIENTED_EDGE('',*,*,#102,.T.);
#53=ORIENTED_EDGE('',*,*,#101,.F.);
#54=ORIENTED_EDGE('',*,*,#103,.T.);
#55=ORIENTED_EDGE('',*,*,#102,.F.);
#56=ORIENTED_EDGE('',*,*,#104,.T.);
#57=ORIENTED_EDGE('',*,*,#103,.F.);
#58=ORIENTED_EDGE('',*,*,#105,.T.);
#59=ORIENTED_EDGE('',*,*,#104,.F.);
#60=ORIENTED_EDGE('',*,*,#106,.T.);
#61=ORIENTED_EDGE('',*,*,#105,.F.);
#62=ORIENTED_EDGE('',*,*,#107,.T.);
#63=ORIENTED_EDGE('',*,*,#106,.F.);
#64=ORIENTED_EDGE('',*,*,#108,.T.);
#65=ORIENTED_EDGE('',*,*,#107,.F.);
#66=ORIENTED_EDGE('',*,*,#109,.T.);
#67=ORIENTED_EDGE('',*,*,#108,.F.);
#68=ORIENTED_EDGE('',*,*,#110,.T.);
#69=ORIENTED_EDGE('',*,*,#109,.F.);
#70=ORIENTED_EDGE('',*,*,#111,.T.);
#71=ORIENTED_EDGE('',*,*,#110,.F.);
#72=ORIENTED_EDGE('',*,*,#112,.T.);
#73=ORIENTED_EDGE('',*,*,#111,.F.);
#74=ORIENTED_EDGE('',*,*,#113,.T.);
#75=ORIENTED_EDGE('',*,*,#112,.F.);
#76=ORIENTED_EDGE('',*,*,#114,.T.);
#77=ORIENTED_EDGE('',*,*,#113,.F.);
#78=ORIENTED_EDGE('',*,*,#115,.T.);
#79=ORIENTED_EDGE('',*,*,#114,.F.);
#80=ORIENTED_EDGE('',*,*,#116,.T.);
#81=ORIENTED_EDGE('',*,*,#115,.F.);
#82=ORIENTED_EDGE('',*,*,#117,.T.);
#83=ORIENTED_EDGE('',*,*,#116,.F.);
#84=ORIENTED_EDGE('',*,*,#118,.T.);
#85=ORIENTED_EDGE('',*,*,#117,.F.);
#86=ORIENTED_EDGE('',*,*,#119,.T.);
#87=ORIENTED_EDGE('',*,*,#118,.F.);
#88=ORIENTED_EDGE('',*,*,#120,.T.);
#89=ORIENTED_EDGE('',*,*,#119,.F.);
#90=ORIENTED_EDGE('',*,*,#121,.T.);
#91=ORIENTED_EDGE('',*,*,#120,.F.);
#92=ORIENTED_EDGE('',*,*,#95,.T.);
#93=ORIENTED_EDGE('',*,*,#121,.F.);
#94=EDGE_CURVE('',#122,#122,#150,.T.);
#95=EDGE_CURVE('',#123,#123,#151,.T.);
#96=EDGE_CURVE('',#124,#124,#152,.T.);
#97=EDGE_CURVE('',#125,#125,#153,.T.);
#98=EDGE_CURVE('',#126,#126,#154,.T.);
#99=EDGE_CURVE('',#127,#127,#155,.T.);
#100=EDGE_CURVE('',#128,#128,#156,.T.);
#101=EDGE_CURVE('',#129,#129,#157,.T.);
#102=EDGE_CURVE('',#130,#130,#158,.T.);
#103=EDGE_CURVE('',#131,#131,#159,.T.);
#104=EDGE_CURVE('',#132,#132,#160,.T.);
#105=EDGE_CURVE('',#133,#133,#161,.T.);
#106=EDGE_CURVE('',#134,#134,#162,.T.);
#107=EDGE_CURVE('',#135,#135,#163,.T.);
#108=EDGE_CURVE('',#136,#136,#164,.T.);
#109=EDGE_CURVE('',#137,#137,#165,.T.);
#110=EDGE_CURVE('',#138,#138,#166,.T.);
#111=EDGE_CURVE('',#139,#139,#167,.T.);
#112=EDGE_CURVE('',#140,#140,#168,.T.);
#113=EDGE_CURVE('',#141,#141,#169,.T.);
#114=EDGE_CURVE('',#142,#142,#170,.T.);
#115=EDGE_CURVE('',#143,#143,#171,.T.);
#116=EDGE_CURVE('',#144,#144,#172,.T.);
#117=EDGE_CURVE('',#145,#145,#173,.T.);
#118=EDGE_CURVE('',#146,#146,#174,.T.);
#119=EDGE_CURVE('',#147,#147,#175,.T.);
#120=EDGE_CURVE('',#148,#148,#176,.T.);
#121=EDGE_CURVE('',#149,#149,#177,.T.);
#122=VERTEX_POINT('',#514);
#123=VERTEX_POINT('',#516);
#124=VERTEX_POINT('',#519);
#125=VERTEX_POINT('',#522);
#126=VERTEX_POINT('',#525);
#127=VERTEX_POINT('',#528);
#128=VERTEX_POINT('',#531);
#129=VERTEX_POINT('',#534);
#130=VERTEX_POINT('',#537);
#131=VERTEX_POINT('',#540);
#132=VERTEX_POINT('',#543);
#133=VERTEX_POINT('',#546);
#134=VERTEX_POINT('',#549);
#135=VERTEX_POINT('',#552);
#136=VERTEX_POINT('',#555);
#137=VERTEX_POINT('',#558);
#138=VERTEX_POINT('',#561);
#139=VERTEX_POINT('',#564);
#140=VERTEX_POINT('',#567);
#141=VERTEX_POINT('',#570);
#142=VERTEX_POINT('',#573);
#143=VERTEX_POINT('',#576);
#144=VERTEX_POINT('',#579);
#145=VERTEX_POINT('',#582);
#146=VERTEX_POINT('',#585);
#147=VERTEX_POINT('',#588);
#148=VERTEX_POINT('',#591);
#149=VERTEX_POINT('',#594);
#150=CIRCLE('',#342,8.);
#151=CIRCLE('',#343,8.);
#152=CIRCLE('',#345,7.9);
#153=CIRCLE('',#347,5.7);
#154=CIRCLE('',#349,5.7);
#155=CIRCLE('',#351,5.77071067811865);
#156=CIRCLE('',#353,8.);
#157=CIRCLE('',#355,8.);
#158=CIRCLE('',#357,7.85857864376269);
#159=CIRCLE('',#359,5.25);
#160=CIRCLE('',#361,5.);
#161=CIRCLE('',#363,5.);
#162=CIRCLE('',#365,4.5);
#163=CIRCLE('',#367,4.5);
#164=CIRCLE('',#369,5.);
#165=CIRCLE('',#371,5.);
#166=CIRCLE('',#373,5.25);
#167=CIRCLE('',#375,7.85857864376269);
#168=CIRCLE('',#377,8.);
#169=CIRCLE('',#379,8.);
#170=CIRCLE('',#381,5.77071067811865);
#171=CIRCLE('',#383,5.7);
#172=CIRCLE('',#385,5.7);
#173=CIRCLE('',#387,7.9);
#174=CIRCLE('',#389,8.);
#175=CIRCLE('',#391,8.);
#176=CIRCLE('',#393,6.5);
#177=CIRCLE('',#395,6.5);
#178=EDGE_LOOP('',(#38));
#179=EDGE_LOOP('',(#39));
#180=EDGE_LOOP('',(#40));
#181=EDGE_LOOP('',(#41));
#182=EDGE_LOOP('',(#42));
#183=EDGE_LOOP('',(#43));
#184=EDGE_LOOP('',(#44));
#185=EDGE_LOOP('',(#45));
#186=EDGE_LOOP('',(#46));
#187=EDGE_LOOP('',(#47));
#188=EDGE_LOOP('',(#48));
#189=EDGE_LOOP('',(#49));
#190=EDGE_LOOP('',(#50));
#191=EDGE_LOOP('',(#51));
#192=EDGE_LOOP('',(#52));
#193=EDGE_LOOP('',(#53));
#194=EDGE_LOOP('',(#54));
#195=EDGE_LOOP('',(#55));
#196=EDGE_LOOP('',(#56));
#197=EDGE_LOOP('',(#57));
#198=EDGE_LOOP('',(#58));
#199=EDGE_LOOP('',(#59));
#200=EDGE_LOOP('',(#60));
#201=EDGE_LOOP('',(#61));
#202=EDGE_LOOP('',(#62));
#203=EDGE_LOOP('',(#63));
#204=EDGE_LOOP('',(#64));
#205=EDGE_LOOP('',(#65));
#206=EDGE_LOOP('',(#66));
#207=EDGE_LOOP('',(#67));
#208=EDGE_LOOP('',(#68));
#209=EDGE_LOOP('',(#69));
#210=EDGE_LOOP('',(#70));
#211=EDGE_LOOP('',(#71));
#212=EDGE_LOOP('',(#72));
#213=EDGE_LOOP('',(#73));
#214=EDGE_LOOP('',(#74));
#215=EDGE_LOOP('',(#75));
#216=EDGE_LOOP('',(#76));
#217=EDGE_LOOP('',(#77));
#218=EDGE_LOOP('',(#78));
#219=EDGE_LOOP('',(#79));
#220=EDGE_LOOP('',(#80));
#221=EDGE_LOOP('',(#81));
#222=EDGE_LOOP('',(#82));
#223=EDGE_LOOP('',(#83));
#224=EDGE_LOOP('',(#84));
#225=EDGE_LOOP('',(#85));
#226=EDGE_LOOP('',(#86));
#227=EDGE_LOOP('',(#87));
#228=EDGE_LOOP('',(#88));
#229=EDGE_LOOP('',(#89));
#230=EDGE_LOOP('',(#90));
#231=EDGE_LOOP('',(#91));
#232=EDGE_LOOP('',(#92));
#233=EDGE_LOOP('',(#93));
#234=FACE_BOUND('',#178,.T.);
#235=FACE_BOUND('',#179,.T.);
#236=FACE_BOUND('',#180,.T.);
#237=FACE_BOUND('',#181,.T.);
#238=FACE_BOUND('',#182,.T.);
#239=FACE_BOUND('',#183,.T.);
#240=FACE_BOUND('',#184,.T.);
#241=FACE_BOUND('',#185,.T.);
#242=FACE_BOUND('',#186,.T.);
#243=FACE_BOUND('',#187,.T.);
#244=FACE_BOUND('',#188,.T.);
#245=FACE_BOUND('',#189,.T.);
#246=FACE_BOUND('',#190,.T.);
#247=FACE_BOUND('',#191,.T.);
#248=FACE_BOUND('',#192,.T.);
#249=FACE_BOUND('',#193,.T.);
#250=FACE_BOUND('',#194,.T.);
#251=FACE_BOUND('',#195,.T.);
#252=FACE_BOUND('',#196,.T.);
#253=FACE_BOUND('',#197,.T.);
#254=FACE_BOUND('',#198,.T.);
#255=FACE_BOUND('',#199,.T.);
#256=FACE_BOUND('',#200,.T.);
#257=FACE_BOUND('',#201,.T.);
#258=FACE_BOUND('',#202,.T.);
#259=FACE_BOUND('',#203,.T.);
#260=FACE_BOUND('',#204,.T.);
#261=FACE_BOUND('',#205,.T.);
#262=FACE_BOUND('',#206,.T.);
#263=FACE_BOUND('',#207,.T.);
#264=FACE_BOUND('',#208,.T.);
#265=FACE_BOUND('',#209,.T.);
#266=FACE_BOUND('',#210,.T.);
#267=FACE_BOUND('',#211,.T.);
#268=FACE_BOUND('',#212,.T.);
#269=FACE_BOUND('',#213,.T.);
#270=FACE_BOUND('',#214,.T.);
#271=FACE_BOUND('',#215,.T.);
#272=FACE_BOUND('',#216,.T.);
#273=FACE_BOUND('',#217,.T.);
#274=FACE_BOUND('',#218,.T.);
#275=FACE_BOUND('',#219,.T.);
#276=FACE_BOUND('',#220,.T.);
#277=FACE_BOUND('',#221,.T.);
#278=FACE_BOUND('',#222,.T.);
#279=FACE_BOUND('',#223,.T.);
#280=FACE_BOUND('',#224,.T.);
#281=FACE_BOUND('',#225,.T.);
#282=FACE_BOUND('',#226,.T.);
#283=FACE_BOUND('',#227,.T.);
#284=FACE_BOUND('',#228,.T.);
#285=FACE_BOUND('',#229,.T.);
#286=FACE_BOUND('',#230,.T.);
#287=FACE_BOUND('',#231,.T.);
#288=FACE_BOUND('',#232,.T.);
#289=FACE_BOUND('',#233,.T.);
#290=CYLINDRICAL_SURFACE('',#341,8.);
#291=CYLINDRICAL_SURFACE('',#348,5.7);
#292=CYLINDRICAL_SURFACE('',#354,8.);
#293=CYLINDRICAL_SURFACE('',#362,5.);
#294=CYLINDRICAL_SURFACE('',#366,4.5);
#295=CYLINDRICAL_SURFACE('',#370,5.);
#296=CYLINDRICAL_SURFACE('',#378,8.);
#297=CYLINDRICAL_SURFACE('',#384,5.7);
#298=CYLINDRICAL_SURFACE('',#390,8.);
#299=CYLINDRICAL_SURFACE('',#394,6.5);
#300=ADVANCED_FACE('',(#234,#235),#290,.T.);
#301=ADVANCED_FACE('',(#236,#237),#28,.T.);
#302=ADVANCED_FACE('',(#238,#239),#20,.T.);
#303=ADVANCED_FACE('',(#240,#241),#291,.T.);
#304=ADVANCED_FACE('',(#242,#243),#29,.T.);
#305=ADVANCED_FACE('',(#244,#245),#21,.T.);
#306=ADVANCED_FACE('',(#246,#247),#292,.T.);
#307=ADVANCED_FACE('',(#248,#249),#30,.T.);
#308=ADVANCED_FACE('',(#250,#251),#22,.T.);
#309=ADVANCED_FACE('',(#252,#253),#31,.F.);
#310=ADVANCED_FACE('',(#254,#255),#293,.F.);
#311=ADVANCED_FACE('',(#256,#257),#23,.T.);
#312=ADVANCED_FACE('',(#258,#259),#294,.F.);
#313=ADVANCED_FACE('',(#260,#261),#24,.T.);
#314=ADVANCED_FACE('',(#262,#263),#295,.F.);
#315=ADVANCED_FACE('',(#264,#265),#32,.F.);
#316=ADVANCED_FACE('',(#266,#267),#25,.T.);
#317=ADVANCED_FACE('',(#268,#269),#33,.T.);
#318=ADVANCED_FACE('',(#270,#271),#296,.T.);
#319=ADVANCED_FACE('',(#272,#273),#26,.T.);
#320=ADVANCED_FACE('',(#274,#275),#34,.T.);
#321=ADVANCED_FACE('',(#276,#277),#297,.T.);
#322=ADVANCED_FACE('',(#278,#279),#27,.T.);
#323=ADVANCED_FACE('',(#280,#281),#35,.T.);
#324=ADVANCED_FACE('',(#282,#283),#298,.T.);
#325=ADVANCED_FACE('',(#284,#285),#36,.T.);
#326=ADVANCED_FACE('',(#286,#287),#299,.T.);
#327=ADVANCED_FACE('',(#288,#289),#37,.T.);
#328=CLOSED_SHELL('',(#300,#301,#302,#303,#304,#305,#306,#307,#308,#309,
#310,#311,#312,#313,#314,#315,#316,#317,#318,#319,#320,#321,#322,#323,#324,
#325,#326,#327));
#329=STYLED_ITEM('',(#330),#337);
#330=PRESENTATION_STYLE_ASSIGNMENT((#331));
#331=SURFACE_STYLE_USAGE(.BOTH.,#332);
#332=SURFACE_SIDE_STYLE('',(#333));
#333=SURFACE_STYLE_FILL_AREA(#334);
#334=FILL_AREA_STYLE('',(#335));
#335=FILL_AREA_STYLE_COLOUR('',#336);
#336=COLOUR_RGB('',0.689999997615814,0.689999997615814,0.689999997615814);
#337=MANIFOLD_SOLID_BREP('558763 NPQM-D-Q10-E-P10',#328);
#338=SHAPE_DEFINITION_REPRESENTATION(#602,#339);
#339=SHAPE_REPRESENTATION('558763 NPQM-D-Q10-E-P10',(#340),#597);
#340=AXIS2_PLACEMENT_3D('',#511,#397,#398);
#341=AXIS2_PLACEMENT_3D('',#512,#399,#400);
#342=AXIS2_PLACEMENT_3D('',#513,#401,#402);
#343=AXIS2_PLACEMENT_3D('',#515,#403,#404);
#344=AXIS2_PLACEMENT_3D('',#517,#405,#406);
#345=AXIS2_PLACEMENT_3D('',#518,#407,#408);
#346=AXIS2_PLACEMENT_3D('',#520,#409,#410);
#347=AXIS2_PLACEMENT_3D('',#521,#411,#412);
#348=AXIS2_PLACEMENT_3D('',#523,#413,#414);
#349=AXIS2_PLACEMENT_3D('',#524,#415,#416);
#350=AXIS2_PLACEMENT_3D('',#526,#417,#418);
#351=AXIS2_PLACEMENT_3D('',#527,#419,#420);
#352=AXIS2_PLACEMENT_3D('',#529,#421,#422);
#353=AXIS2_PLACEMENT_3D('',#530,#423,#424);
#354=AXIS2_PLACEMENT_3D('',#532,#425,#426);
#355=AXIS2_PLACEMENT_3D('',#533,#427,#428);
#356=AXIS2_PLACEMENT_3D('',#535,#429,#430);
#357=AXIS2_PLACEMENT_3D('',#536,#431,#432);
#358=AXIS2_PLACEMENT_3D('',#538,#433,#434);
#359=AXIS2_PLACEMENT_3D('',#539,#435,#436);
#360=AXIS2_PLACEMENT_3D('',#541,#437,#438);
#361=AXIS2_PLACEMENT_3D('',#542,#439,#440);
#362=AXIS2_PLACEMENT_3D('',#544,#441,#442);
#363=AXIS2_PLACEMENT_3D('',#545,#443,#444);
#364=AXIS2_PLACEMENT_3D('',#547,#445,#446);
#365=AXIS2_PLACEMENT_3D('',#548,#447,#448);
#366=AXIS2_PLACEMENT_3D('',#550,#449,#450);
#367=AXIS2_PLACEMENT_3D('',#551,#451,#452);
#368=AXIS2_PLACEMENT_3D('',#553,#453,#454);
#369=AXIS2_PLACEMENT_3D('',#554,#455,#456);
#370=AXIS2_PLACEMENT_3D('',#556,#457,#458);
#371=AXIS2_PLACEMENT_3D('',#557,#459,#460);
#372=AXIS2_PLACEMENT_3D('',#559,#461,#462);
#373=AXIS2_PLACEMENT_3D('',#560,#463,#464);
#374=AXIS2_PLACEMENT_3D('',#562,#465,#466);
#375=AXIS2_PLACEMENT_3D('',#563,#467,#468);
#376=AXIS2_PLACEMENT_3D('',#565,#469,#470);
#377=AXIS2_PLACEMENT_3D('',#566,#471,#472);
#378=AXIS2_PLACEMENT_3D('',#568,#473,#474);
#379=AXIS2_PLACEMENT_3D('',#569,#475,#476);
#380=AXIS2_PLACEMENT_3D('',#571,#477,#478);
#381=AXIS2_PLACEMENT_3D('',#572,#479,#480);
#382=AXIS2_PLACEMENT_3D('',#574,#481,#482);
#383=AXIS2_PLACEMENT_3D('',#575,#483,#484);
#384=AXIS2_PLACEMENT_3D('',#577,#485,#486);
#385=AXIS2_PLACEMENT_3D('',#578,#487,#488);
#386=AXIS2_PLACEMENT_3D('',#580,#489,#490);
#387=AXIS2_PLACEMENT_3D('',#581,#491,#492);
#388=AXIS2_PLACEMENT_3D('',#583,#493,#494);
#389=AXIS2_PLACEMENT_3D('',#584,#495,#496);
#390=AXIS2_PLACEMENT_3D('',#586,#497,#498);
#391=AXIS2_PLACEMENT_3D('',#587,#499,#500);
#392=AXIS2_PLACEMENT_3D('',#589,#501,#502);
#393=AXIS2_PLACEMENT_3D('',#590,#503,#504);
#394=AXIS2_PLACEMENT_3D('',#592,#505,#506);
#395=AXIS2_PLACEMENT_3D('',#593,#507,#508);
#396=AXIS2_PLACEMENT_3D('',#595,#509,#510);
#397=DIRECTION('',(0.,0.,1.));
#398=DIRECTION('',(1.,0.,0.));
#399=DIRECTION('',(7.67553086644046E-17,0.,-1.));
#400=DIRECTION('',(-1.,0.,-7.67553086644046E-17));
#401=DIRECTION('',(7.67553086644046E-17,0.,-1.));
#402=DIRECTION('',(-1.,0.,-7.67553086644046E-17));
#403=DIRECTION('',(7.67553086644046E-17,0.,-1.));
#404=DIRECTION('',(-1.,0.,-7.67553086644046E-17));
#405=DIRECTION('',(7.67553086644046E-17,0.,-1.));
#406=DIRECTION('',(-1.,0.,-7.67553086644046E-17));
#407=DIRECTION('',(7.67553086644046E-17,0.,-1.));
#408=DIRECTION('',(-1.,0.,-7.67553086644046E-17));
#409=DIRECTION('',(-7.67553086644046E-17,0.,1.));
#410=DIRECTION('',(1.,0.,7.67553086644046E-17));
#411=DIRECTION('',(7.67553086644046E-17,0.,-1.));
#412=DIRECTION('',(-1.,0.,-7.67553086644046E-17));
#413=DIRECTION('',(7.67553086644046E-17,0.,-1.));
#414=DIRECTION('',(-1.,0.,-7.67553086644046E-17));
#415=DIRECTION('',(7.67553086644046E-17,0.,-1.));
#416=DIRECTION('',(-1.,0.,-7.67553086644046E-17));
#417=DIRECTION('',(-7.67553086644046E-17,0.,1.));
#418=DIRECTION('',(1.,0.,7.67553086644046E-17));
#419=DIRECTION('',(7.67553086644046E-17,0.,-1.));
#420=DIRECTION('',(-1.,0.,-7.67553086644046E-17));
#421=DIRECTION('',(7.67553086644046E-17,0.,-1.));
#422=DIRECTION('',(-1.,0.,-7.67553086644046E-17));
#423=DIRECTION('',(7.67553086644046E-17,0.,-1.));
#424=DIRECTION('',(-1.,0.,-7.67553086644046E-17));
#425=DIRECTION('',(7.67553086644046E-17,0.,-1.));
#426=DIRECTION('',(-1.,0.,-7.67553086644046E-17));
#427=DIRECTION('',(7.67553086644046E-17,0.,-1.));
#428=DIRECTION('',(-1.,0.,-7.67553086644046E-17));
#429=DIRECTION('',(7.67553086644046E-17,0.,-1.));
#430=DIRECTION('',(-1.,0.,-7.67553086644046E-17));
#431=DIRECTION('',(7.67553086644046E-17,0.,-1.));
#432=DIRECTION('',(-1.,0.,-7.67553086644046E-17));
#433=DIRECTION('',(-7.67553086644046E-17,0.,1.));
#434=DIRECTION('',(1.,0.,7.67553086644046E-17));
#435=DIRECTION('',(7.67553086644046E-17,0.,-1.));
#436=DIRECTION('',(-1.,0.,-7.67553086644046E-17));
#437=DIRECTION('',(-7.67553086644046E-17,0.,1.));
#438=DIRECTION('',(1.,0.,7.67553086644046E-17));
#439=DIRECTION('',(7.67553086644046E-17,0.,-1.));
#440=DIRECTION('',(-1.,0.,-7.67553086644046E-17));
#441=DIRECTION('',(7.67553086644046E-17,0.,-1.));
#442=DIRECTION('',(-1.,0.,-7.67553086644046E-17));
#443=DIRECTION('',(7.67553086644046E-17,0.,-1.));
#444=DIRECTION('',(-1.,0.,-7.67553086644046E-17));
#445=DIRECTION('',(-7.67553086644046E-17,0.,1.));
#446=DIRECTION('',(1.,0.,7.67553086644046E-17));
#447=DIRECTION('',(7.67553086644046E-17,0.,-1.));
#448=DIRECTION('',(-1.,0.,-7.67553086644046E-17));
#449=DIRECTION('',(7.67553086644046E-17,0.,-1.));
#450=DIRECTION('',(-1.,0.,-7.67553086644046E-17));
#451=DIRECTION('',(7.67553086644046E-17,0.,-1.));
#452=DIRECTION('',(-1.,0.,-7.67553086644046E-17));
#453=DIRECTION('',(7.67553086644046E-17,0.,-1.));
#454=DIRECTION('',(-1.,0.,-7.67553086644046E-17));
#455=DIRECTION('',(7.67553086644046E-17,0.,-1.));
#456=DIRECTION('',(-1.,0.,-7.67553086644046E-17));
#457=DIRECTION('',(7.67553086644046E-17,0.,-1.));
#458=DIRECTION('',(-1.,0.,-7.67553086644046E-17));
#459=DIRECTION('',(7.67553086644046E-17,0.,-1.));
#460=DIRECTION('',(-1.,0.,-7.67553086644046E-17));
#461=DIRECTION('',(7.67553086644046E-17,0.,-1.));
#462=DIRECTION('',(-1.,0.,-7.67553086644046E-17));
#463=DIRECTION('',(7.67553086644046E-17,0.,-1.));
#464=DIRECTION('',(-1.,0.,-7.67553086644046E-17));
#465=DIRECTION('',(7.67553086644046E-17,0.,-1.));
#466=DIRECTION('',(-1.,0.,-7.67553086644046E-17));
#467=DIRECTION('',(7.67553086644046E-17,0.,-1.));
#468=DIRECTION('',(-1.,0.,-7.67553086644046E-17));
#469=DIRECTION('',(-7.67553086644046E-17,0.,1.));
#470=DIRECTION('',(1.,0.,7.67553086644046E-17));
#471=DIRECTION('',(7.67553086644046E-17,0.,-1.));
#472=DIRECTION('',(-1.,0.,-7.67553086644046E-17));
#473=DIRECTION('',(7.67553086644046E-17,0.,-1.));
#474=DIRECTION('',(-1.,0.,-7.67553086644046E-17));
#475=DIRECTION('',(7.67553086644046E-17,0.,-1.));
#476=DIRECTION('',(-1.,0.,-7.67553086644046E-17));
#477=DIRECTION('',(-7.67553086644046E-17,0.,1.));
#478=DIRECTION('',(1.,0.,7.67553086644046E-17));
#479=DIRECTION('',(7.67553086644046E-17,0.,-1.));
#480=DIRECTION('',(-1.,0.,-7.67553086644046E-17));
#481=DIRECTION('',(7.67553086644046E-17,0.,-1.));
#482=DIRECTION('',(-1.,0.,-7.67553086644046E-17));
#483=DIRECTION('',(7.67553086644046E-17,0.,-1.));
#484=DIRECTION('',(-1.,0.,-7.67553086644046E-17));
#485=DIRECTION('',(7.67553086644046E-17,0.,-1.));
#486=DIRECTION('',(-1.,0.,-7.67553086644046E-17));
#487=DIRECTION('',(7.67553086644046E-17,0.,-1.));
#488=DIRECTION('',(-1.,0.,-7.67553086644046E-17));
#489=DIRECTION('',(7.67553086644046E-17,0.,-1.));
#490=DIRECTION('',(-1.,0.,-7.67553086644046E-17));
#491=DIRECTION('',(7.67553086644046E-17,0.,-1.));
#492=DIRECTION('',(-1.,0.,-7.67553086644046E-17));
#493=DIRECTION('',(-7.67553086644046E-17,0.,1.));
#494=DIRECTION('',(1.,0.,7.67553086644046E-17));
#495=DIRECTION('',(7.67553086644046E-17,0.,-1.));
#496=DIRECTION('',(-1.,0.,-7.67553086644046E-17));
#497=DIRECTION('',(7.67553086644046E-17,0.,-1.));
#498=DIRECTION('',(-1.,0.,-7.67553086644046E-17));
#499=DIRECTION('',(7.67553086644046E-17,0.,-1.));
#500=DIRECTION('',(-1.,0.,-7.67553086644046E-17));
#501=DIRECTION('',(7.67553086644046E-17,0.,-1.));
#502=DIRECTION('',(-1.,0.,-7.67553086644046E-17));
#503=DIRECTION('',(7.67553086644046E-17,0.,-1.));
#504=DIRECTION('',(-1.,0.,-7.67553086644046E-17));
#505=DIRECTION('',(7.67553086644046E-17,0.,-1.));
#506=DIRECTION('',(-1.,0.,-7.67553086644046E-17));
#507=DIRECTION('',(7.67553086644046E-17,0.,-1.));
#508=DIRECTION('',(-1.,0.,-7.67553086644046E-17));
#509=DIRECTION('',(-7.67553086644046E-17,0.,1.));
#510=DIRECTION('',(1.,0.,7.67553086644046E-17));
#511=CARTESIAN_POINT('',(0.,0.,0.));
#512=CARTESIAN_POINT('',(1.17872254417933E-15,0.,-19.25));
#513=CARTESIAN_POINT('',(-1.54814756570418E-15,0.,16.2767949192431));
#514=CARTESIAN_POINT('',(-8.,0.,16.2767949192431));
#515=CARTESIAN_POINT('',(-5.40596369903336E-16,0.,3.15));
#516=CARTESIAN_POINT('',(-8.,0.,3.15));
#517=CARTESIAN_POINT('',(-1.54814756570418E-15,0.,16.2767949192431));
#518=CARTESIAN_POINT('',(-1.56144197513992E-15,0.,16.45));
#519=CARTESIAN_POINT('',(-7.9,0.,16.45));
#520=CARTESIAN_POINT('',(-7.9,0.,16.45));
#521=CARTESIAN_POINT('',(-1.56144197513992E-15,0.,16.45));
#522=CARTESIAN_POINT('',(-5.7,0.,16.45));
#523=CARTESIAN_POINT('',(1.17872254417933E-15,0.,-19.25));
#524=CARTESIAN_POINT('',(-1.6788230490781E-15,0.,17.9792893218813));
#525=CARTESIAN_POINT('',(-5.7,0.,17.9792893218813));
#526=CARTESIAN_POINT('',(-1.6788230490781E-15,0.,17.9792893218813));
#527=CARTESIAN_POINT('',(-1.68425046900297E-15,0.,18.05));
#528=CARTESIAN_POINT('',(-5.77071067811866,0.,18.05));
#529=CARTESIAN_POINT('',(-5.77071067811866,0.,18.05));
#530=CARTESIAN_POINT('',(-1.68425046900297E-15,0.,18.05));
#531=CARTESIAN_POINT('',(-8.,0.,18.05));
#532=CARTESIAN_POINT('',(1.17872254417933E-15,0.,-19.25));
#533=CARTESIAN_POINT('',(-1.76550199955052E-15,0.,19.1085786437627));
#534=CARTESIAN_POINT('',(-8.,0.,19.1085786437627));
#535=CARTESIAN_POINT('',(-1.76550199955052E-15,0.,19.1085786437627));
#536=CARTESIAN_POINT('',(-1.77635683940025E-15,0.,19.25));
#537=CARTESIAN_POINT('',(-7.85857864376269,0.,19.25));
#538=CARTESIAN_POINT('',(-7.85857864376269,0.,19.25));
#539=CARTESIAN_POINT('',(-1.77635683940025E-15,0.,19.25));
#540=CARTESIAN_POINT('',(-5.25,0.,19.25));
#541=CARTESIAN_POINT('',(-1.77635683940025E-15,0.,19.25));
#542=CARTESIAN_POINT('',(-1.74312081581091E-15,0.,18.8169872981078));
#543=CARTESIAN_POINT('',(-5.,0.,18.8169872981078));
#544=CARTESIAN_POINT('',(1.17872254417933E-15,0.,-19.25));
#545=CARTESIAN_POINT('',(-3.71734690841646E-16,0.,0.95));
#546=CARTESIAN_POINT('',(-5.,0.,0.949999999999999));
#547=CARTESIAN_POINT('',(-5.,0.,0.949999999999999));
#548=CARTESIAN_POINT('',(-3.71734690841646E-16,0.,0.95));
#549=CARTESIAN_POINT('',(-4.5,0.,0.949999999999999));
#550=CARTESIAN_POINT('',(1.17872254417933E-15,0.,-19.25));
#551=CARTESIAN_POINT('',(-2.25899604379277E-16,0.,-0.95));
#552=CARTESIAN_POINT('',(-4.5,0.,-0.95));
#553=CARTESIAN_POINT('',(-4.5,0.,-0.95));
#554=CARTESIAN_POINT('',(-2.25899604379277E-16,0.,-0.95));
#555=CARTESIAN_POINT('',(-5.,0.,-0.95));
#556=CARTESIAN_POINT('',(1.17872254417933E-15,0.,-19.25));
#557=CARTESIAN_POINT('',(1.14548652058998E-15,0.,-18.8169872981078));
#558=CARTESIAN_POINT('',(-5.,0.,-18.8169872981078));
#559=CARTESIAN_POINT('',(1.14548652058998E-15,0.,-18.8169872981078));
#560=CARTESIAN_POINT('',(1.17872254417933E-15,0.,-19.25));
#561=CARTESIAN_POINT('',(-5.25,0.,-19.25));
#562=CARTESIAN_POINT('',(-5.25,0.,-19.25));
#563=CARTESIAN_POINT('',(1.17872254417933E-15,0.,-19.25));
#564=CARTESIAN_POINT('',(-7.85857864376269,0.,-19.25));
#565=CARTESIAN_POINT('',(1.17872254417933E-15,0.,-19.25));
#566=CARTESIAN_POINT('',(1.16786770432959E-15,0.,-19.1085786437627));
#567=CARTESIAN_POINT('',(-8.,0.,-19.1085786437627));
#568=CARTESIAN_POINT('',(1.17872254417933E-15,0.,-19.25));
#569=CARTESIAN_POINT('',(1.08661617378204E-15,0.,-18.05));
#570=CARTESIAN_POINT('',(-8.,0.,-18.05));
#571=CARTESIAN_POINT('',(-8.,0.,-18.05));
#572=CARTESIAN_POINT('',(1.08661617378204E-15,0.,-18.05));
#573=CARTESIAN_POINT('',(-5.77071067811865,0.,-18.05));
#574=CARTESIAN_POINT('',(1.08661617378204E-15,0.,-18.05));
#575=CARTESIAN_POINT('',(1.08118875385718E-15,0.,-17.9792893218813));
#576=CARTESIAN_POINT('',(-5.7,0.,-17.9792893218813));
#577=CARTESIAN_POINT('',(1.17872254417933E-15,0.,-19.25));
#578=CARTESIAN_POINT('',(9.63807679918994E-16,0.,-16.45));
#579=CARTESIAN_POINT('',(-5.7,0.,-16.45));
#580=CARTESIAN_POINT('',(-5.7,0.,-16.45));
#581=CARTESIAN_POINT('',(9.63807679918994E-16,0.,-16.45));
#582=CARTESIAN_POINT('',(-7.9,0.,-16.45));
#583=CARTESIAN_POINT('',(9.63807679918994E-16,0.,-16.45));
#584=CARTESIAN_POINT('',(9.50513270483256E-16,0.,-16.2767949192431));
#585=CARTESIAN_POINT('',(-8.,0.,-16.2767949192431));
#586=CARTESIAN_POINT('',(1.17872254417933E-15,0.,-19.25));
#587=CARTESIAN_POINT('',(-5.70379253175872E-17,0.,-3.15));
#588=CARTESIAN_POINT('',(-8.,0.,-3.15));
#589=CARTESIAN_POINT('',(-5.70379253175872E-17,0.,-3.15));
#590=CARTESIAN_POINT('',(-1.72170888314194E-16,0.,-1.65));
#591=CARTESIAN_POINT('',(-6.5,0.,-1.65));
#592=CARTESIAN_POINT('',(1.17872254417933E-15,0.,-19.25));
#593=CARTESIAN_POINT('',(-4.25463406906729E-16,0.,1.65));
#594=CARTESIAN_POINT('',(-6.5,0.,1.65));
#595=CARTESIAN_POINT('',(-4.25463406906729E-16,0.,1.65));
#596=MECHANICAL_DESIGN_GEOMETRIC_PRESENTATION_REPRESENTATION('',(#329),
#597);
#597=(
GEOMETRIC_REPRESENTATION_CONTEXT(3)
GLOBAL_UNCERTAINTY_ASSIGNED_CONTEXT((#598))
GLOBAL_UNIT_ASSIGNED_CONTEXT((#601,#600,#599))
REPRESENTATION_CONTEXT('558763 NPQM-D-Q10-E-P10',
'TOP_LEVEL_ASSEMBLY_PART')
);
#598=UNCERTAINTY_MEASURE_WITH_UNIT(LENGTH_MEASURE(0.005),#601,
'DISTANCE_ACCURACY_VALUE','Maximum Tolerance applied to model');
#599=(
NAMED_UNIT(*)
SI_UNIT($,.STERADIAN.)
SOLID_ANGLE_UNIT()
);
#600=(
NAMED_UNIT(*)
PLANE_ANGLE_UNIT()
SI_UNIT($,.RADIAN.)
);
#601=(
LENGTH_UNIT()
NAMED_UNIT(*)
SI_UNIT(.MILLI.,.METRE.)
);
#602=PRODUCT_DEFINITION_SHAPE('','',#603);
#603=PRODUCT_DEFINITION('','',#605,#604);
#604=PRODUCT_DEFINITION_CONTEXT('',#611,'design');
#605=PRODUCT_DEFINITION_FORMATION_WITH_SPECIFIED_SOURCE('','',#607,
 .NOT_KNOWN.);
#606=PRODUCT_RELATED_PRODUCT_CATEGORY('','',(#607));
#607=PRODUCT('558763 NPQM-D-Q10-E-P10','558763 NPQM-D-Q10-E-P10',
'558763 NPQM-D-Q10-E-P10',(#609));
#608=PRODUCT_CATEGORY('','');
#609=PRODUCT_CONTEXT('',#611,'mechanical');
#610=APPLICATION_PROTOCOL_DEFINITION('international standard',
'automotive_design',2010,#611);
#611=APPLICATION_CONTEXT(
'core data for automotive mechanical design processes');
ENDSEC;
END-ISO-10303-21;
