ISO-10303-21;
HEADER;
/* Generated by software containing ST-Developer
 * from STEP Tools, Inc. (www.steptools.com) 
 */
/* OPTION: using custom renumber hook */

FILE_DESCRIPTION(
/* description */ ('STEP AP214'),
/* implementation_level */ '2;1');

FILE_NAME(
/* name */ '564812_QB-5_32H-1_4-U',
/* time_stamp */ '2024-09-14T01:38:30+02:00',
/* author */ ('License CC BY-ND 4.0'),
/* organization */ ('CADENAS'),
/* preprocessor_version */ 'ST-DEVELOPER v19.3',
/* originating_system */ 'PARTsolutions',
/* authorisation */ '  ');

FILE_SCHEMA (('AUTOMOTIVE_DESIGN {1 0 10303 214 3 1 1}'));
ENDSEC;

DATA;
#10=PROPERTY_DEFINITION_REPRESENTATION(#14,#12);
#11=PROPERTY_DEFINITION_REPRESENTATION(#15,#13);
#12=REPRESENTATION('',(#16),#680);
#13=REPRESENTATION('',(#17),#680);
#14=PROPERTY_DEFINITION('pmi validation property','',#685);
#15=PROPERTY_DEFINITION('pmi validation property','',#685);
#16=VALUE_REPRESENTATION_ITEM('number of annotations',COUNT_MEASURE(0.));
#17=VALUE_REPRESENTATION_ITEM('number of views',COUNT_MEASURE(0.));
#18=SHAPE_REPRESENTATION_RELATIONSHIP('','',#458,#19);
#19=ADVANCED_BREP_SHAPE_REPRESENTATION('',(#456),#680);
#20=PLANE('',#467);
#21=PLANE('',#473);
#22=PLANE('',#479);
#23=PLANE('',#491);
#24=PLANE('',#499);
#25=PLANE('',#505);
#26=CYLINDRICAL_SURFACE('',#465,5.9);
#27=CYLINDRICAL_SURFACE('',#471,4.175);
#28=CYLINDRICAL_SURFACE('',#477,5.9);
#29=CYLINDRICAL_SURFACE('',#483,6.5);
#30=CYLINDRICAL_SURFACE('',#487,5.);
#31=CYLINDRICAL_SURFACE('',#495,1.9845);
#32=CYLINDRICAL_SURFACE('',#503,3.175);
#33=CYLINDRICAL_SURFACE('',#507,1.);
#34=TOROIDAL_SURFACE('',#463,5.70000000000001,0.199999999999991);
#35=TOROIDAL_SURFACE('',#469,4.525,0.350000000000003);
#36=TOROIDAL_SURFACE('',#493,2.9845,1.);
#37=TOROIDAL_SURFACE('',#497,1.6845,0.300000000000001);
#38=TOROIDAL_SURFACE('',#501,3.475,0.300000000000002);
#39=ORIENTED_EDGE('',*,*,#87,.F.);
#40=ORIENTED_EDGE('',*,*,#88,.T.);
#41=ORIENTED_EDGE('',*,*,#87,.T.);
#42=ORIENTED_EDGE('',*,*,#89,.F.);
#43=ORIENTED_EDGE('',*,*,#90,.F.);
#44=ORIENTED_EDGE('',*,*,#89,.T.);
#45=ORIENTED_EDGE('',*,*,#91,.F.);
#46=ORIENTED_EDGE('',*,*,#90,.T.);
#47=ORIENTED_EDGE('',*,*,#92,.F.);
#48=ORIENTED_EDGE('',*,*,#91,.T.);
#49=ORIENTED_EDGE('',*,*,#93,.F.);
#50=ORIENTED_EDGE('',*,*,#92,.T.);
#51=ORIENTED_EDGE('',*,*,#94,.F.);
#52=ORIENTED_EDGE('',*,*,#93,.T.);
#53=ORIENTED_EDGE('',*,*,#95,.F.);
#54=ORIENTED_EDGE('',*,*,#94,.T.);
#55=ORIENTED_EDGE('',*,*,#96,.F.);
#56=ORIENTED_EDGE('',*,*,#95,.T.);
#57=ORIENTED_EDGE('',*,*,#97,.F.);
#58=ORIENTED_EDGE('',*,*,#96,.T.);
#59=ORIENTED_EDGE('',*,*,#98,.F.);
#60=ORIENTED_EDGE('',*,*,#97,.T.);
#61=ORIENTED_EDGE('',*,*,#99,.F.);
#62=ORIENTED_EDGE('',*,*,#98,.T.);
#63=ORIENTED_EDGE('',*,*,#100,.F.);
#64=ORIENTED_EDGE('',*,*,#99,.T.);
#65=ORIENTED_EDGE('',*,*,#101,.F.);
#66=ORIENTED_EDGE('',*,*,#100,.T.);
#67=ORIENTED_EDGE('',*,*,#102,.F.);
#68=ORIENTED_EDGE('',*,*,#101,.T.);
#69=ORIENTED_EDGE('',*,*,#103,.F.);
#70=ORIENTED_EDGE('',*,*,#102,.T.);
#71=ORIENTED_EDGE('',*,*,#104,.F.);
#72=ORIENTED_EDGE('',*,*,#103,.T.);
#73=ORIENTED_EDGE('',*,*,#105,.F.);
#74=ORIENTED_EDGE('',*,*,#104,.T.);
#75=ORIENTED_EDGE('',*,*,#105,.T.);
#76=ORIENTED_EDGE('',*,*,#106,.F.);
#77=ORIENTED_EDGE('',*,*,#107,.F.);
#78=ORIENTED_EDGE('',*,*,#106,.T.);
#79=ORIENTED_EDGE('',*,*,#108,.T.);
#80=ORIENTED_EDGE('',*,*,#88,.F.);
#81=ORIENTED_EDGE('',*,*,#109,.T.);
#82=ORIENTED_EDGE('',*,*,#108,.F.);
#83=ORIENTED_EDGE('',*,*,#110,.T.);
#84=ORIENTED_EDGE('',*,*,#109,.F.);
#85=ORIENTED_EDGE('',*,*,#107,.T.);
#86=ORIENTED_EDGE('',*,*,#110,.F.);
#87=EDGE_CURVE('',#111,#111,#135,.T.);
#88=EDGE_CURVE('',#112,#112,#136,.T.);
#89=EDGE_CURVE('',#113,#113,#137,.T.);
#90=EDGE_CURVE('',#114,#114,#138,.T.);
#91=EDGE_CURVE('',#115,#115,#139,.T.);
#92=EDGE_CURVE('',#116,#116,#140,.T.);
#93=EDGE_CURVE('',#117,#117,#141,.T.);
#94=EDGE_CURVE('',#118,#118,#142,.T.);
#95=EDGE_CURVE('',#119,#119,#143,.T.);
#96=EDGE_CURVE('',#120,#120,#144,.T.);
#97=EDGE_CURVE('',#121,#121,#145,.T.);
#98=EDGE_CURVE('',#122,#122,#146,.T.);
#99=EDGE_CURVE('',#123,#123,#147,.T.);
#100=EDGE_CURVE('',#124,#124,#148,.T.);
#101=EDGE_CURVE('',#125,#125,#149,.T.);
#102=EDGE_CURVE('',#126,#126,#150,.T.);
#103=EDGE_CURVE('',#127,#127,#151,.T.);
#104=EDGE_CURVE('',#128,#128,#152,.T.);
#105=EDGE_CURVE('',#129,#129,#153,.T.);
#106=EDGE_CURVE('',#130,#130,#154,.T.);
#107=EDGE_CURVE('',#131,#131,#155,.T.);
#108=EDGE_CURVE('',#132,#132,#156,.T.);
#109=EDGE_CURVE('',#133,#133,#157,.T.);
#110=EDGE_CURVE('',#134,#134,#158,.T.);
#111=VERTEX_POINT('',#609);
#112=VERTEX_POINT('',#611);
#113=VERTEX_POINT('',#614);
#114=VERTEX_POINT('',#617);
#115=VERTEX_POINT('',#620);
#116=VERTEX_POINT('',#623);
#117=VERTEX_POINT('',#626);
#118=VERTEX_POINT('',#629);
#119=VERTEX_POINT('',#632);
#120=VERTEX_POINT('',#635);
#121=VERTEX_POINT('',#638);
#122=VERTEX_POINT('',#641);
#123=VERTEX_POINT('',#644);
#124=VERTEX_POINT('',#647);
#125=VERTEX_POINT('',#650);
#126=VERTEX_POINT('',#653);
#127=VERTEX_POINT('',#656);
#128=VERTEX_POINT('',#659);
#129=VERTEX_POINT('',#662);
#130=VERTEX_POINT('',#665);
#131=VERTEX_POINT('',#668);
#132=VERTEX_POINT('',#671);
#133=VERTEX_POINT('',#674);
#134=VERTEX_POINT('',#677);
#135=CIRCLE('',#461,5.73472963553339);
#136=CIRCLE('',#462,3.47499999999998);
#137=CIRCLE('',#464,5.9);
#138=CIRCLE('',#466,5.9);
#139=CIRCLE('',#468,4.525);
#140=CIRCLE('',#470,4.175);
#141=CIRCLE('',#472,4.175);
#142=CIRCLE('',#474,5.75857864376269);
#143=CIRCLE('',#476,5.9);
#144=CIRCLE('',#478,5.9);
#145=CIRCLE('',#480,6.29021956416947);
#146=CIRCLE('',#482,6.5);
#147=CIRCLE('',#484,6.5);
#148=CIRCLE('',#486,5.);
#149=CIRCLE('',#488,5.);
#150=CIRCLE('',#490,4.64644660940673);
#151=CIRCLE('',#492,2.9845);
#152=CIRCLE('',#494,1.9845);
#153=CIRCLE('',#496,1.9845);
#154=CIRCLE('',#498,1.6845);
#155=CIRCLE('',#500,1.);
#156=CIRCLE('',#502,3.175);
#157=CIRCLE('',#504,3.175);
#158=CIRCLE('',#506,1.);
#159=EDGE_LOOP('',(#39));
#160=EDGE_LOOP('',(#40));
#161=EDGE_LOOP('',(#41));
#162=EDGE_LOOP('',(#42));
#163=EDGE_LOOP('',(#43));
#164=EDGE_LOOP('',(#44));
#165=EDGE_LOOP('',(#45));
#166=EDGE_LOOP('',(#46));
#167=EDGE_LOOP('',(#47));
#168=EDGE_LOOP('',(#48));
#169=EDGE_LOOP('',(#49));
#170=EDGE_LOOP('',(#50));
#171=EDGE_LOOP('',(#51));
#172=EDGE_LOOP('',(#52));
#173=EDGE_LOOP('',(#53));
#174=EDGE_LOOP('',(#54));
#175=EDGE_LOOP('',(#55));
#176=EDGE_LOOP('',(#56));
#177=EDGE_LOOP('',(#57));
#178=EDGE_LOOP('',(#58));
#179=EDGE_LOOP('',(#59));
#180=EDGE_LOOP('',(#60));
#181=EDGE_LOOP('',(#61));
#182=EDGE_LOOP('',(#62));
#183=EDGE_LOOP('',(#63));
#184=EDGE_LOOP('',(#64));
#185=EDGE_LOOP('',(#65));
#186=EDGE_LOOP('',(#66));
#187=EDGE_LOOP('',(#67));
#188=EDGE_LOOP('',(#68));
#189=EDGE_LOOP('',(#69));
#190=EDGE_LOOP('',(#70));
#191=EDGE_LOOP('',(#71));
#192=EDGE_LOOP('',(#72));
#193=EDGE_LOOP('',(#73));
#194=EDGE_LOOP('',(#74));
#195=EDGE_LOOP('',(#75));
#196=EDGE_LOOP('',(#76));
#197=EDGE_LOOP('',(#77));
#198=EDGE_LOOP('',(#78));
#199=EDGE_LOOP('',(#79));
#200=EDGE_LOOP('',(#80));
#201=EDGE_LOOP('',(#81));
#202=EDGE_LOOP('',(#82));
#203=EDGE_LOOP('',(#83));
#204=EDGE_LOOP('',(#84));
#205=EDGE_LOOP('',(#85));
#206=EDGE_LOOP('',(#86));
#207=FACE_BOUND('',#159,.T.);
#208=FACE_BOUND('',#160,.T.);
#209=FACE_BOUND('',#161,.T.);
#210=FACE_BOUND('',#162,.T.);
#211=FACE_BOUND('',#163,.T.);
#212=FACE_BOUND('',#164,.T.);
#213=FACE_BOUND('',#165,.T.);
#214=FACE_BOUND('',#166,.T.);
#215=FACE_BOUND('',#167,.T.);
#216=FACE_BOUND('',#168,.T.);
#217=FACE_BOUND('',#169,.T.);
#218=FACE_BOUND('',#170,.T.);
#219=FACE_BOUND('',#171,.T.);
#220=FACE_BOUND('',#172,.T.);
#221=FACE_BOUND('',#173,.T.);
#222=FACE_BOUND('',#174,.T.);
#223=FACE_BOUND('',#175,.T.);
#224=FACE_BOUND('',#176,.T.);
#225=FACE_BOUND('',#177,.T.);
#226=FACE_BOUND('',#178,.T.);
#227=FACE_BOUND('',#179,.T.);
#228=FACE_BOUND('',#180,.T.);
#229=FACE_BOUND('',#181,.T.);
#230=FACE_BOUND('',#182,.T.);
#231=FACE_BOUND('',#183,.T.);
#232=FACE_BOUND('',#184,.T.);
#233=FACE_BOUND('',#185,.T.);
#234=FACE_BOUND('',#186,.T.);
#235=FACE_BOUND('',#187,.T.);
#236=FACE_BOUND('',#188,.T.);
#237=FACE_BOUND('',#189,.T.);
#238=FACE_BOUND('',#190,.T.);
#239=FACE_BOUND('',#191,.T.);
#240=FACE_BOUND('',#192,.T.);
#241=FACE_BOUND('',#193,.T.);
#242=FACE_BOUND('',#194,.T.);
#243=FACE_BOUND('',#195,.T.);
#244=FACE_BOUND('',#196,.T.);
#245=FACE_BOUND('',#197,.T.);
#246=FACE_BOUND('',#198,.T.);
#247=FACE_BOUND('',#199,.T.);
#248=FACE_BOUND('',#200,.T.);
#249=FACE_BOUND('',#201,.T.);
#250=FACE_BOUND('',#202,.T.);
#251=FACE_BOUND('',#203,.T.);
#252=FACE_BOUND('',#204,.T.);
#253=FACE_BOUND('',#205,.T.);
#254=FACE_BOUND('',#206,.T.);
#255=CONICAL_SURFACE('',#460,3.47499999999998,1.39626340159546);
#256=CONICAL_SURFACE('',#475,5.75857864376269,0.785398163397436);
#257=CONICAL_SURFACE('',#481,6.29021956416947,0.0698131700797733);
#258=CONICAL_SURFACE('',#485,6.5,0.785398163397448);
#259=CONICAL_SURFACE('',#489,5.,0.785398163397446);
#260=STYLED_ITEM('',(#284),#431);
#261=STYLED_ITEM('',(#285),#432);
#262=STYLED_ITEM('',(#286),#433);
#263=STYLED_ITEM('',(#287),#434);
#264=STYLED_ITEM('',(#288),#435);
#265=STYLED_ITEM('',(#289),#436);
#266=STYLED_ITEM('',(#290),#437);
#267=STYLED_ITEM('',(#291),#438);
#268=STYLED_ITEM('',(#292),#439);
#269=STYLED_ITEM('',(#293),#440);
#270=STYLED_ITEM('',(#294),#441);
#271=STYLED_ITEM('',(#295),#442);
#272=STYLED_ITEM('',(#296),#443);
#273=STYLED_ITEM('',(#297),#444);
#274=STYLED_ITEM('',(#298),#445);
#275=STYLED_ITEM('',(#299),#446);
#276=STYLED_ITEM('',(#300),#447);
#277=STYLED_ITEM('',(#301),#448);
#278=STYLED_ITEM('',(#302),#449);
#279=STYLED_ITEM('',(#303),#450);
#280=STYLED_ITEM('',(#304),#451);
#281=STYLED_ITEM('',(#305),#452);
#282=STYLED_ITEM('',(#306),#453);
#283=STYLED_ITEM('',(#307),#454);
#284=PRESENTATION_STYLE_ASSIGNMENT((#308));
#285=PRESENTATION_STYLE_ASSIGNMENT((#309));
#286=PRESENTATION_STYLE_ASSIGNMENT((#310));
#287=PRESENTATION_STYLE_ASSIGNMENT((#311));
#288=PRESENTATION_STYLE_ASSIGNMENT((#312));
#289=PRESENTATION_STYLE_ASSIGNMENT((#313));
#290=PRESENTATION_STYLE_ASSIGNMENT((#314));
#291=PRESENTATION_STYLE_ASSIGNMENT((#315));
#292=PRESENTATION_STYLE_ASSIGNMENT((#316));
#293=PRESENTATION_STYLE_ASSIGNMENT((#317));
#294=PRESENTATION_STYLE_ASSIGNMENT((#318));
#295=PRESENTATION_STYLE_ASSIGNMENT((#319));
#296=PRESENTATION_STYLE_ASSIGNMENT((#320));
#297=PRESENTATION_STYLE_ASSIGNMENT((#321));
#298=PRESENTATION_STYLE_ASSIGNMENT((#322));
#299=PRESENTATION_STYLE_ASSIGNMENT((#323));
#300=PRESENTATION_STYLE_ASSIGNMENT((#324));
#301=PRESENTATION_STYLE_ASSIGNMENT((#325));
#302=PRESENTATION_STYLE_ASSIGNMENT((#326));
#303=PRESENTATION_STYLE_ASSIGNMENT((#327));
#304=PRESENTATION_STYLE_ASSIGNMENT((#328));
#305=PRESENTATION_STYLE_ASSIGNMENT((#329));
#306=PRESENTATION_STYLE_ASSIGNMENT((#330));
#307=PRESENTATION_STYLE_ASSIGNMENT((#331));
#308=SURFACE_STYLE_USAGE(.BOTH.,#332);
#309=SURFACE_STYLE_USAGE(.BOTH.,#333);
#310=SURFACE_STYLE_USAGE(.BOTH.,#334);
#311=SURFACE_STYLE_USAGE(.BOTH.,#335);
#312=SURFACE_STYLE_USAGE(.BOTH.,#336);
#313=SURFACE_STYLE_USAGE(.BOTH.,#337);
#314=SURFACE_STYLE_USAGE(.BOTH.,#338);
#315=SURFACE_STYLE_USAGE(.BOTH.,#339);
#316=SURFACE_STYLE_USAGE(.BOTH.,#340);
#317=SURFACE_STYLE_USAGE(.BOTH.,#341);
#318=SURFACE_STYLE_USAGE(.BOTH.,#342);
#319=SURFACE_STYLE_USAGE(.BOTH.,#343);
#320=SURFACE_STYLE_USAGE(.BOTH.,#344);
#321=SURFACE_STYLE_USAGE(.BOTH.,#345);
#322=SURFACE_STYLE_USAGE(.BOTH.,#346);
#323=SURFACE_STYLE_USAGE(.BOTH.,#347);
#324=SURFACE_STYLE_USAGE(.BOTH.,#348);
#325=SURFACE_STYLE_USAGE(.BOTH.,#349);
#326=SURFACE_STYLE_USAGE(.BOTH.,#350);
#327=SURFACE_STYLE_USAGE(.BOTH.,#351);
#328=SURFACE_STYLE_USAGE(.BOTH.,#352);
#329=SURFACE_STYLE_USAGE(.BOTH.,#353);
#330=SURFACE_STYLE_USAGE(.BOTH.,#354);
#331=SURFACE_STYLE_USAGE(.BOTH.,#355);
#332=SURFACE_SIDE_STYLE('',(#356));
#333=SURFACE_SIDE_STYLE('',(#357));
#334=SURFACE_SIDE_STYLE('',(#358));
#335=SURFACE_SIDE_STYLE('',(#359));
#336=SURFACE_SIDE_STYLE('',(#360));
#337=SURFACE_SIDE_STYLE('',(#361));
#338=SURFACE_SIDE_STYLE('',(#362));
#339=SURFACE_SIDE_STYLE('',(#363));
#340=SURFACE_SIDE_STYLE('',(#364));
#341=SURFACE_SIDE_STYLE('',(#365));
#342=SURFACE_SIDE_STYLE('',(#366));
#343=SURFACE_SIDE_STYLE('',(#367));
#344=SURFACE_SIDE_STYLE('',(#368));
#345=SURFACE_SIDE_STYLE('',(#369));
#346=SURFACE_SIDE_STYLE('',(#370));
#347=SURFACE_SIDE_STYLE('',(#371));
#348=SURFACE_SIDE_STYLE('',(#372));
#349=SURFACE_SIDE_STYLE('',(#373));
#350=SURFACE_SIDE_STYLE('',(#374));
#351=SURFACE_SIDE_STYLE('',(#375));
#352=SURFACE_SIDE_STYLE('',(#376));
#353=SURFACE_SIDE_STYLE('',(#377));
#354=SURFACE_SIDE_STYLE('',(#378));
#355=SURFACE_SIDE_STYLE('',(#379));
#356=SURFACE_STYLE_FILL_AREA(#380);
#357=SURFACE_STYLE_FILL_AREA(#381);
#358=SURFACE_STYLE_FILL_AREA(#382);
#359=SURFACE_STYLE_FILL_AREA(#383);
#360=SURFACE_STYLE_FILL_AREA(#384);
#361=SURFACE_STYLE_FILL_AREA(#385);
#362=SURFACE_STYLE_FILL_AREA(#386);
#363=SURFACE_STYLE_FILL_AREA(#387);
#364=SURFACE_STYLE_FILL_AREA(#388);
#365=SURFACE_STYLE_FILL_AREA(#389);
#366=SURFACE_STYLE_FILL_AREA(#390);
#367=SURFACE_STYLE_FILL_AREA(#391);
#368=SURFACE_STYLE_FILL_AREA(#392);
#369=SURFACE_STYLE_FILL_AREA(#393);
#370=SURFACE_STYLE_FILL_AREA(#394);
#371=SURFACE_STYLE_FILL_AREA(#395);
#372=SURFACE_STYLE_FILL_AREA(#396);
#373=SURFACE_STYLE_FILL_AREA(#397);
#374=SURFACE_STYLE_FILL_AREA(#398);
#375=SURFACE_STYLE_FILL_AREA(#399);
#376=SURFACE_STYLE_FILL_AREA(#400);
#377=SURFACE_STYLE_FILL_AREA(#401);
#378=SURFACE_STYLE_FILL_AREA(#402);
#379=SURFACE_STYLE_FILL_AREA(#403);
#380=FILL_AREA_STYLE('',(#404));
#381=FILL_AREA_STYLE('',(#405));
#382=FILL_AREA_STYLE('',(#406));
#383=FILL_AREA_STYLE('',(#407));
#384=FILL_AREA_STYLE('',(#408));
#385=FILL_AREA_STYLE('',(#409));
#386=FILL_AREA_STYLE('',(#410));
#387=FILL_AREA_STYLE('',(#411));
#388=FILL_AREA_STYLE('',(#412));
#389=FILL_AREA_STYLE('',(#413));
#390=FILL_AREA_STYLE('',(#414));
#391=FILL_AREA_STYLE('',(#415));
#392=FILL_AREA_STYLE('',(#416));
#393=FILL_AREA_STYLE('',(#417));
#394=FILL_AREA_STYLE('',(#418));
#395=FILL_AREA_STYLE('',(#419));
#396=FILL_AREA_STYLE('',(#420));
#397=FILL_AREA_STYLE('',(#421));
#398=FILL_AREA_STYLE('',(#422));
#399=FILL_AREA_STYLE('',(#423));
#400=FILL_AREA_STYLE('',(#424));
#401=FILL_AREA_STYLE('',(#425));
#402=FILL_AREA_STYLE('',(#426));
#403=FILL_AREA_STYLE('',(#427));
#404=FILL_AREA_STYLE_COLOUR('',#428);
#405=FILL_AREA_STYLE_COLOUR('',#428);
#406=FILL_AREA_STYLE_COLOUR('',#428);
#407=FILL_AREA_STYLE_COLOUR('',#428);
#408=FILL_AREA_STYLE_COLOUR('',#428);
#409=FILL_AREA_STYLE_COLOUR('',#428);
#410=FILL_AREA_STYLE_COLOUR('',#429);
#411=FILL_AREA_STYLE_COLOUR('',#429);
#412=FILL_AREA_STYLE_COLOUR('',#429);
#413=FILL_AREA_STYLE_COLOUR('',#430);
#414=FILL_AREA_STYLE_COLOUR('',#430);
#415=FILL_AREA_STYLE_COLOUR('',#430);
#416=FILL_AREA_STYLE_COLOUR('',#430);
#417=FILL_AREA_STYLE_COLOUR('',#430);
#418=FILL_AREA_STYLE_COLOUR('',#430);
#419=FILL_AREA_STYLE_COLOUR('',#430);
#420=FILL_AREA_STYLE_COLOUR('',#430);
#421=FILL_AREA_STYLE_COLOUR('',#430);
#422=FILL_AREA_STYLE_COLOUR('',#430);
#423=FILL_AREA_STYLE_COLOUR('',#430);
#424=FILL_AREA_STYLE_COLOUR('',#428);
#425=FILL_AREA_STYLE_COLOUR('',#429);
#426=FILL_AREA_STYLE_COLOUR('',#429);
#427=FILL_AREA_STYLE_COLOUR('',#430);
#428=COLOUR_RGB('',0.,0.60000002384186,1.);
#429=COLOUR_RGB('',0.689999997615814,0.689999997615814,0.689999997615814);
#430=COLOUR_RGB('',0.11800000071526,0.11800000071526,0.11800000071526);
#431=ADVANCED_FACE('',(#207,#208),#255,.T.);
#432=ADVANCED_FACE('',(#209,#210),#34,.T.);
#433=ADVANCED_FACE('',(#211,#212),#26,.T.);
#434=ADVANCED_FACE('',(#213,#214),#20,.F.);
#435=ADVANCED_FACE('',(#215,#216),#35,.F.);
#436=ADVANCED_FACE('',(#217,#218),#27,.T.);
#437=ADVANCED_FACE('',(#219,#220),#21,.F.);
#438=ADVANCED_FACE('',(#221,#222),#256,.T.);
#439=ADVANCED_FACE('',(#223,#224),#28,.T.);
#440=ADVANCED_FACE('',(#225,#226),#22,.F.);
#441=ADVANCED_FACE('',(#227,#228),#257,.T.);
#442=ADVANCED_FACE('',(#229,#230),#29,.T.);
#443=ADVANCED_FACE('',(#231,#232),#258,.T.);
#444=ADVANCED_FACE('',(#233,#234),#30,.T.);
#445=ADVANCED_FACE('',(#235,#236),#259,.T.);
#446=ADVANCED_FACE('',(#237,#238),#23,.F.);
#447=ADVANCED_FACE('',(#239,#240),#36,.F.);
#448=ADVANCED_FACE('',(#241,#242),#31,.T.);
#449=ADVANCED_FACE('',(#243,#244),#37,.T.);
#450=ADVANCED_FACE('',(#245,#246),#24,.F.);
#451=ADVANCED_FACE('',(#247,#248),#38,.T.);
#452=ADVANCED_FACE('',(#249,#250),#32,.F.);
#453=ADVANCED_FACE('',(#251,#252),#25,.T.);
#454=ADVANCED_FACE('',(#253,#254),#33,.F.);
#455=CLOSED_SHELL('',(#431,#432,#433,#434,#435,#436,#437,#438,#439,#440,
#441,#442,#443,#444,#445,#446,#447,#448,#449,#450,#451,#452,#453,#454));
#456=MANIFOLD_SOLID_BREP('564812 QB-5/32H-1/4-U',#455);
#457=SHAPE_DEFINITION_REPRESENTATION(#685,#458);
#458=SHAPE_REPRESENTATION('564812 QB-5/32H-1/4-U',(#459),#680);
#459=AXIS2_PLACEMENT_3D('',#606,#508,#509);
#460=AXIS2_PLACEMENT_3D('',#607,#510,#511);
#461=AXIS2_PLACEMENT_3D('',#608,#512,#513);
#462=AXIS2_PLACEMENT_3D('',#610,#514,#515);
#463=AXIS2_PLACEMENT_3D('',#612,#516,#517);
#464=AXIS2_PLACEMENT_3D('',#613,#518,#519);
#465=AXIS2_PLACEMENT_3D('',#615,#520,#521);
#466=AXIS2_PLACEMENT_3D('',#616,#522,#523);
#467=AXIS2_PLACEMENT_3D('',#618,#524,#525);
#468=AXIS2_PLACEMENT_3D('',#619,#526,#527);
#469=AXIS2_PLACEMENT_3D('',#621,#528,#529);
#470=AXIS2_PLACEMENT_3D('',#622,#530,#531);
#471=AXIS2_PLACEMENT_3D('',#624,#532,#533);
#472=AXIS2_PLACEMENT_3D('',#625,#534,#535);
#473=AXIS2_PLACEMENT_3D('',#627,#536,#537);
#474=AXIS2_PLACEMENT_3D('',#628,#538,#539);
#475=AXIS2_PLACEMENT_3D('',#630,#540,#541);
#476=AXIS2_PLACEMENT_3D('',#631,#542,#543);
#477=AXIS2_PLACEMENT_3D('',#633,#544,#545);
#478=AXIS2_PLACEMENT_3D('',#634,#546,#547);
#479=AXIS2_PLACEMENT_3D('',#636,#548,#549);
#480=AXIS2_PLACEMENT_3D('',#637,#550,#551);
#481=AXIS2_PLACEMENT_3D('',#639,#552,#553);
#482=AXIS2_PLACEMENT_3D('',#640,#554,#555);
#483=AXIS2_PLACEMENT_3D('',#642,#556,#557);
#484=AXIS2_PLACEMENT_3D('',#643,#558,#559);
#485=AXIS2_PLACEMENT_3D('',#645,#560,#561);
#486=AXIS2_PLACEMENT_3D('',#646,#562,#563);
#487=AXIS2_PLACEMENT_3D('',#648,#564,#565);
#488=AXIS2_PLACEMENT_3D('',#649,#566,#567);
#489=AXIS2_PLACEMENT_3D('',#651,#568,#569);
#490=AXIS2_PLACEMENT_3D('',#652,#570,#571);
#491=AXIS2_PLACEMENT_3D('',#654,#572,#573);
#492=AXIS2_PLACEMENT_3D('',#655,#574,#575);
#493=AXIS2_PLACEMENT_3D('',#657,#576,#577);
#494=AXIS2_PLACEMENT_3D('',#658,#578,#579);
#495=AXIS2_PLACEMENT_3D('',#660,#580,#581);
#496=AXIS2_PLACEMENT_3D('',#661,#582,#583);
#497=AXIS2_PLACEMENT_3D('',#663,#584,#585);
#498=AXIS2_PLACEMENT_3D('',#664,#586,#587);
#499=AXIS2_PLACEMENT_3D('',#666,#588,#589);
#500=AXIS2_PLACEMENT_3D('',#667,#590,#591);
#501=AXIS2_PLACEMENT_3D('',#669,#592,#593);
#502=AXIS2_PLACEMENT_3D('',#670,#594,#595);
#503=AXIS2_PLACEMENT_3D('',#672,#596,#597);
#504=AXIS2_PLACEMENT_3D('',#673,#598,#599);
#505=AXIS2_PLACEMENT_3D('',#675,#600,#601);
#506=AXIS2_PLACEMENT_3D('',#676,#602,#603);
#507=AXIS2_PLACEMENT_3D('',#678,#604,#605);
#508=DIRECTION('',(0.,0.,1.));
#509=DIRECTION('',(1.,0.,0.));
#510=DIRECTION('',(0.,0.,-1.));
#511=DIRECTION('',(-1.,0.,0.));
#512=DIRECTION('',(0.,0.,-1.));
#513=DIRECTION('',(-1.,0.,0.));
#514=DIRECTION('',(0.,0.,-1.));
#515=DIRECTION('',(-1.,0.,0.));
#516=DIRECTION('',(0.,0.,-1.));
#517=DIRECTION('',(-1.,0.,0.));
#518=DIRECTION('',(0.,0.,-1.));
#519=DIRECTION('',(-1.,0.,0.));
#520=DIRECTION('',(0.,0.,-1.));
#521=DIRECTION('',(-1.,0.,0.));
#522=DIRECTION('',(0.,0.,-1.));
#523=DIRECTION('',(-1.,0.,0.));
#524=DIRECTION('',(0.,0.,1.));
#525=DIRECTION('',(1.,0.,0.));
#526=DIRECTION('',(0.,0.,-1.));
#527=DIRECTION('',(-1.,0.,0.));
#528=DIRECTION('',(0.,0.,-1.));
#529=DIRECTION('',(-1.,0.,0.));
#530=DIRECTION('',(0.,0.,-1.));
#531=DIRECTION('',(-1.,0.,0.));
#532=DIRECTION('',(0.,0.,-1.));
#533=DIRECTION('',(-1.,0.,0.));
#534=DIRECTION('',(0.,0.,-1.));
#535=DIRECTION('',(-1.,0.,0.));
#536=DIRECTION('',(0.,0.,-1.));
#537=DIRECTION('',(-1.,0.,0.));
#538=DIRECTION('',(0.,0.,-1.));
#539=DIRECTION('',(-1.,0.,0.));
#540=DIRECTION('',(0.,0.,-1.));
#541=DIRECTION('',(-1.,0.,0.));
#542=DIRECTION('',(0.,0.,-1.));
#543=DIRECTION('',(-1.,0.,0.));
#544=DIRECTION('',(0.,0.,-1.));
#545=DIRECTION('',(-1.,0.,0.));
#546=DIRECTION('',(0.,0.,-1.));
#547=DIRECTION('',(-1.,0.,0.));
#548=DIRECTION('',(0.,0.,-1.));
#549=DIRECTION('',(-1.,0.,0.));
#550=DIRECTION('',(0.,0.,-1.));
#551=DIRECTION('',(-1.,0.,0.));
#552=DIRECTION('',(0.,0.,-1.));
#553=DIRECTION('',(-1.,0.,0.));
#554=DIRECTION('',(0.,0.,-1.));
#555=DIRECTION('',(-1.,0.,0.));
#556=DIRECTION('',(0.,0.,-1.));
#557=DIRECTION('',(-1.,0.,0.));
#558=DIRECTION('',(0.,0.,-1.));
#559=DIRECTION('',(-1.,0.,0.));
#560=DIRECTION('',(0.,0.,1.));
#561=DIRECTION('',(1.,0.,0.));
#562=DIRECTION('',(0.,0.,-1.));
#563=DIRECTION('',(-1.,0.,0.));
#564=DIRECTION('',(0.,0.,-1.));
#565=DIRECTION('',(-1.,0.,0.));
#566=DIRECTION('',(0.,0.,-1.));
#567=DIRECTION('',(-1.,0.,0.));
#568=DIRECTION('',(0.,0.,1.));
#569=DIRECTION('',(1.,0.,0.));
#570=DIRECTION('',(0.,0.,-1.));
#571=DIRECTION('',(-1.,0.,0.));
#572=DIRECTION('',(0.,0.,1.));
#573=DIRECTION('',(1.,0.,0.));
#574=DIRECTION('',(0.,0.,-1.));
#575=DIRECTION('',(-1.,0.,0.));
#576=DIRECTION('',(0.,0.,-1.));
#577=DIRECTION('',(-1.,0.,0.));
#578=DIRECTION('',(0.,0.,-1.));
#579=DIRECTION('',(-1.,0.,0.));
#580=DIRECTION('',(0.,0.,-1.));
#581=DIRECTION('',(-1.,0.,0.));
#582=DIRECTION('',(0.,0.,-1.));
#583=DIRECTION('',(-1.,0.,0.));
#584=DIRECTION('',(0.,0.,-1.));
#585=DIRECTION('',(-1.,0.,0.));
#586=DIRECTION('',(0.,0.,-1.));
#587=DIRECTION('',(-1.,0.,0.));
#588=DIRECTION('',(0.,0.,1.));
#589=DIRECTION('',(1.,0.,0.));
#590=DIRECTION('',(0.,0.,-1.));
#591=DIRECTION('',(-1.,0.,0.));
#592=DIRECTION('',(0.,0.,-1.));
#593=DIRECTION('',(-1.,0.,0.));
#594=DIRECTION('',(0.,0.,-1.));
#595=DIRECTION('',(-1.,0.,0.));
#596=DIRECTION('',(0.,0.,-1.));
#597=DIRECTION('',(-1.,0.,0.));
#598=DIRECTION('',(0.,0.,-1.));
#599=DIRECTION('',(-1.,0.,0.));
#600=DIRECTION('',(0.,0.,1.));
#601=DIRECTION('',(1.,0.,0.));
#602=DIRECTION('',(0.,0.,-1.));
#603=DIRECTION('',(-1.,0.,0.));
#604=DIRECTION('',(0.,0.,-1.));
#605=DIRECTION('',(-1.,0.,0.));
#606=CARTESIAN_POINT('',(0.,0.,0.));
#607=CARTESIAN_POINT('',(0.,0.,37.8));
#608=CARTESIAN_POINT('',(0.,0.,37.401548696149));
#609=CARTESIAN_POINT('',(-5.73472963553339,0.,37.401548696149));
#610=CARTESIAN_POINT('',(0.,0.,37.8));
#611=CARTESIAN_POINT('',(-3.47499999999998,0.,37.8));
#612=CARTESIAN_POINT('',(0.,0.,37.2045871455465));
#613=CARTESIAN_POINT('',(0.,0.,37.2045871455465));
#614=CARTESIAN_POINT('',(-5.9,0.,37.2045871455465));
#615=CARTESIAN_POINT('',(0.,0.,0.));
#616=CARTESIAN_POINT('',(0.,0.,35.9));
#617=CARTESIAN_POINT('',(-5.9,0.,35.9));
#618=CARTESIAN_POINT('',(0.,5.9,35.9));
#619=CARTESIAN_POINT('',(0.,0.,35.9));
#620=CARTESIAN_POINT('',(-4.525,0.,35.9));
#621=CARTESIAN_POINT('',(0.,0.,35.55));
#622=CARTESIAN_POINT('',(0.,0.,35.55));
#623=CARTESIAN_POINT('',(-4.175,0.,35.55));
#624=CARTESIAN_POINT('',(0.,0.,0.));
#625=CARTESIAN_POINT('',(0.,0.,35.));
#626=CARTESIAN_POINT('',(-4.175,0.,35.));
#627=CARTESIAN_POINT('',(0.,4.175,35.));
#628=CARTESIAN_POINT('',(0.,0.,35.));
#629=CARTESIAN_POINT('',(-5.75857864376269,0.,35.));
#630=CARTESIAN_POINT('',(0.,0.,35.));
#631=CARTESIAN_POINT('',(0.,0.,34.8585786437627));
#632=CARTESIAN_POINT('',(-5.9,0.,34.8585786437627));
#633=CARTESIAN_POINT('',(0.,0.,0.));
#634=CARTESIAN_POINT('',(0.,0.,33.6));
#635=CARTESIAN_POINT('',(-5.9,0.,33.6));
#636=CARTESIAN_POINT('',(0.,5.9,33.6));
#637=CARTESIAN_POINT('',(0.,0.,33.6));
#638=CARTESIAN_POINT('',(-6.29021956416947,0.,33.6));
#639=CARTESIAN_POINT('',(0.,0.,33.6));
#640=CARTESIAN_POINT('',(0.,0.,30.6));
#641=CARTESIAN_POINT('',(-6.5,0.,30.6));
#642=CARTESIAN_POINT('',(0.,0.,0.));
#643=CARTESIAN_POINT('',(0.,0.,22.8));
#644=CARTESIAN_POINT('',(-6.5,0.,22.8));
#645=CARTESIAN_POINT('',(0.,0.,22.8));
#646=CARTESIAN_POINT('',(0.,0.,21.3));
#647=CARTESIAN_POINT('',(-5.,0.,21.3));
#648=CARTESIAN_POINT('',(0.,0.,0.));
#649=CARTESIAN_POINT('',(0.,0.,18.8535533905933));
#650=CARTESIAN_POINT('',(-5.,0.,18.8535533905933));
#651=CARTESIAN_POINT('',(0.,0.,18.8535533905933));
#652=CARTESIAN_POINT('',(0.,0.,18.5));
#653=CARTESIAN_POINT('',(-4.64644660940673,0.,18.5));
#654=CARTESIAN_POINT('',(0.,4.64644660940673,18.5));
#655=CARTESIAN_POINT('',(0.,0.,18.5));
#656=CARTESIAN_POINT('',(-2.9845,0.,18.5));
#657=CARTESIAN_POINT('',(0.,0.,17.5));
#658=CARTESIAN_POINT('',(0.,0.,17.5));
#659=CARTESIAN_POINT('',(-1.9845,0.,17.5));
#660=CARTESIAN_POINT('',(0.,0.,0.));
#661=CARTESIAN_POINT('',(0.,0.,0.300000000000005));
#662=CARTESIAN_POINT('',(-1.9845,0.,0.300000000000005));
#663=CARTESIAN_POINT('',(0.,0.,0.3));
#664=CARTESIAN_POINT('',(0.,0.,-1.0842021724855E-16));
#665=CARTESIAN_POINT('',(-1.6845,0.,-1.0842021724855E-16));
#666=CARTESIAN_POINT('',(0.,1.6845,-5.42101086242752E-17));
#667=CARTESIAN_POINT('',(0.,0.,0.));
#668=CARTESIAN_POINT('',(-1.,0.,0.));
#669=CARTESIAN_POINT('',(0.,0.,37.5));
#670=CARTESIAN_POINT('',(0.,0.,37.5));
#671=CARTESIAN_POINT('',(-3.175,0.,37.5));
#672=CARTESIAN_POINT('',(0.,0.,0.));
#673=CARTESIAN_POINT('',(0.,0.,21.));
#674=CARTESIAN_POINT('',(-3.175,0.,21.));
#675=CARTESIAN_POINT('',(0.,3.175,21.));
#676=CARTESIAN_POINT('',(0.,0.,21.));
#677=CARTESIAN_POINT('',(-1.,0.,21.));
#678=CARTESIAN_POINT('',(0.,0.,0.));
#679=MECHANICAL_DESIGN_GEOMETRIC_PRESENTATION_REPRESENTATION('',(#260,#261,
#262,#263,#264,#265,#266,#267,#268,#269,#270,#271,#272,#273,#274,#275,#276,
#277,#278,#279,#280,#281,#282,#283),#680);
#680=(
GEOMETRIC_REPRESENTATION_CONTEXT(3)
GLOBAL_UNCERTAINTY_ASSIGNED_CONTEXT((#681))
GLOBAL_UNIT_ASSIGNED_CONTEXT((#684,#683,#682))
REPRESENTATION_CONTEXT('564812 QB-5/32H-1/4-U',
'TOP_LEVEL_ASSEMBLY_PART')
);
#681=UNCERTAINTY_MEASURE_WITH_UNIT(LENGTH_MEASURE(0.005),#684,
'DISTANCE_ACCURACY_VALUE','Maximum Tolerance applied to model');
#682=(
NAMED_UNIT(*)
SI_UNIT($,.STERADIAN.)
SOLID_ANGLE_UNIT()
);
#683=(
NAMED_UNIT(*)
PLANE_ANGLE_UNIT()
SI_UNIT($,.RADIAN.)
);
#684=(
LENGTH_UNIT()
NAMED_UNIT(*)
SI_UNIT(.MILLI.,.METRE.)
);
#685=PRODUCT_DEFINITION_SHAPE('','',#686);
#686=PRODUCT_DEFINITION('','',#688,#687);
#687=PRODUCT_DEFINITION_CONTEXT('',#694,'design');
#688=PRODUCT_DEFINITION_FORMATION_WITH_SPECIFIED_SOURCE('','',#690,
 .NOT_KNOWN.);
#689=PRODUCT_RELATED_PRODUCT_CATEGORY('','',(#690));
#690=PRODUCT('564812 QB-5/32H-1/4-U','564812 QB-5/32H-1/4-U',
'564812 QB-5/32H-1/4-U',(#692));
#691=PRODUCT_CATEGORY('','');
#692=PRODUCT_CONTEXT('',#694,'mechanical');
#693=APPLICATION_PROTOCOL_DEFINITION('international standard',
'automotive_design',2010,#694);
#694=APPLICATION_CONTEXT(
'core data for automotive mechanical design processes');
ENDSEC;
END-ISO-10303-21;
