ISO-10303-21;
HEADER;
/* Generated by software containing ST-Developer
 * from STEP Tools, Inc. (www.steptools.com) 
 */
/* OPTION: using custom renumber hook */

FILE_DESCRIPTION(
/* description */ ('STEP AP214'),
/* implementation_level */ '2;1');

FILE_NAME(
/* name */ '564814_QB-1_4H-5_32-U',
/* time_stamp */ '2024-09-14T01:23:46+02:00',
/* author */ ('License CC BY-ND 4.0'),
/* organization */ ('CADENAS'),
/* preprocessor_version */ 'ST-DEVELOPER v19.3',
/* originating_system */ 'PARTsolutions',
/* authorisation */ '  ');

FILE_SCHEMA (('AUTOMOTIVE_DESIGN {1 0 10303 214 3 1 1}'));
ENDSEC;

DATA;
#10=PROPERTY_DEFINITION_REPRESENTATION(#14,#12);
#11=PROPERTY_DEFINITION_REPRESENTATION(#15,#13);
#12=REPRESENTATION('',(#16),#653);
#13=REPRESENTATION('',(#17),#653);
#14=PROPERTY_DEFINITION('pmi validation property','',#658);
#15=PROPERTY_DEFINITION('pmi validation property','',#658);
#16=VALUE_REPRESENTATION_ITEM('number of annotations',COUNT_MEASURE(0.));
#17=VALUE_REPRESENTATION_ITEM('number of views',COUNT_MEASURE(0.));
#18=SHAPE_REPRESENTATION_RELATIONSHIP('','',#440,#19);
#19=ADVANCED_BREP_SHAPE_REPRESENTATION('',(#438),#653);
#20=PLANE('',#449);
#21=PLANE('',#455);
#22=PLANE('',#461);
#23=PLANE('',#473);
#24=PLANE('',#479);
#25=PLANE('',#485);
#26=CYLINDRICAL_SURFACE('',#447,4.95);
#27=CYLINDRICAL_SURFACE('',#453,2.9845);
#28=CYLINDRICAL_SURFACE('',#459,4.75);
#29=CYLINDRICAL_SURFACE('',#465,5.25);
#30=CYLINDRICAL_SURFACE('',#469,4.);
#31=CYLINDRICAL_SURFACE('',#475,3.175);
#32=CYLINDRICAL_SURFACE('',#483,1.9845);
#33=CYLINDRICAL_SURFACE('',#487,1.7);
#34=TOROIDAL_SURFACE('',#445,4.75000000000002,0.199999999999983);
#35=TOROIDAL_SURFACE('',#451,3.33449999999999,0.349999999999989);
#36=TOROIDAL_SURFACE('',#477,2.875,0.299999999999999);
#37=TOROIDAL_SURFACE('',#481,2.28449999999999,0.299999999999988);
#38=ORIENTED_EDGE('',*,*,#84,.F.);
#39=ORIENTED_EDGE('',*,*,#85,.T.);
#40=ORIENTED_EDGE('',*,*,#84,.T.);
#41=ORIENTED_EDGE('',*,*,#86,.F.);
#42=ORIENTED_EDGE('',*,*,#87,.F.);
#43=ORIENTED_EDGE('',*,*,#86,.T.);
#44=ORIENTED_EDGE('',*,*,#88,.F.);
#45=ORIENTED_EDGE('',*,*,#87,.T.);
#46=ORIENTED_EDGE('',*,*,#89,.F.);
#47=ORIENTED_EDGE('',*,*,#88,.T.);
#48=ORIENTED_EDGE('',*,*,#90,.F.);
#49=ORIENTED_EDGE('',*,*,#89,.T.);
#50=ORIENTED_EDGE('',*,*,#91,.F.);
#51=ORIENTED_EDGE('',*,*,#90,.T.);
#52=ORIENTED_EDGE('',*,*,#92,.F.);
#53=ORIENTED_EDGE('',*,*,#91,.T.);
#54=ORIENTED_EDGE('',*,*,#93,.F.);
#55=ORIENTED_EDGE('',*,*,#92,.T.);
#56=ORIENTED_EDGE('',*,*,#94,.F.);
#57=ORIENTED_EDGE('',*,*,#93,.T.);
#58=ORIENTED_EDGE('',*,*,#95,.F.);
#59=ORIENTED_EDGE('',*,*,#94,.T.);
#60=ORIENTED_EDGE('',*,*,#96,.F.);
#61=ORIENTED_EDGE('',*,*,#95,.T.);
#62=ORIENTED_EDGE('',*,*,#97,.F.);
#63=ORIENTED_EDGE('',*,*,#96,.T.);
#64=ORIENTED_EDGE('',*,*,#98,.F.);
#65=ORIENTED_EDGE('',*,*,#97,.T.);
#66=ORIENTED_EDGE('',*,*,#99,.F.);
#67=ORIENTED_EDGE('',*,*,#98,.T.);
#68=ORIENTED_EDGE('',*,*,#100,.F.);
#69=ORIENTED_EDGE('',*,*,#99,.T.);
#70=ORIENTED_EDGE('',*,*,#101,.F.);
#71=ORIENTED_EDGE('',*,*,#100,.T.);
#72=ORIENTED_EDGE('',*,*,#101,.T.);
#73=ORIENTED_EDGE('',*,*,#102,.F.);
#74=ORIENTED_EDGE('',*,*,#103,.F.);
#75=ORIENTED_EDGE('',*,*,#102,.T.);
#76=ORIENTED_EDGE('',*,*,#104,.T.);
#77=ORIENTED_EDGE('',*,*,#85,.F.);
#78=ORIENTED_EDGE('',*,*,#105,.T.);
#79=ORIENTED_EDGE('',*,*,#104,.F.);
#80=ORIENTED_EDGE('',*,*,#106,.T.);
#81=ORIENTED_EDGE('',*,*,#105,.F.);
#82=ORIENTED_EDGE('',*,*,#103,.T.);
#83=ORIENTED_EDGE('',*,*,#106,.F.);
#84=EDGE_CURVE('',#107,#107,#130,.T.);
#85=EDGE_CURVE('',#108,#108,#131,.T.);
#86=EDGE_CURVE('',#109,#109,#132,.T.);
#87=EDGE_CURVE('',#110,#110,#133,.T.);
#88=EDGE_CURVE('',#111,#111,#134,.T.);
#89=EDGE_CURVE('',#112,#112,#135,.T.);
#90=EDGE_CURVE('',#113,#113,#136,.T.);
#91=EDGE_CURVE('',#114,#114,#137,.T.);
#92=EDGE_CURVE('',#115,#115,#138,.T.);
#93=EDGE_CURVE('',#116,#116,#139,.T.);
#94=EDGE_CURVE('',#117,#117,#140,.T.);
#95=EDGE_CURVE('',#118,#118,#141,.T.);
#96=EDGE_CURVE('',#119,#119,#142,.T.);
#97=EDGE_CURVE('',#120,#120,#143,.T.);
#98=EDGE_CURVE('',#121,#121,#144,.T.);
#99=EDGE_CURVE('',#122,#122,#145,.T.);
#100=EDGE_CURVE('',#123,#123,#146,.T.);
#101=EDGE_CURVE('',#124,#124,#147,.T.);
#102=EDGE_CURVE('',#125,#125,#148,.T.);
#103=EDGE_CURVE('',#126,#126,#149,.T.);
#104=EDGE_CURVE('',#127,#127,#150,.T.);
#105=EDGE_CURVE('',#128,#128,#151,.T.);
#106=EDGE_CURVE('',#129,#129,#152,.T.);
#107=VERTEX_POINT('',#585);
#108=VERTEX_POINT('',#587);
#109=VERTEX_POINT('',#590);
#110=VERTEX_POINT('',#593);
#111=VERTEX_POINT('',#596);
#112=VERTEX_POINT('',#599);
#113=VERTEX_POINT('',#602);
#114=VERTEX_POINT('',#605);
#115=VERTEX_POINT('',#608);
#116=VERTEX_POINT('',#611);
#117=VERTEX_POINT('',#614);
#118=VERTEX_POINT('',#617);
#119=VERTEX_POINT('',#620);
#120=VERTEX_POINT('',#623);
#121=VERTEX_POINT('',#626);
#122=VERTEX_POINT('',#629);
#123=VERTEX_POINT('',#632);
#124=VERTEX_POINT('',#635);
#125=VERTEX_POINT('',#638);
#126=VERTEX_POINT('',#641);
#127=VERTEX_POINT('',#644);
#128=VERTEX_POINT('',#647);
#129=VERTEX_POINT('',#650);
#130=CIRCLE('',#443,4.78472963553339);
#131=CIRCLE('',#444,2.2845);
#132=CIRCLE('',#446,4.95);
#133=CIRCLE('',#448,4.95);
#134=CIRCLE('',#450,3.3345);
#135=CIRCLE('',#452,2.9845);
#136=CIRCLE('',#454,2.9845);
#137=CIRCLE('',#456,4.60857864376269);
#138=CIRCLE('',#458,4.75);
#139=CIRCLE('',#460,4.75);
#140=CIRCLE('',#462,5.04021956416947);
#141=CIRCLE('',#464,5.25);
#142=CIRCLE('',#466,5.25);
#143=CIRCLE('',#468,4.);
#144=CIRCLE('',#470,4.);
#145=CIRCLE('',#472,3.64644660940673);
#146=CIRCLE('',#474,3.175);
#147=CIRCLE('',#476,3.175);
#148=CIRCLE('',#478,2.875);
#149=CIRCLE('',#480,1.7);
#150=CIRCLE('',#482,1.9845);
#151=CIRCLE('',#484,1.9845);
#152=CIRCLE('',#486,1.7);
#153=EDGE_LOOP('',(#38));
#154=EDGE_LOOP('',(#39));
#155=EDGE_LOOP('',(#40));
#156=EDGE_LOOP('',(#41));
#157=EDGE_LOOP('',(#42));
#158=EDGE_LOOP('',(#43));
#159=EDGE_LOOP('',(#44));
#160=EDGE_LOOP('',(#45));
#161=EDGE_LOOP('',(#46));
#162=EDGE_LOOP('',(#47));
#163=EDGE_LOOP('',(#48));
#164=EDGE_LOOP('',(#49));
#165=EDGE_LOOP('',(#50));
#166=EDGE_LOOP('',(#51));
#167=EDGE_LOOP('',(#52));
#168=EDGE_LOOP('',(#53));
#169=EDGE_LOOP('',(#54));
#170=EDGE_LOOP('',(#55));
#171=EDGE_LOOP('',(#56));
#172=EDGE_LOOP('',(#57));
#173=EDGE_LOOP('',(#58));
#174=EDGE_LOOP('',(#59));
#175=EDGE_LOOP('',(#60));
#176=EDGE_LOOP('',(#61));
#177=EDGE_LOOP('',(#62));
#178=EDGE_LOOP('',(#63));
#179=EDGE_LOOP('',(#64));
#180=EDGE_LOOP('',(#65));
#181=EDGE_LOOP('',(#66));
#182=EDGE_LOOP('',(#67));
#183=EDGE_LOOP('',(#68));
#184=EDGE_LOOP('',(#69));
#185=EDGE_LOOP('',(#70));
#186=EDGE_LOOP('',(#71));
#187=EDGE_LOOP('',(#72));
#188=EDGE_LOOP('',(#73));
#189=EDGE_LOOP('',(#74));
#190=EDGE_LOOP('',(#75));
#191=EDGE_LOOP('',(#76));
#192=EDGE_LOOP('',(#77));
#193=EDGE_LOOP('',(#78));
#194=EDGE_LOOP('',(#79));
#195=EDGE_LOOP('',(#80));
#196=EDGE_LOOP('',(#81));
#197=EDGE_LOOP('',(#82));
#198=EDGE_LOOP('',(#83));
#199=FACE_BOUND('',#153,.T.);
#200=FACE_BOUND('',#154,.T.);
#201=FACE_BOUND('',#155,.T.);
#202=FACE_BOUND('',#156,.T.);
#203=FACE_BOUND('',#157,.T.);
#204=FACE_BOUND('',#158,.T.);
#205=FACE_BOUND('',#159,.T.);
#206=FACE_BOUND('',#160,.T.);
#207=FACE_BOUND('',#161,.T.);
#208=FACE_BOUND('',#162,.T.);
#209=FACE_BOUND('',#163,.T.);
#210=FACE_BOUND('',#164,.T.);
#211=FACE_BOUND('',#165,.T.);
#212=FACE_BOUND('',#166,.T.);
#213=FACE_BOUND('',#167,.T.);
#214=FACE_BOUND('',#168,.T.);
#215=FACE_BOUND('',#169,.T.);
#216=FACE_BOUND('',#170,.T.);
#217=FACE_BOUND('',#171,.T.);
#218=FACE_BOUND('',#172,.T.);
#219=FACE_BOUND('',#173,.T.);
#220=FACE_BOUND('',#174,.T.);
#221=FACE_BOUND('',#175,.T.);
#222=FACE_BOUND('',#176,.T.);
#223=FACE_BOUND('',#177,.T.);
#224=FACE_BOUND('',#178,.T.);
#225=FACE_BOUND('',#179,.T.);
#226=FACE_BOUND('',#180,.T.);
#227=FACE_BOUND('',#181,.T.);
#228=FACE_BOUND('',#182,.T.);
#229=FACE_BOUND('',#183,.T.);
#230=FACE_BOUND('',#184,.T.);
#231=FACE_BOUND('',#185,.T.);
#232=FACE_BOUND('',#186,.T.);
#233=FACE_BOUND('',#187,.T.);
#234=FACE_BOUND('',#188,.T.);
#235=FACE_BOUND('',#189,.T.);
#236=FACE_BOUND('',#190,.T.);
#237=FACE_BOUND('',#191,.T.);
#238=FACE_BOUND('',#192,.T.);
#239=FACE_BOUND('',#193,.T.);
#240=FACE_BOUND('',#194,.T.);
#241=FACE_BOUND('',#195,.T.);
#242=FACE_BOUND('',#196,.T.);
#243=FACE_BOUND('',#197,.T.);
#244=FACE_BOUND('',#198,.T.);
#245=CONICAL_SURFACE('',#442,2.2845,1.39626340159546);
#246=CONICAL_SURFACE('',#457,4.60857864376269,0.785398163397457);
#247=CONICAL_SURFACE('',#463,5.04021956416947,0.0698131700797728);
#248=CONICAL_SURFACE('',#467,5.25,0.785398163397448);
#249=CONICAL_SURFACE('',#471,4.,0.78539816339745);
#250=STYLED_ITEM('',(#273),#414);
#251=STYLED_ITEM('',(#274),#415);
#252=STYLED_ITEM('',(#275),#416);
#253=STYLED_ITEM('',(#276),#417);
#254=STYLED_ITEM('',(#277),#418);
#255=STYLED_ITEM('',(#278),#419);
#256=STYLED_ITEM('',(#279),#420);
#257=STYLED_ITEM('',(#280),#421);
#258=STYLED_ITEM('',(#281),#422);
#259=STYLED_ITEM('',(#282),#423);
#260=STYLED_ITEM('',(#283),#424);
#261=STYLED_ITEM('',(#284),#425);
#262=STYLED_ITEM('',(#285),#426);
#263=STYLED_ITEM('',(#286),#427);
#264=STYLED_ITEM('',(#287),#428);
#265=STYLED_ITEM('',(#288),#429);
#266=STYLED_ITEM('',(#289),#430);
#267=STYLED_ITEM('',(#290),#431);
#268=STYLED_ITEM('',(#291),#432);
#269=STYLED_ITEM('',(#292),#433);
#270=STYLED_ITEM('',(#293),#434);
#271=STYLED_ITEM('',(#294),#435);
#272=STYLED_ITEM('',(#295),#436);
#273=PRESENTATION_STYLE_ASSIGNMENT((#296));
#274=PRESENTATION_STYLE_ASSIGNMENT((#297));
#275=PRESENTATION_STYLE_ASSIGNMENT((#298));
#276=PRESENTATION_STYLE_ASSIGNMENT((#299));
#277=PRESENTATION_STYLE_ASSIGNMENT((#300));
#278=PRESENTATION_STYLE_ASSIGNMENT((#301));
#279=PRESENTATION_STYLE_ASSIGNMENT((#302));
#280=PRESENTATION_STYLE_ASSIGNMENT((#303));
#281=PRESENTATION_STYLE_ASSIGNMENT((#304));
#282=PRESENTATION_STYLE_ASSIGNMENT((#305));
#283=PRESENTATION_STYLE_ASSIGNMENT((#306));
#284=PRESENTATION_STYLE_ASSIGNMENT((#307));
#285=PRESENTATION_STYLE_ASSIGNMENT((#308));
#286=PRESENTATION_STYLE_ASSIGNMENT((#309));
#287=PRESENTATION_STYLE_ASSIGNMENT((#310));
#288=PRESENTATION_STYLE_ASSIGNMENT((#311));
#289=PRESENTATION_STYLE_ASSIGNMENT((#312));
#290=PRESENTATION_STYLE_ASSIGNMENT((#313));
#291=PRESENTATION_STYLE_ASSIGNMENT((#314));
#292=PRESENTATION_STYLE_ASSIGNMENT((#315));
#293=PRESENTATION_STYLE_ASSIGNMENT((#316));
#294=PRESENTATION_STYLE_ASSIGNMENT((#317));
#295=PRESENTATION_STYLE_ASSIGNMENT((#318));
#296=SURFACE_STYLE_USAGE(.BOTH.,#319);
#297=SURFACE_STYLE_USAGE(.BOTH.,#320);
#298=SURFACE_STYLE_USAGE(.BOTH.,#321);
#299=SURFACE_STYLE_USAGE(.BOTH.,#322);
#300=SURFACE_STYLE_USAGE(.BOTH.,#323);
#301=SURFACE_STYLE_USAGE(.BOTH.,#324);
#302=SURFACE_STYLE_USAGE(.BOTH.,#325);
#303=SURFACE_STYLE_USAGE(.BOTH.,#326);
#304=SURFACE_STYLE_USAGE(.BOTH.,#327);
#305=SURFACE_STYLE_USAGE(.BOTH.,#328);
#306=SURFACE_STYLE_USAGE(.BOTH.,#329);
#307=SURFACE_STYLE_USAGE(.BOTH.,#330);
#308=SURFACE_STYLE_USAGE(.BOTH.,#331);
#309=SURFACE_STYLE_USAGE(.BOTH.,#332);
#310=SURFACE_STYLE_USAGE(.BOTH.,#333);
#311=SURFACE_STYLE_USAGE(.BOTH.,#334);
#312=SURFACE_STYLE_USAGE(.BOTH.,#335);
#313=SURFACE_STYLE_USAGE(.BOTH.,#336);
#314=SURFACE_STYLE_USAGE(.BOTH.,#337);
#315=SURFACE_STYLE_USAGE(.BOTH.,#338);
#316=SURFACE_STYLE_USAGE(.BOTH.,#339);
#317=SURFACE_STYLE_USAGE(.BOTH.,#340);
#318=SURFACE_STYLE_USAGE(.BOTH.,#341);
#319=SURFACE_SIDE_STYLE('',(#342));
#320=SURFACE_SIDE_STYLE('',(#343));
#321=SURFACE_SIDE_STYLE('',(#344));
#322=SURFACE_SIDE_STYLE('',(#345));
#323=SURFACE_SIDE_STYLE('',(#346));
#324=SURFACE_SIDE_STYLE('',(#347));
#325=SURFACE_SIDE_STYLE('',(#348));
#326=SURFACE_SIDE_STYLE('',(#349));
#327=SURFACE_SIDE_STYLE('',(#350));
#328=SURFACE_SIDE_STYLE('',(#351));
#329=SURFACE_SIDE_STYLE('',(#352));
#330=SURFACE_SIDE_STYLE('',(#353));
#331=SURFACE_SIDE_STYLE('',(#354));
#332=SURFACE_SIDE_STYLE('',(#355));
#333=SURFACE_SIDE_STYLE('',(#356));
#334=SURFACE_SIDE_STYLE('',(#357));
#335=SURFACE_SIDE_STYLE('',(#358));
#336=SURFACE_SIDE_STYLE('',(#359));
#337=SURFACE_SIDE_STYLE('',(#360));
#338=SURFACE_SIDE_STYLE('',(#361));
#339=SURFACE_SIDE_STYLE('',(#362));
#340=SURFACE_SIDE_STYLE('',(#363));
#341=SURFACE_SIDE_STYLE('',(#364));
#342=SURFACE_STYLE_FILL_AREA(#365);
#343=SURFACE_STYLE_FILL_AREA(#366);
#344=SURFACE_STYLE_FILL_AREA(#367);
#345=SURFACE_STYLE_FILL_AREA(#368);
#346=SURFACE_STYLE_FILL_AREA(#369);
#347=SURFACE_STYLE_FILL_AREA(#370);
#348=SURFACE_STYLE_FILL_AREA(#371);
#349=SURFACE_STYLE_FILL_AREA(#372);
#350=SURFACE_STYLE_FILL_AREA(#373);
#351=SURFACE_STYLE_FILL_AREA(#374);
#352=SURFACE_STYLE_FILL_AREA(#375);
#353=SURFACE_STYLE_FILL_AREA(#376);
#354=SURFACE_STYLE_FILL_AREA(#377);
#355=SURFACE_STYLE_FILL_AREA(#378);
#356=SURFACE_STYLE_FILL_AREA(#379);
#357=SURFACE_STYLE_FILL_AREA(#380);
#358=SURFACE_STYLE_FILL_AREA(#381);
#359=SURFACE_STYLE_FILL_AREA(#382);
#360=SURFACE_STYLE_FILL_AREA(#383);
#361=SURFACE_STYLE_FILL_AREA(#384);
#362=SURFACE_STYLE_FILL_AREA(#385);
#363=SURFACE_STYLE_FILL_AREA(#386);
#364=SURFACE_STYLE_FILL_AREA(#387);
#365=FILL_AREA_STYLE('',(#388));
#366=FILL_AREA_STYLE('',(#389));
#367=FILL_AREA_STYLE('',(#390));
#368=FILL_AREA_STYLE('',(#391));
#369=FILL_AREA_STYLE('',(#392));
#370=FILL_AREA_STYLE('',(#393));
#371=FILL_AREA_STYLE('',(#394));
#372=FILL_AREA_STYLE('',(#395));
#373=FILL_AREA_STYLE('',(#396));
#374=FILL_AREA_STYLE('',(#397));
#375=FILL_AREA_STYLE('',(#398));
#376=FILL_AREA_STYLE('',(#399));
#377=FILL_AREA_STYLE('',(#400));
#378=FILL_AREA_STYLE('',(#401));
#379=FILL_AREA_STYLE('',(#402));
#380=FILL_AREA_STYLE('',(#403));
#381=FILL_AREA_STYLE('',(#404));
#382=FILL_AREA_STYLE('',(#405));
#383=FILL_AREA_STYLE('',(#406));
#384=FILL_AREA_STYLE('',(#407));
#385=FILL_AREA_STYLE('',(#408));
#386=FILL_AREA_STYLE('',(#409));
#387=FILL_AREA_STYLE('',(#410));
#388=FILL_AREA_STYLE_COLOUR('',#411);
#389=FILL_AREA_STYLE_COLOUR('',#411);
#390=FILL_AREA_STYLE_COLOUR('',#411);
#391=FILL_AREA_STYLE_COLOUR('',#411);
#392=FILL_AREA_STYLE_COLOUR('',#411);
#393=FILL_AREA_STYLE_COLOUR('',#411);
#394=FILL_AREA_STYLE_COLOUR('',#412);
#395=FILL_AREA_STYLE_COLOUR('',#412);
#396=FILL_AREA_STYLE_COLOUR('',#412);
#397=FILL_AREA_STYLE_COLOUR('',#413);
#398=FILL_AREA_STYLE_COLOUR('',#413);
#399=FILL_AREA_STYLE_COLOUR('',#413);
#400=FILL_AREA_STYLE_COLOUR('',#413);
#401=FILL_AREA_STYLE_COLOUR('',#413);
#402=FILL_AREA_STYLE_COLOUR('',#413);
#403=FILL_AREA_STYLE_COLOUR('',#413);
#404=FILL_AREA_STYLE_COLOUR('',#413);
#405=FILL_AREA_STYLE_COLOUR('',#413);
#406=FILL_AREA_STYLE_COLOUR('',#413);
#407=FILL_AREA_STYLE_COLOUR('',#411);
#408=FILL_AREA_STYLE_COLOUR('',#412);
#409=FILL_AREA_STYLE_COLOUR('',#412);
#410=FILL_AREA_STYLE_COLOUR('',#413);
#411=COLOUR_RGB('',0.,0.60000002384186,1.);
#412=COLOUR_RGB('',0.689999997615814,0.689999997615814,0.689999997615814);
#413=COLOUR_RGB('',0.11800000071526,0.11800000071526,0.11800000071526);
#414=ADVANCED_FACE('',(#199,#200),#245,.T.);
#415=ADVANCED_FACE('',(#201,#202),#34,.T.);
#416=ADVANCED_FACE('',(#203,#204),#26,.T.);
#417=ADVANCED_FACE('',(#205,#206),#20,.F.);
#418=ADVANCED_FACE('',(#207,#208),#35,.F.);
#419=ADVANCED_FACE('',(#209,#210),#27,.T.);
#420=ADVANCED_FACE('',(#211,#212),#21,.F.);
#421=ADVANCED_FACE('',(#213,#214),#246,.T.);
#422=ADVANCED_FACE('',(#215,#216),#28,.T.);
#423=ADVANCED_FACE('',(#217,#218),#22,.F.);
#424=ADVANCED_FACE('',(#219,#220),#247,.T.);
#425=ADVANCED_FACE('',(#221,#222),#29,.T.);
#426=ADVANCED_FACE('',(#223,#224),#248,.T.);
#427=ADVANCED_FACE('',(#225,#226),#30,.T.);
#428=ADVANCED_FACE('',(#227,#228),#249,.T.);
#429=ADVANCED_FACE('',(#229,#230),#23,.F.);
#430=ADVANCED_FACE('',(#231,#232),#31,.T.);
#431=ADVANCED_FACE('',(#233,#234),#36,.T.);
#432=ADVANCED_FACE('',(#235,#236),#24,.F.);
#433=ADVANCED_FACE('',(#237,#238),#37,.T.);
#434=ADVANCED_FACE('',(#239,#240),#32,.F.);
#435=ADVANCED_FACE('',(#241,#242),#25,.T.);
#436=ADVANCED_FACE('',(#243,#244),#33,.F.);
#437=CLOSED_SHELL('',(#414,#415,#416,#417,#418,#419,#420,#421,#422,#423,
#424,#425,#426,#427,#428,#429,#430,#431,#432,#433,#434,#435,#436));
#438=MANIFOLD_SOLID_BREP('564814 QB-1/4H-5/32-U',#437);
#439=SHAPE_DEFINITION_REPRESENTATION(#658,#440);
#440=SHAPE_REPRESENTATION('564814 QB-1/4H-5/32-U',(#441),#653);
#441=AXIS2_PLACEMENT_3D('',#582,#488,#489);
#442=AXIS2_PLACEMENT_3D('',#583,#490,#491);
#443=AXIS2_PLACEMENT_3D('',#584,#492,#493);
#444=AXIS2_PLACEMENT_3D('',#586,#494,#495);
#445=AXIS2_PLACEMENT_3D('',#588,#496,#497);
#446=AXIS2_PLACEMENT_3D('',#589,#498,#499);
#447=AXIS2_PLACEMENT_3D('',#591,#500,#501);
#448=AXIS2_PLACEMENT_3D('',#592,#502,#503);
#449=AXIS2_PLACEMENT_3D('',#594,#504,#505);
#450=AXIS2_PLACEMENT_3D('',#595,#506,#507);
#451=AXIS2_PLACEMENT_3D('',#597,#508,#509);
#452=AXIS2_PLACEMENT_3D('',#598,#510,#511);
#453=AXIS2_PLACEMENT_3D('',#600,#512,#513);
#454=AXIS2_PLACEMENT_3D('',#601,#514,#515);
#455=AXIS2_PLACEMENT_3D('',#603,#516,#517);
#456=AXIS2_PLACEMENT_3D('',#604,#518,#519);
#457=AXIS2_PLACEMENT_3D('',#606,#520,#521);
#458=AXIS2_PLACEMENT_3D('',#607,#522,#523);
#459=AXIS2_PLACEMENT_3D('',#609,#524,#525);
#460=AXIS2_PLACEMENT_3D('',#610,#526,#527);
#461=AXIS2_PLACEMENT_3D('',#612,#528,#529);
#462=AXIS2_PLACEMENT_3D('',#613,#530,#531);
#463=AXIS2_PLACEMENT_3D('',#615,#532,#533);
#464=AXIS2_PLACEMENT_3D('',#616,#534,#535);
#465=AXIS2_PLACEMENT_3D('',#618,#536,#537);
#466=AXIS2_PLACEMENT_3D('',#619,#538,#539);
#467=AXIS2_PLACEMENT_3D('',#621,#540,#541);
#468=AXIS2_PLACEMENT_3D('',#622,#542,#543);
#469=AXIS2_PLACEMENT_3D('',#624,#544,#545);
#470=AXIS2_PLACEMENT_3D('',#625,#546,#547);
#471=AXIS2_PLACEMENT_3D('',#627,#548,#549);
#472=AXIS2_PLACEMENT_3D('',#628,#550,#551);
#473=AXIS2_PLACEMENT_3D('',#630,#552,#553);
#474=AXIS2_PLACEMENT_3D('',#631,#554,#555);
#475=AXIS2_PLACEMENT_3D('',#633,#556,#557);
#476=AXIS2_PLACEMENT_3D('',#634,#558,#559);
#477=AXIS2_PLACEMENT_3D('',#636,#560,#561);
#478=AXIS2_PLACEMENT_3D('',#637,#562,#563);
#479=AXIS2_PLACEMENT_3D('',#639,#564,#565);
#480=AXIS2_PLACEMENT_3D('',#640,#566,#567);
#481=AXIS2_PLACEMENT_3D('',#642,#568,#569);
#482=AXIS2_PLACEMENT_3D('',#643,#570,#571);
#483=AXIS2_PLACEMENT_3D('',#645,#572,#573);
#484=AXIS2_PLACEMENT_3D('',#646,#574,#575);
#485=AXIS2_PLACEMENT_3D('',#648,#576,#577);
#486=AXIS2_PLACEMENT_3D('',#649,#578,#579);
#487=AXIS2_PLACEMENT_3D('',#651,#580,#581);
#488=DIRECTION('',(0.,0.,1.));
#489=DIRECTION('',(1.,0.,0.));
#490=DIRECTION('',(0.,0.,-1.));
#491=DIRECTION('',(-1.,0.,0.));
#492=DIRECTION('',(0.,0.,-1.));
#493=DIRECTION('',(-1.,0.,0.));
#494=DIRECTION('',(0.,0.,-1.));
#495=DIRECTION('',(-1.,0.,0.));
#496=DIRECTION('',(0.,0.,-1.));
#497=DIRECTION('',(-1.,0.,0.));
#498=DIRECTION('',(0.,0.,-1.));
#499=DIRECTION('',(-1.,0.,0.));
#500=DIRECTION('',(0.,0.,-1.));
#501=DIRECTION('',(-1.,0.,0.));
#502=DIRECTION('',(0.,0.,-1.));
#503=DIRECTION('',(-1.,0.,0.));
#504=DIRECTION('',(0.,0.,1.));
#505=DIRECTION('',(1.,0.,0.));
#506=DIRECTION('',(0.,0.,-1.));
#507=DIRECTION('',(-1.,0.,0.));
#508=DIRECTION('',(0.,0.,-1.));
#509=DIRECTION('',(-1.,0.,0.));
#510=DIRECTION('',(0.,0.,-1.));
#511=DIRECTION('',(-1.,0.,0.));
#512=DIRECTION('',(0.,0.,-1.));
#513=DIRECTION('',(-1.,0.,0.));
#514=DIRECTION('',(0.,0.,-1.));
#515=DIRECTION('',(-1.,0.,0.));
#516=DIRECTION('',(0.,0.,-1.));
#517=DIRECTION('',(-1.,0.,0.));
#518=DIRECTION('',(0.,0.,-1.));
#519=DIRECTION('',(-1.,0.,0.));
#520=DIRECTION('',(0.,0.,-1.));
#521=DIRECTION('',(-1.,0.,0.));
#522=DIRECTION('',(0.,0.,-1.));
#523=DIRECTION('',(-1.,0.,0.));
#524=DIRECTION('',(0.,0.,-1.));
#525=DIRECTION('',(-1.,0.,0.));
#526=DIRECTION('',(0.,0.,-1.));
#527=DIRECTION('',(-1.,0.,0.));
#528=DIRECTION('',(0.,0.,-1.));
#529=DIRECTION('',(-1.,0.,0.));
#530=DIRECTION('',(0.,0.,-1.));
#531=DIRECTION('',(-1.,0.,0.));
#532=DIRECTION('',(0.,0.,-1.));
#533=DIRECTION('',(-1.,0.,0.));
#534=DIRECTION('',(0.,0.,-1.));
#535=DIRECTION('',(-1.,0.,0.));
#536=DIRECTION('',(0.,0.,-1.));
#537=DIRECTION('',(-1.,0.,0.));
#538=DIRECTION('',(0.,0.,-1.));
#539=DIRECTION('',(-1.,0.,0.));
#540=DIRECTION('',(0.,0.,1.));
#541=DIRECTION('',(1.,0.,0.));
#542=DIRECTION('',(0.,0.,-1.));
#543=DIRECTION('',(-1.,0.,0.));
#544=DIRECTION('',(0.,0.,-1.));
#545=DIRECTION('',(-1.,0.,0.));
#546=DIRECTION('',(0.,0.,-1.));
#547=DIRECTION('',(-1.,0.,0.));
#548=DIRECTION('',(0.,0.,1.));
#549=DIRECTION('',(1.,0.,0.));
#550=DIRECTION('',(0.,0.,-1.));
#551=DIRECTION('',(-1.,0.,0.));
#552=DIRECTION('',(0.,0.,1.));
#553=DIRECTION('',(1.,0.,0.));
#554=DIRECTION('',(0.,0.,-1.));
#555=DIRECTION('',(-1.,0.,0.));
#556=DIRECTION('',(0.,0.,-1.));
#557=DIRECTION('',(-1.,0.,0.));
#558=DIRECTION('',(0.,0.,-1.));
#559=DIRECTION('',(-1.,0.,0.));
#560=DIRECTION('',(0.,0.,-1.));
#561=DIRECTION('',(-1.,0.,0.));
#562=DIRECTION('',(0.,0.,-1.));
#563=DIRECTION('',(-1.,0.,0.));
#564=DIRECTION('',(0.,0.,1.));
#565=DIRECTION('',(1.,0.,0.));
#566=DIRECTION('',(0.,0.,-1.));
#567=DIRECTION('',(-1.,0.,0.));
#568=DIRECTION('',(0.,0.,-1.));
#569=DIRECTION('',(-1.,0.,0.));
#570=DIRECTION('',(0.,0.,-1.));
#571=DIRECTION('',(-1.,0.,0.));
#572=DIRECTION('',(0.,0.,-1.));
#573=DIRECTION('',(-1.,0.,0.));
#574=DIRECTION('',(0.,0.,-1.));
#575=DIRECTION('',(-1.,0.,0.));
#576=DIRECTION('',(0.,0.,1.));
#577=DIRECTION('',(1.,0.,0.));
#578=DIRECTION('',(0.,0.,-1.));
#579=DIRECTION('',(-1.,0.,0.));
#580=DIRECTION('',(0.,0.,-1.));
#581=DIRECTION('',(-1.,0.,0.));
#582=CARTESIAN_POINT('',(0.,0.,0.));
#583=CARTESIAN_POINT('',(0.,0.,40.3));
#584=CARTESIAN_POINT('',(0.,0.,39.8591420572886));
#585=CARTESIAN_POINT('',(-4.78472963553339,0.,39.8591420572886));
#586=CARTESIAN_POINT('',(0.,0.,40.3));
#587=CARTESIAN_POINT('',(-2.2845,0.,40.3));
#588=CARTESIAN_POINT('',(0.,0.,39.6621805066861));
#589=CARTESIAN_POINT('',(0.,0.,39.6621805066861));
#590=CARTESIAN_POINT('',(-4.95,0.,39.6621805066861));
#591=CARTESIAN_POINT('',(0.,0.,0.));
#592=CARTESIAN_POINT('',(0.,0.,38.4));
#593=CARTESIAN_POINT('',(-4.95,0.,38.4));
#594=CARTESIAN_POINT('',(0.,4.95,38.4));
#595=CARTESIAN_POINT('',(0.,0.,38.4));
#596=CARTESIAN_POINT('',(-3.3345,0.,38.4));
#597=CARTESIAN_POINT('',(0.,0.,38.05));
#598=CARTESIAN_POINT('',(0.,0.,38.05));
#599=CARTESIAN_POINT('',(-2.9845,0.,38.05));
#600=CARTESIAN_POINT('',(0.,0.,0.));
#601=CARTESIAN_POINT('',(0.,0.,37.5));
#602=CARTESIAN_POINT('',(-2.9845,0.,37.5));
#603=CARTESIAN_POINT('',(0.,2.9845,37.5));
#604=CARTESIAN_POINT('',(0.,0.,37.5));
#605=CARTESIAN_POINT('',(-4.60857864376269,0.,37.5));
#606=CARTESIAN_POINT('',(0.,0.,37.5));
#607=CARTESIAN_POINT('',(0.,0.,37.3585786437627));
#608=CARTESIAN_POINT('',(-4.75,0.,37.3585786437627));
#609=CARTESIAN_POINT('',(0.,0.,0.));
#610=CARTESIAN_POINT('',(0.,0.,36.1));
#611=CARTESIAN_POINT('',(-4.75,0.,36.1));
#612=CARTESIAN_POINT('',(0.,4.75,36.1));
#613=CARTESIAN_POINT('',(0.,0.,36.1));
#614=CARTESIAN_POINT('',(-5.04021956416947,0.,36.1));
#615=CARTESIAN_POINT('',(0.,0.,36.1));
#616=CARTESIAN_POINT('',(0.,0.,33.1));
#617=CARTESIAN_POINT('',(-5.25,0.,33.1));
#618=CARTESIAN_POINT('',(0.,0.,0.));
#619=CARTESIAN_POINT('',(0.,0.,26.65));
#620=CARTESIAN_POINT('',(-5.25,0.,26.65));
#621=CARTESIAN_POINT('',(0.,0.,26.65));
#622=CARTESIAN_POINT('',(0.,0.,25.4));
#623=CARTESIAN_POINT('',(-4.,0.,25.4));
#624=CARTESIAN_POINT('',(0.,0.,0.));
#625=CARTESIAN_POINT('',(0.,0.,22.9535533905933));
#626=CARTESIAN_POINT('',(-4.,0.,22.9535533905933));
#627=CARTESIAN_POINT('',(0.,0.,22.9535533905933));
#628=CARTESIAN_POINT('',(0.,0.,22.6));
#629=CARTESIAN_POINT('',(-3.64644660940673,0.,22.6));
#630=CARTESIAN_POINT('',(0.,3.64644660940673,22.6));
#631=CARTESIAN_POINT('',(0.,0.,22.6));
#632=CARTESIAN_POINT('',(-3.175,0.,22.6));
#633=CARTESIAN_POINT('',(0.,0.,0.));
#634=CARTESIAN_POINT('',(0.,0.,0.300000000000002));
#635=CARTESIAN_POINT('',(-3.175,0.,0.300000000000002));
#636=CARTESIAN_POINT('',(0.,0.,0.299999999999999));
#637=CARTESIAN_POINT('',(0.,0.,-1.0842021724855E-16));
#638=CARTESIAN_POINT('',(-2.875,0.,-1.0842021724855E-16));
#639=CARTESIAN_POINT('',(0.,2.875,-5.42101086242752E-17));
#640=CARTESIAN_POINT('',(0.,0.,3.46944695195361E-15));
#641=CARTESIAN_POINT('',(-1.7,0.,3.46944695195361E-15));
#642=CARTESIAN_POINT('',(0.,0.,40.));
#643=CARTESIAN_POINT('',(0.,0.,40.));
#644=CARTESIAN_POINT('',(-1.9845,0.,40.));
#645=CARTESIAN_POINT('',(0.,0.,0.));
#646=CARTESIAN_POINT('',(0.,0.,25.4));
#647=CARTESIAN_POINT('',(-1.9845,0.,25.4));
#648=CARTESIAN_POINT('',(0.,1.9845,25.4));
#649=CARTESIAN_POINT('',(0.,0.,25.4));
#650=CARTESIAN_POINT('',(-1.7,0.,25.4));
#651=CARTESIAN_POINT('',(0.,0.,0.));
#652=MECHANICAL_DESIGN_GEOMETRIC_PRESENTATION_REPRESENTATION('',(#250,#251,
#252,#253,#254,#255,#256,#257,#258,#259,#260,#261,#262,#263,#264,#265,#266,
#267,#268,#269,#270,#271,#272),#653);
#653=(
GEOMETRIC_REPRESENTATION_CONTEXT(3)
GLOBAL_UNCERTAINTY_ASSIGNED_CONTEXT((#654))
GLOBAL_UNIT_ASSIGNED_CONTEXT((#657,#656,#655))
REPRESENTATION_CONTEXT('564814 QB-1/4H-5/32-U',
'TOP_LEVEL_ASSEMBLY_PART')
);
#654=UNCERTAINTY_MEASURE_WITH_UNIT(LENGTH_MEASURE(0.005),#657,
'DISTANCE_ACCURACY_VALUE','Maximum Tolerance applied to model');
#655=(
NAMED_UNIT(*)
SI_UNIT($,.STERADIAN.)
SOLID_ANGLE_UNIT()
);
#656=(
NAMED_UNIT(*)
PLANE_ANGLE_UNIT()
SI_UNIT($,.RADIAN.)
);
#657=(
LENGTH_UNIT()
NAMED_UNIT(*)
SI_UNIT(.MILLI.,.METRE.)
);
#658=PRODUCT_DEFINITION_SHAPE('','',#659);
#659=PRODUCT_DEFINITION('','',#661,#660);
#660=PRODUCT_DEFINITION_CONTEXT('',#667,'design');
#661=PRODUCT_DEFINITION_FORMATION_WITH_SPECIFIED_SOURCE('','',#663,
 .NOT_KNOWN.);
#662=PRODUCT_RELATED_PRODUCT_CATEGORY('','',(#663));
#663=PRODUCT('564814 QB-1/4H-5/32-U','564814 QB-1/4H-5/32-U',
'564814 QB-1/4H-5/32-U',(#665));
#664=PRODUCT_CATEGORY('','');
#665=PRODUCT_CONTEXT('',#667,'mechanical');
#666=APPLICATION_PROTOCOL_DEFINITION('international standard',
'automotive_design',2010,#667);
#667=APPLICATION_CONTEXT(
'core data for automotive mechanical design processes');
ENDSEC;
END-ISO-10303-21;
