ISO-10303-21;
HEADER;
/* Generated by software containing ST-Developer
 * from STEP Tools, Inc. (www.steptools.com) 
 */
/* OPTION: using custom renumber hook */

FILE_DESCRIPTION(
/* description */ ('STEP AP214'),
/* implementation_level */ '2;1');

FILE_NAME(
/* name */ '564817_QB-3_8H-1_4-U',
/* time_stamp */ '2024-09-14T01:35:02+02:00',
/* author */ ('License CC BY-ND 4.0'),
/* organization */ ('CADENAS'),
/* preprocessor_version */ 'ST-DEVELOPER v19.3',
/* originating_system */ 'PARTsolutions',
/* authorisation */ '  ');

FILE_SCHEMA (('AUTOMOTIVE_DESIGN {1 0 10303 214 3 1 1}'));
ENDSEC;

DATA;
#10=PROPERTY_DEFINITION_REPRESENTATION(#14,#12);
#11=PROPERTY_DEFINITION_REPRESENTATION(#15,#13);
#12=REPRESENTATION('',(#16),#545);
#13=REPRESENTATION('',(#17),#545);
#14=PROPERTY_DEFINITION('pmi validation property','',#550);
#15=PROPERTY_DEFINITION('pmi validation property','',#550);
#16=VALUE_REPRESENTATION_ITEM('number of annotations',COUNT_MEASURE(0.));
#17=VALUE_REPRESENTATION_ITEM('number of views',COUNT_MEASURE(0.));
#18=SHAPE_REPRESENTATION_RELATIONSHIP('','',#368,#19);
#19=ADVANCED_BREP_SHAPE_REPRESENTATION('',(#366),#545);
#20=PLANE('',#377);
#21=PLANE('',#383);
#22=PLANE('',#389);
#23=PLANE('',#399);
#24=PLANE('',#405);
#25=CYLINDRICAL_SURFACE('',#375,5.9);
#26=CYLINDRICAL_SURFACE('',#381,4.175);
#27=CYLINDRICAL_SURFACE('',#387,5.9);
#28=CYLINDRICAL_SURFACE('',#393,6.5);
#29=CYLINDRICAL_SURFACE('',#397,4.7625);
#30=CYLINDRICAL_SURFACE('',#403,3.175);
#31=CYLINDRICAL_SURFACE('',#407,2.8);
#32=TOROIDAL_SURFACE('',#373,5.70000000000002,0.199999999999975);
#33=TOROIDAL_SURFACE('',#379,4.525,0.350000000000003);
#34=TOROIDAL_SURFACE('',#401,3.47499999999999,0.299999999999988);
#35=ORIENTED_EDGE('',*,*,#73,.F.);
#36=ORIENTED_EDGE('',*,*,#74,.T.);
#37=ORIENTED_EDGE('',*,*,#73,.T.);
#38=ORIENTED_EDGE('',*,*,#75,.F.);
#39=ORIENTED_EDGE('',*,*,#76,.F.);
#40=ORIENTED_EDGE('',*,*,#75,.T.);
#41=ORIENTED_EDGE('',*,*,#77,.F.);
#42=ORIENTED_EDGE('',*,*,#76,.T.);
#43=ORIENTED_EDGE('',*,*,#78,.F.);
#44=ORIENTED_EDGE('',*,*,#77,.T.);
#45=ORIENTED_EDGE('',*,*,#79,.F.);
#46=ORIENTED_EDGE('',*,*,#78,.T.);
#47=ORIENTED_EDGE('',*,*,#80,.F.);
#48=ORIENTED_EDGE('',*,*,#79,.T.);
#49=ORIENTED_EDGE('',*,*,#81,.F.);
#50=ORIENTED_EDGE('',*,*,#80,.T.);
#51=ORIENTED_EDGE('',*,*,#82,.F.);
#52=ORIENTED_EDGE('',*,*,#81,.T.);
#53=ORIENTED_EDGE('',*,*,#83,.F.);
#54=ORIENTED_EDGE('',*,*,#82,.T.);
#55=ORIENTED_EDGE('',*,*,#84,.F.);
#56=ORIENTED_EDGE('',*,*,#83,.T.);
#57=ORIENTED_EDGE('',*,*,#85,.F.);
#58=ORIENTED_EDGE('',*,*,#84,.T.);
#59=ORIENTED_EDGE('',*,*,#86,.F.);
#60=ORIENTED_EDGE('',*,*,#85,.T.);
#61=ORIENTED_EDGE('',*,*,#87,.F.);
#62=ORIENTED_EDGE('',*,*,#86,.T.);
#63=ORIENTED_EDGE('',*,*,#88,.F.);
#64=ORIENTED_EDGE('',*,*,#87,.T.);
#65=ORIENTED_EDGE('',*,*,#89,.T.);
#66=ORIENTED_EDGE('',*,*,#74,.F.);
#67=ORIENTED_EDGE('',*,*,#90,.T.);
#68=ORIENTED_EDGE('',*,*,#89,.F.);
#69=ORIENTED_EDGE('',*,*,#91,.T.);
#70=ORIENTED_EDGE('',*,*,#90,.F.);
#71=ORIENTED_EDGE('',*,*,#88,.T.);
#72=ORIENTED_EDGE('',*,*,#91,.F.);
#73=EDGE_CURVE('',#92,#92,#111,.T.);
#74=EDGE_CURVE('',#93,#93,#112,.T.);
#75=EDGE_CURVE('',#94,#94,#113,.T.);
#76=EDGE_CURVE('',#95,#95,#114,.T.);
#77=EDGE_CURVE('',#96,#96,#115,.T.);
#78=EDGE_CURVE('',#97,#97,#116,.T.);
#79=EDGE_CURVE('',#98,#98,#117,.T.);
#80=EDGE_CURVE('',#99,#99,#118,.T.);
#81=EDGE_CURVE('',#100,#100,#119,.T.);
#82=EDGE_CURVE('',#101,#101,#120,.T.);
#83=EDGE_CURVE('',#102,#102,#121,.T.);
#84=EDGE_CURVE('',#103,#103,#122,.T.);
#85=EDGE_CURVE('',#104,#104,#123,.T.);
#86=EDGE_CURVE('',#105,#105,#124,.T.);
#87=EDGE_CURVE('',#106,#106,#125,.T.);
#88=EDGE_CURVE('',#107,#107,#126,.T.);
#89=EDGE_CURVE('',#108,#108,#127,.T.);
#90=EDGE_CURVE('',#109,#109,#128,.T.);
#91=EDGE_CURVE('',#110,#110,#129,.T.);
#92=VERTEX_POINT('',#489);
#93=VERTEX_POINT('',#491);
#94=VERTEX_POINT('',#494);
#95=VERTEX_POINT('',#497);
#96=VERTEX_POINT('',#500);
#97=VERTEX_POINT('',#503);
#98=VERTEX_POINT('',#506);
#99=VERTEX_POINT('',#509);
#100=VERTEX_POINT('',#512);
#101=VERTEX_POINT('',#515);
#102=VERTEX_POINT('',#518);
#103=VERTEX_POINT('',#521);
#104=VERTEX_POINT('',#524);
#105=VERTEX_POINT('',#527);
#106=VERTEX_POINT('',#530);
#107=VERTEX_POINT('',#533);
#108=VERTEX_POINT('',#536);
#109=VERTEX_POINT('',#539);
#110=VERTEX_POINT('',#542);
#111=CIRCLE('',#371,5.73472963553339);
#112=CIRCLE('',#372,3.47499999999995);
#113=CIRCLE('',#374,5.9);
#114=CIRCLE('',#376,5.9);
#115=CIRCLE('',#378,4.525);
#116=CIRCLE('',#380,4.175);
#117=CIRCLE('',#382,4.175);
#118=CIRCLE('',#384,5.75857864376269);
#119=CIRCLE('',#386,5.9);
#120=CIRCLE('',#388,5.9);
#121=CIRCLE('',#390,6.29021956416947);
#122=CIRCLE('',#392,6.5);
#123=CIRCLE('',#394,6.5);
#124=CIRCLE('',#396,4.7625);
#125=CIRCLE('',#398,4.7625);
#126=CIRCLE('',#400,2.8);
#127=CIRCLE('',#402,3.175);
#128=CIRCLE('',#404,3.175);
#129=CIRCLE('',#406,2.8);
#130=EDGE_LOOP('',(#35));
#131=EDGE_LOOP('',(#36));
#132=EDGE_LOOP('',(#37));
#133=EDGE_LOOP('',(#38));
#134=EDGE_LOOP('',(#39));
#135=EDGE_LOOP('',(#40));
#136=EDGE_LOOP('',(#41));
#137=EDGE_LOOP('',(#42));
#138=EDGE_LOOP('',(#43));
#139=EDGE_LOOP('',(#44));
#140=EDGE_LOOP('',(#45));
#141=EDGE_LOOP('',(#46));
#142=EDGE_LOOP('',(#47));
#143=EDGE_LOOP('',(#48));
#144=EDGE_LOOP('',(#49));
#145=EDGE_LOOP('',(#50));
#146=EDGE_LOOP('',(#51));
#147=EDGE_LOOP('',(#52));
#148=EDGE_LOOP('',(#53));
#149=EDGE_LOOP('',(#54));
#150=EDGE_LOOP('',(#55));
#151=EDGE_LOOP('',(#56));
#152=EDGE_LOOP('',(#57));
#153=EDGE_LOOP('',(#58));
#154=EDGE_LOOP('',(#59));
#155=EDGE_LOOP('',(#60));
#156=EDGE_LOOP('',(#61));
#157=EDGE_LOOP('',(#62));
#158=EDGE_LOOP('',(#63));
#159=EDGE_LOOP('',(#64));
#160=EDGE_LOOP('',(#65));
#161=EDGE_LOOP('',(#66));
#162=EDGE_LOOP('',(#67));
#163=EDGE_LOOP('',(#68));
#164=EDGE_LOOP('',(#69));
#165=EDGE_LOOP('',(#70));
#166=EDGE_LOOP('',(#71));
#167=EDGE_LOOP('',(#72));
#168=FACE_BOUND('',#130,.T.);
#169=FACE_BOUND('',#131,.T.);
#170=FACE_BOUND('',#132,.T.);
#171=FACE_BOUND('',#133,.T.);
#172=FACE_BOUND('',#134,.T.);
#173=FACE_BOUND('',#135,.T.);
#174=FACE_BOUND('',#136,.T.);
#175=FACE_BOUND('',#137,.T.);
#176=FACE_BOUND('',#138,.T.);
#177=FACE_BOUND('',#139,.T.);
#178=FACE_BOUND('',#140,.T.);
#179=FACE_BOUND('',#141,.T.);
#180=FACE_BOUND('',#142,.T.);
#181=FACE_BOUND('',#143,.T.);
#182=FACE_BOUND('',#144,.T.);
#183=FACE_BOUND('',#145,.T.);
#184=FACE_BOUND('',#146,.T.);
#185=FACE_BOUND('',#147,.T.);
#186=FACE_BOUND('',#148,.T.);
#187=FACE_BOUND('',#149,.T.);
#188=FACE_BOUND('',#150,.T.);
#189=FACE_BOUND('',#151,.T.);
#190=FACE_BOUND('',#152,.T.);
#191=FACE_BOUND('',#153,.T.);
#192=FACE_BOUND('',#154,.T.);
#193=FACE_BOUND('',#155,.T.);
#194=FACE_BOUND('',#156,.T.);
#195=FACE_BOUND('',#157,.T.);
#196=FACE_BOUND('',#158,.T.);
#197=FACE_BOUND('',#159,.T.);
#198=FACE_BOUND('',#160,.T.);
#199=FACE_BOUND('',#161,.T.);
#200=FACE_BOUND('',#162,.T.);
#201=FACE_BOUND('',#163,.T.);
#202=FACE_BOUND('',#164,.T.);
#203=FACE_BOUND('',#165,.T.);
#204=FACE_BOUND('',#166,.T.);
#205=FACE_BOUND('',#167,.T.);
#206=CONICAL_SURFACE('',#370,3.47499999999995,1.39626340159546);
#207=CONICAL_SURFACE('',#385,5.75857864376269,0.785398163397461);
#208=CONICAL_SURFACE('',#391,6.29021956416947,0.0698131700797733);
#209=CONICAL_SURFACE('',#395,6.5,0.785398163397447);
#210=STYLED_ITEM('',(#229),#346);
#211=STYLED_ITEM('',(#230),#347);
#212=STYLED_ITEM('',(#231),#348);
#213=STYLED_ITEM('',(#232),#349);
#214=STYLED_ITEM('',(#233),#350);
#215=STYLED_ITEM('',(#234),#351);
#216=STYLED_ITEM('',(#235),#352);
#217=STYLED_ITEM('',(#236),#353);
#218=STYLED_ITEM('',(#237),#354);
#219=STYLED_ITEM('',(#238),#355);
#220=STYLED_ITEM('',(#239),#356);
#221=STYLED_ITEM('',(#240),#357);
#222=STYLED_ITEM('',(#241),#358);
#223=STYLED_ITEM('',(#242),#359);
#224=STYLED_ITEM('',(#243),#360);
#225=STYLED_ITEM('',(#244),#361);
#226=STYLED_ITEM('',(#245),#362);
#227=STYLED_ITEM('',(#246),#363);
#228=STYLED_ITEM('',(#247),#364);
#229=PRESENTATION_STYLE_ASSIGNMENT((#248));
#230=PRESENTATION_STYLE_ASSIGNMENT((#249));
#231=PRESENTATION_STYLE_ASSIGNMENT((#250));
#232=PRESENTATION_STYLE_ASSIGNMENT((#251));
#233=PRESENTATION_STYLE_ASSIGNMENT((#252));
#234=PRESENTATION_STYLE_ASSIGNMENT((#253));
#235=PRESENTATION_STYLE_ASSIGNMENT((#254));
#236=PRESENTATION_STYLE_ASSIGNMENT((#255));
#237=PRESENTATION_STYLE_ASSIGNMENT((#256));
#238=PRESENTATION_STYLE_ASSIGNMENT((#257));
#239=PRESENTATION_STYLE_ASSIGNMENT((#258));
#240=PRESENTATION_STYLE_ASSIGNMENT((#259));
#241=PRESENTATION_STYLE_ASSIGNMENT((#260));
#242=PRESENTATION_STYLE_ASSIGNMENT((#261));
#243=PRESENTATION_STYLE_ASSIGNMENT((#262));
#244=PRESENTATION_STYLE_ASSIGNMENT((#263));
#245=PRESENTATION_STYLE_ASSIGNMENT((#264));
#246=PRESENTATION_STYLE_ASSIGNMENT((#265));
#247=PRESENTATION_STYLE_ASSIGNMENT((#266));
#248=SURFACE_STYLE_USAGE(.BOTH.,#267);
#249=SURFACE_STYLE_USAGE(.BOTH.,#268);
#250=SURFACE_STYLE_USAGE(.BOTH.,#269);
#251=SURFACE_STYLE_USAGE(.BOTH.,#270);
#252=SURFACE_STYLE_USAGE(.BOTH.,#271);
#253=SURFACE_STYLE_USAGE(.BOTH.,#272);
#254=SURFACE_STYLE_USAGE(.BOTH.,#273);
#255=SURFACE_STYLE_USAGE(.BOTH.,#274);
#256=SURFACE_STYLE_USAGE(.BOTH.,#275);
#257=SURFACE_STYLE_USAGE(.BOTH.,#276);
#258=SURFACE_STYLE_USAGE(.BOTH.,#277);
#259=SURFACE_STYLE_USAGE(.BOTH.,#278);
#260=SURFACE_STYLE_USAGE(.BOTH.,#279);
#261=SURFACE_STYLE_USAGE(.BOTH.,#280);
#262=SURFACE_STYLE_USAGE(.BOTH.,#281);
#263=SURFACE_STYLE_USAGE(.BOTH.,#282);
#264=SURFACE_STYLE_USAGE(.BOTH.,#283);
#265=SURFACE_STYLE_USAGE(.BOTH.,#284);
#266=SURFACE_STYLE_USAGE(.BOTH.,#285);
#267=SURFACE_SIDE_STYLE('',(#286));
#268=SURFACE_SIDE_STYLE('',(#287));
#269=SURFACE_SIDE_STYLE('',(#288));
#270=SURFACE_SIDE_STYLE('',(#289));
#271=SURFACE_SIDE_STYLE('',(#290));
#272=SURFACE_SIDE_STYLE('',(#291));
#273=SURFACE_SIDE_STYLE('',(#292));
#274=SURFACE_SIDE_STYLE('',(#293));
#275=SURFACE_SIDE_STYLE('',(#294));
#276=SURFACE_SIDE_STYLE('',(#295));
#277=SURFACE_SIDE_STYLE('',(#296));
#278=SURFACE_SIDE_STYLE('',(#297));
#279=SURFACE_SIDE_STYLE('',(#298));
#280=SURFACE_SIDE_STYLE('',(#299));
#281=SURFACE_SIDE_STYLE('',(#300));
#282=SURFACE_SIDE_STYLE('',(#301));
#283=SURFACE_SIDE_STYLE('',(#302));
#284=SURFACE_SIDE_STYLE('',(#303));
#285=SURFACE_SIDE_STYLE('',(#304));
#286=SURFACE_STYLE_FILL_AREA(#305);
#287=SURFACE_STYLE_FILL_AREA(#306);
#288=SURFACE_STYLE_FILL_AREA(#307);
#289=SURFACE_STYLE_FILL_AREA(#308);
#290=SURFACE_STYLE_FILL_AREA(#309);
#291=SURFACE_STYLE_FILL_AREA(#310);
#292=SURFACE_STYLE_FILL_AREA(#311);
#293=SURFACE_STYLE_FILL_AREA(#312);
#294=SURFACE_STYLE_FILL_AREA(#313);
#295=SURFACE_STYLE_FILL_AREA(#314);
#296=SURFACE_STYLE_FILL_AREA(#315);
#297=SURFACE_STYLE_FILL_AREA(#316);
#298=SURFACE_STYLE_FILL_AREA(#317);
#299=SURFACE_STYLE_FILL_AREA(#318);
#300=SURFACE_STYLE_FILL_AREA(#319);
#301=SURFACE_STYLE_FILL_AREA(#320);
#302=SURFACE_STYLE_FILL_AREA(#321);
#303=SURFACE_STYLE_FILL_AREA(#322);
#304=SURFACE_STYLE_FILL_AREA(#323);
#305=FILL_AREA_STYLE('',(#324));
#306=FILL_AREA_STYLE('',(#325));
#307=FILL_AREA_STYLE('',(#326));
#308=FILL_AREA_STYLE('',(#327));
#309=FILL_AREA_STYLE('',(#328));
#310=FILL_AREA_STYLE('',(#329));
#311=FILL_AREA_STYLE('',(#330));
#312=FILL_AREA_STYLE('',(#331));
#313=FILL_AREA_STYLE('',(#332));
#314=FILL_AREA_STYLE('',(#333));
#315=FILL_AREA_STYLE('',(#334));
#316=FILL_AREA_STYLE('',(#335));
#317=FILL_AREA_STYLE('',(#336));
#318=FILL_AREA_STYLE('',(#337));
#319=FILL_AREA_STYLE('',(#338));
#320=FILL_AREA_STYLE('',(#339));
#321=FILL_AREA_STYLE('',(#340));
#322=FILL_AREA_STYLE('',(#341));
#323=FILL_AREA_STYLE('',(#342));
#324=FILL_AREA_STYLE_COLOUR('',#343);
#325=FILL_AREA_STYLE_COLOUR('',#343);
#326=FILL_AREA_STYLE_COLOUR('',#343);
#327=FILL_AREA_STYLE_COLOUR('',#343);
#328=FILL_AREA_STYLE_COLOUR('',#343);
#329=FILL_AREA_STYLE_COLOUR('',#343);
#330=FILL_AREA_STYLE_COLOUR('',#344);
#331=FILL_AREA_STYLE_COLOUR('',#344);
#332=FILL_AREA_STYLE_COLOUR('',#344);
#333=FILL_AREA_STYLE_COLOUR('',#345);
#334=FILL_AREA_STYLE_COLOUR('',#345);
#335=FILL_AREA_STYLE_COLOUR('',#345);
#336=FILL_AREA_STYLE_COLOUR('',#345);
#337=FILL_AREA_STYLE_COLOUR('',#345);
#338=FILL_AREA_STYLE_COLOUR('',#345);
#339=FILL_AREA_STYLE_COLOUR('',#343);
#340=FILL_AREA_STYLE_COLOUR('',#344);
#341=FILL_AREA_STYLE_COLOUR('',#344);
#342=FILL_AREA_STYLE_COLOUR('',#345);
#343=COLOUR_RGB('',0.,0.60000002384186,1.);
#344=COLOUR_RGB('',0.689999997615814,0.689999997615814,0.689999997615814);
#345=COLOUR_RGB('',0.11800000071526,0.11800000071526,0.11800000071526);
#346=ADVANCED_FACE('',(#168,#169),#206,.T.);
#347=ADVANCED_FACE('',(#170,#171),#32,.T.);
#348=ADVANCED_FACE('',(#172,#173),#25,.T.);
#349=ADVANCED_FACE('',(#174,#175),#20,.F.);
#350=ADVANCED_FACE('',(#176,#177),#33,.F.);
#351=ADVANCED_FACE('',(#178,#179),#26,.T.);
#352=ADVANCED_FACE('',(#180,#181),#21,.F.);
#353=ADVANCED_FACE('',(#182,#183),#207,.T.);
#354=ADVANCED_FACE('',(#184,#185),#27,.T.);
#355=ADVANCED_FACE('',(#186,#187),#22,.F.);
#356=ADVANCED_FACE('',(#188,#189),#208,.T.);
#357=ADVANCED_FACE('',(#190,#191),#28,.T.);
#358=ADVANCED_FACE('',(#192,#193),#209,.T.);
#359=ADVANCED_FACE('',(#194,#195),#29,.T.);
#360=ADVANCED_FACE('',(#196,#197),#23,.F.);
#361=ADVANCED_FACE('',(#198,#199),#34,.T.);
#362=ADVANCED_FACE('',(#200,#201),#30,.F.);
#363=ADVANCED_FACE('',(#202,#203),#24,.T.);
#364=ADVANCED_FACE('',(#204,#205),#31,.F.);
#365=CLOSED_SHELL('',(#346,#347,#348,#349,#350,#351,#352,#353,#354,#355,
#356,#357,#358,#359,#360,#361,#362,#363,#364));
#366=MANIFOLD_SOLID_BREP('564817 QB-3/8H-1/4-U',#365);
#367=SHAPE_DEFINITION_REPRESENTATION(#550,#368);
#368=SHAPE_REPRESENTATION('564817 QB-3/8H-1/4-U',(#369),#545);
#369=AXIS2_PLACEMENT_3D('',#486,#408,#409);
#370=AXIS2_PLACEMENT_3D('',#487,#410,#411);
#371=AXIS2_PLACEMENT_3D('',#488,#412,#413);
#372=AXIS2_PLACEMENT_3D('',#490,#414,#415);
#373=AXIS2_PLACEMENT_3D('',#492,#416,#417);
#374=AXIS2_PLACEMENT_3D('',#493,#418,#419);
#375=AXIS2_PLACEMENT_3D('',#495,#420,#421);
#376=AXIS2_PLACEMENT_3D('',#496,#422,#423);
#377=AXIS2_PLACEMENT_3D('',#498,#424,#425);
#378=AXIS2_PLACEMENT_3D('',#499,#426,#427);
#379=AXIS2_PLACEMENT_3D('',#501,#428,#429);
#380=AXIS2_PLACEMENT_3D('',#502,#430,#431);
#381=AXIS2_PLACEMENT_3D('',#504,#432,#433);
#382=AXIS2_PLACEMENT_3D('',#505,#434,#435);
#383=AXIS2_PLACEMENT_3D('',#507,#436,#437);
#384=AXIS2_PLACEMENT_3D('',#508,#438,#439);
#385=AXIS2_PLACEMENT_3D('',#510,#440,#441);
#386=AXIS2_PLACEMENT_3D('',#511,#442,#443);
#387=AXIS2_PLACEMENT_3D('',#513,#444,#445);
#388=AXIS2_PLACEMENT_3D('',#514,#446,#447);
#389=AXIS2_PLACEMENT_3D('',#516,#448,#449);
#390=AXIS2_PLACEMENT_3D('',#517,#450,#451);
#391=AXIS2_PLACEMENT_3D('',#519,#452,#453);
#392=AXIS2_PLACEMENT_3D('',#520,#454,#455);
#393=AXIS2_PLACEMENT_3D('',#522,#456,#457);
#394=AXIS2_PLACEMENT_3D('',#523,#458,#459);
#395=AXIS2_PLACEMENT_3D('',#525,#460,#461);
#396=AXIS2_PLACEMENT_3D('',#526,#462,#463);
#397=AXIS2_PLACEMENT_3D('',#528,#464,#465);
#398=AXIS2_PLACEMENT_3D('',#529,#466,#467);
#399=AXIS2_PLACEMENT_3D('',#531,#468,#469);
#400=AXIS2_PLACEMENT_3D('',#532,#470,#471);
#401=AXIS2_PLACEMENT_3D('',#534,#472,#473);
#402=AXIS2_PLACEMENT_3D('',#535,#474,#475);
#403=AXIS2_PLACEMENT_3D('',#537,#476,#477);
#404=AXIS2_PLACEMENT_3D('',#538,#478,#479);
#405=AXIS2_PLACEMENT_3D('',#540,#480,#481);
#406=AXIS2_PLACEMENT_3D('',#541,#482,#483);
#407=AXIS2_PLACEMENT_3D('',#543,#484,#485);
#408=DIRECTION('',(0.,0.,1.));
#409=DIRECTION('',(1.,0.,0.));
#410=DIRECTION('',(0.,0.,-1.));
#411=DIRECTION('',(-1.,0.,0.));
#412=DIRECTION('',(0.,0.,-1.));
#413=DIRECTION('',(-1.,0.,0.));
#414=DIRECTION('',(0.,0.,-1.));
#415=DIRECTION('',(-1.,0.,0.));
#416=DIRECTION('',(0.,0.,-1.));
#417=DIRECTION('',(-1.,0.,0.));
#418=DIRECTION('',(0.,0.,-1.));
#419=DIRECTION('',(-1.,0.,0.));
#420=DIRECTION('',(0.,0.,-1.));
#421=DIRECTION('',(-1.,0.,0.));
#422=DIRECTION('',(0.,0.,-1.));
#423=DIRECTION('',(-1.,0.,0.));
#424=DIRECTION('',(0.,0.,1.));
#425=DIRECTION('',(1.,0.,0.));
#426=DIRECTION('',(0.,0.,-1.));
#427=DIRECTION('',(-1.,0.,0.));
#428=DIRECTION('',(0.,0.,-1.));
#429=DIRECTION('',(-1.,0.,0.));
#430=DIRECTION('',(0.,0.,-1.));
#431=DIRECTION('',(-1.,0.,0.));
#432=DIRECTION('',(0.,0.,-1.));
#433=DIRECTION('',(-1.,0.,0.));
#434=DIRECTION('',(0.,0.,-1.));
#435=DIRECTION('',(-1.,0.,0.));
#436=DIRECTION('',(0.,0.,-1.));
#437=DIRECTION('',(-1.,0.,0.));
#438=DIRECTION('',(0.,0.,-1.));
#439=DIRECTION('',(-1.,0.,0.));
#440=DIRECTION('',(0.,0.,-1.));
#441=DIRECTION('',(-1.,0.,0.));
#442=DIRECTION('',(0.,0.,-1.));
#443=DIRECTION('',(-1.,0.,0.));
#444=DIRECTION('',(0.,0.,-1.));
#445=DIRECTION('',(-1.,0.,0.));
#446=DIRECTION('',(0.,0.,-1.));
#447=DIRECTION('',(-1.,0.,0.));
#448=DIRECTION('',(0.,0.,-1.));
#449=DIRECTION('',(-1.,0.,0.));
#450=DIRECTION('',(0.,0.,-1.));
#451=DIRECTION('',(-1.,0.,0.));
#452=DIRECTION('',(0.,0.,-1.));
#453=DIRECTION('',(-1.,0.,0.));
#454=DIRECTION('',(0.,0.,-1.));
#455=DIRECTION('',(-1.,0.,0.));
#456=DIRECTION('',(0.,0.,-1.));
#457=DIRECTION('',(-1.,0.,0.));
#458=DIRECTION('',(0.,0.,-1.));
#459=DIRECTION('',(-1.,0.,0.));
#460=DIRECTION('',(0.,0.,1.));
#461=DIRECTION('',(1.,0.,0.));
#462=DIRECTION('',(0.,0.,-1.));
#463=DIRECTION('',(-1.,0.,0.));
#464=DIRECTION('',(0.,0.,-1.));
#465=DIRECTION('',(-1.,0.,0.));
#466=DIRECTION('',(0.,0.,-1.));
#467=DIRECTION('',(-1.,0.,0.));
#468=DIRECTION('',(0.,0.,1.));
#469=DIRECTION('',(1.,0.,0.));
#470=DIRECTION('',(0.,0.,-1.));
#471=DIRECTION('',(-1.,0.,0.));
#472=DIRECTION('',(0.,0.,-1.));
#473=DIRECTION('',(-1.,0.,0.));
#474=DIRECTION('',(0.,0.,-1.));
#475=DIRECTION('',(-1.,0.,0.));
#476=DIRECTION('',(0.,0.,-1.));
#477=DIRECTION('',(-1.,0.,0.));
#478=DIRECTION('',(0.,0.,-1.));
#479=DIRECTION('',(-1.,0.,0.));
#480=DIRECTION('',(0.,0.,1.));
#481=DIRECTION('',(1.,0.,0.));
#482=DIRECTION('',(0.,0.,-1.));
#483=DIRECTION('',(-1.,0.,0.));
#484=DIRECTION('',(0.,0.,-1.));
#485=DIRECTION('',(-1.,0.,0.));
#486=CARTESIAN_POINT('',(0.,0.,0.));
#487=CARTESIAN_POINT('',(0.,0.,48.));
#488=CARTESIAN_POINT('',(0.,0.,47.6015486961489));
#489=CARTESIAN_POINT('',(-5.73472963553339,0.,47.6015486961489));
#490=CARTESIAN_POINT('',(0.,0.,48.));
#491=CARTESIAN_POINT('',(-3.47499999999995,0.,48.));
#492=CARTESIAN_POINT('',(0.,0.,47.4045871455465));
#493=CARTESIAN_POINT('',(0.,0.,47.4045871455465));
#494=CARTESIAN_POINT('',(-5.9,0.,47.4045871455465));
#495=CARTESIAN_POINT('',(0.,0.,0.));
#496=CARTESIAN_POINT('',(0.,0.,46.1));
#497=CARTESIAN_POINT('',(-5.9,0.,46.1));
#498=CARTESIAN_POINT('',(0.,5.9,46.1));
#499=CARTESIAN_POINT('',(0.,0.,46.1));
#500=CARTESIAN_POINT('',(-4.525,0.,46.1));
#501=CARTESIAN_POINT('',(0.,0.,45.75));
#502=CARTESIAN_POINT('',(0.,0.,45.75));
#503=CARTESIAN_POINT('',(-4.175,0.,45.75));
#504=CARTESIAN_POINT('',(0.,0.,0.));
#505=CARTESIAN_POINT('',(0.,0.,45.2));
#506=CARTESIAN_POINT('',(-4.175,0.,45.2));
#507=CARTESIAN_POINT('',(0.,4.175,45.2));
#508=CARTESIAN_POINT('',(0.,0.,45.2));
#509=CARTESIAN_POINT('',(-5.75857864376269,0.,45.2));
#510=CARTESIAN_POINT('',(0.,0.,45.2));
#511=CARTESIAN_POINT('',(0.,0.,45.0585786437627));
#512=CARTESIAN_POINT('',(-5.9,0.,45.0585786437627));
#513=CARTESIAN_POINT('',(0.,0.,0.));
#514=CARTESIAN_POINT('',(0.,0.,43.8));
#515=CARTESIAN_POINT('',(-5.9,0.,43.8));
#516=CARTESIAN_POINT('',(0.,5.9,43.8));
#517=CARTESIAN_POINT('',(0.,0.,43.8));
#518=CARTESIAN_POINT('',(-6.29021956416947,0.,43.8));
#519=CARTESIAN_POINT('',(0.,0.,43.8));
#520=CARTESIAN_POINT('',(0.,0.,40.8));
#521=CARTESIAN_POINT('',(-6.5,0.,40.8));
#522=CARTESIAN_POINT('',(0.,0.,0.));
#523=CARTESIAN_POINT('',(0.,0.,32.9375));
#524=CARTESIAN_POINT('',(-6.5,0.,32.9375));
#525=CARTESIAN_POINT('',(0.,0.,32.9375));
#526=CARTESIAN_POINT('',(0.,0.,31.2));
#527=CARTESIAN_POINT('',(-4.7625,0.,31.2));
#528=CARTESIAN_POINT('',(0.,0.,0.));
#529=CARTESIAN_POINT('',(0.,0.,0.));
#530=CARTESIAN_POINT('',(-4.7625,0.,0.));
#531=CARTESIAN_POINT('',(0.,4.7625,0.));
#532=CARTESIAN_POINT('',(0.,0.,0.));
#533=CARTESIAN_POINT('',(-2.8,0.,0.));
#534=CARTESIAN_POINT('',(0.,0.,47.7));
#535=CARTESIAN_POINT('',(0.,0.,47.7));
#536=CARTESIAN_POINT('',(-3.175,0.,47.7));
#537=CARTESIAN_POINT('',(0.,0.,0.));
#538=CARTESIAN_POINT('',(0.,0.,31.2));
#539=CARTESIAN_POINT('',(-3.175,0.,31.2));
#540=CARTESIAN_POINT('',(0.,3.175,31.2));
#541=CARTESIAN_POINT('',(0.,0.,31.2));
#542=CARTESIAN_POINT('',(-2.8,0.,31.2));
#543=CARTESIAN_POINT('',(0.,0.,0.));
#544=MECHANICAL_DESIGN_GEOMETRIC_PRESENTATION_REPRESENTATION('',(#210,#211,
#212,#213,#214,#215,#216,#217,#218,#219,#220,#221,#222,#223,#224,#225,#226,
#227,#228),#545);
#545=(
GEOMETRIC_REPRESENTATION_CONTEXT(3)
GLOBAL_UNCERTAINTY_ASSIGNED_CONTEXT((#546))
GLOBAL_UNIT_ASSIGNED_CONTEXT((#549,#548,#547))
REPRESENTATION_CONTEXT('564817 QB-3/8H-1/4-U','TOP_LEVEL_ASSEMBLY_PART')
);
#546=UNCERTAINTY_MEASURE_WITH_UNIT(LENGTH_MEASURE(0.005),#549,
'DISTANCE_ACCURACY_VALUE','Maximum Tolerance applied to model');
#547=(
NAMED_UNIT(*)
SI_UNIT($,.STERADIAN.)
SOLID_ANGLE_UNIT()
);
#548=(
NAMED_UNIT(*)
PLANE_ANGLE_UNIT()
SI_UNIT($,.RADIAN.)
);
#549=(
LENGTH_UNIT()
NAMED_UNIT(*)
SI_UNIT(.MILLI.,.METRE.)
);
#550=PRODUCT_DEFINITION_SHAPE('','',#551);
#551=PRODUCT_DEFINITION('','',#553,#552);
#552=PRODUCT_DEFINITION_CONTEXT('',#559,'design');
#553=PRODUCT_DEFINITION_FORMATION_WITH_SPECIFIED_SOURCE('','',#555,
 .NOT_KNOWN.);
#554=PRODUCT_RELATED_PRODUCT_CATEGORY('','',(#555));
#555=PRODUCT('564817 QB-3/8H-1/4-U','564817 QB-3/8H-1/4-U',
'564817 QB-3/8H-1/4-U',(#557));
#556=PRODUCT_CATEGORY('','');
#557=PRODUCT_CONTEXT('',#559,'mechanical');
#558=APPLICATION_PROTOCOL_DEFINITION('international standard',
'automotive_design',2010,#559);
#559=APPLICATION_CONTEXT(
'core data for automotive mechanical design processes');
ENDSEC;
END-ISO-10303-21;
