ISO-10303-21;
HEADER;
/* Generated by software containing ST-Developer
 * from STEP Tools, Inc. (www.steptools.com) 
 */
/* OPTION: using custom renumber hook */

FILE_DESCRIPTION(
/* description */ ('STEP AP214'),
/* implementation_level */ '2;1');

FILE_NAME(
/* name */ '565356_CRQS-5_16H-1_4-U',
/* time_stamp */ '2024-08-08T21:31:05+02:00',
/* author */ ('License CC BY-ND 4.0'),
/* organization */ ('CADENAS'),
/* preprocessor_version */ 'ST-DEVELOPER v19.3',
/* originating_system */ 'PARTsolutions',
/* authorisation */ '  ');

FILE_SCHEMA (('AUTOMOTIVE_DESIGN {1 0 10303 214 3 1 1}'));
ENDSEC;

DATA;
#10=PROPERTY_DEFINITION_REPRESENTATION(#14,#12);
#11=PROPERTY_DEFINITION_REPRESENTATION(#15,#13);
#12=REPRESENTATION('',(#16),#557);
#13=REPRESENTATION('',(#17),#557);
#14=PROPERTY_DEFINITION('pmi validation property','',#562);
#15=PROPERTY_DEFINITION('pmi validation property','',#562);
#16=VALUE_REPRESENTATION_ITEM('number of annotations',COUNT_MEASURE(0.));
#17=VALUE_REPRESENTATION_ITEM('number of views',COUNT_MEASURE(0.));
#18=SHAPE_REPRESENTATION_RELATIONSHIP('','',#317,#19);
#19=ADVANCED_BREP_SHAPE_REPRESENTATION('',(#315),#557);
#20=TOROIDAL_SURFACE('',#348,4.275,0.1);
#21=CYLINDRICAL_SURFACE('',#324,3.95);
#22=CYLINDRICAL_SURFACE('',#328,3.65);
#23=CYLINDRICAL_SURFACE('',#332,3.95);
#24=CYLINDRICAL_SURFACE('',#336,6.);
#25=CYLINDRICAL_SURFACE('',#340,5.8);
#26=CYLINDRICAL_SURFACE('',#346,4.175);
#27=CYLINDRICAL_SURFACE('',#352,5.9);
#28=CYLINDRICAL_SURFACE('',#358,5.9);
#29=CYLINDRICAL_SURFACE('',#364,2.5);
#30=CYLINDRICAL_SURFACE('',#368,3.175);
#31=CONICAL_SURFACE('',#322,3.73786796564404,0.785398163397443);
#32=CONICAL_SURFACE('',#334,3.95,0.785398163397447);
#33=CONICAL_SURFACE('',#342,5.8,0.785398163397447);
#34=CONICAL_SURFACE('',#354,5.9,0.785398163397447);
#35=CONICAL_SURFACE('',#356,5.7,0.785398163397447);
#36=CONICAL_SURFACE('',#360,5.9,0.78539816339745);
#37=CONICAL_SURFACE('',#370,3.175,0.523598775598301);
#38=ORIENTED_EDGE('',*,*,#90,.F.);
#39=ORIENTED_EDGE('',*,*,#91,.T.);
#40=ORIENTED_EDGE('',*,*,#92,.F.);
#41=ORIENTED_EDGE('',*,*,#90,.T.);
#42=ORIENTED_EDGE('',*,*,#93,.F.);
#43=ORIENTED_EDGE('',*,*,#92,.T.);
#44=ORIENTED_EDGE('',*,*,#94,.F.);
#45=ORIENTED_EDGE('',*,*,#93,.T.);
#46=ORIENTED_EDGE('',*,*,#95,.F.);
#47=ORIENTED_EDGE('',*,*,#94,.T.);
#48=ORIENTED_EDGE('',*,*,#96,.F.);
#49=ORIENTED_EDGE('',*,*,#95,.T.);
#50=ORIENTED_EDGE('',*,*,#97,.F.);
#51=ORIENTED_EDGE('',*,*,#96,.T.);
#52=ORIENTED_EDGE('',*,*,#98,.F.);
#53=ORIENTED_EDGE('',*,*,#97,.T.);
#54=ORIENTED_EDGE('',*,*,#99,.F.);
#55=ORIENTED_EDGE('',*,*,#98,.T.);
#56=ORIENTED_EDGE('',*,*,#100,.F.);
#57=ORIENTED_EDGE('',*,*,#99,.T.);
#58=ORIENTED_EDGE('',*,*,#101,.F.);
#59=ORIENTED_EDGE('',*,*,#100,.T.);
#60=ORIENTED_EDGE('',*,*,#102,.F.);
#61=ORIENTED_EDGE('',*,*,#101,.T.);
#62=ORIENTED_EDGE('',*,*,#103,.F.);
#63=ORIENTED_EDGE('',*,*,#102,.T.);
#64=ORIENTED_EDGE('',*,*,#104,.F.);
#65=ORIENTED_EDGE('',*,*,#103,.T.);
#66=ORIENTED_EDGE('',*,*,#105,.F.);
#67=ORIENTED_EDGE('',*,*,#104,.T.);
#68=ORIENTED_EDGE('',*,*,#106,.F.);
#69=ORIENTED_EDGE('',*,*,#105,.T.);
#70=ORIENTED_EDGE('',*,*,#107,.F.);
#71=ORIENTED_EDGE('',*,*,#106,.T.);
#72=ORIENTED_EDGE('',*,*,#108,.F.);
#73=ORIENTED_EDGE('',*,*,#107,.T.);
#74=ORIENTED_EDGE('',*,*,#109,.F.);
#75=ORIENTED_EDGE('',*,*,#108,.T.);
#76=ORIENTED_EDGE('',*,*,#110,.F.);
#77=ORIENTED_EDGE('',*,*,#109,.T.);
#78=ORIENTED_EDGE('',*,*,#111,.F.);
#79=ORIENTED_EDGE('',*,*,#110,.T.);
#80=ORIENTED_EDGE('',*,*,#112,.F.);
#81=ORIENTED_EDGE('',*,*,#111,.T.);
#82=ORIENTED_EDGE('',*,*,#113,.T.);
#83=ORIENTED_EDGE('',*,*,#91,.F.);
#84=ORIENTED_EDGE('',*,*,#114,.T.);
#85=ORIENTED_EDGE('',*,*,#113,.F.);
#86=ORIENTED_EDGE('',*,*,#115,.T.);
#87=ORIENTED_EDGE('',*,*,#114,.F.);
#88=ORIENTED_EDGE('',*,*,#112,.T.);
#89=ORIENTED_EDGE('',*,*,#115,.F.);
#90=EDGE_CURVE('',#116,#116,#142,.T.);
#91=EDGE_CURVE('',#117,#117,#143,.T.);
#92=EDGE_CURVE('',#118,#118,#144,.T.);
#93=EDGE_CURVE('',#119,#119,#145,.T.);
#94=EDGE_CURVE('',#120,#120,#146,.T.);
#95=EDGE_CURVE('',#121,#121,#147,.T.);
#96=EDGE_CURVE('',#122,#122,#148,.T.);
#97=EDGE_CURVE('',#123,#123,#149,.T.);
#98=EDGE_CURVE('',#124,#124,#150,.T.);
#99=EDGE_CURVE('',#125,#125,#151,.T.);
#100=EDGE_CURVE('',#126,#126,#152,.T.);
#101=EDGE_CURVE('',#127,#127,#153,.T.);
#102=EDGE_CURVE('',#128,#128,#154,.T.);
#103=EDGE_CURVE('',#129,#129,#155,.T.);
#104=EDGE_CURVE('',#130,#130,#156,.T.);
#105=EDGE_CURVE('',#131,#131,#157,.T.);
#106=EDGE_CURVE('',#132,#132,#158,.T.);
#107=EDGE_CURVE('',#133,#133,#159,.T.);
#108=EDGE_CURVE('',#134,#134,#160,.T.);
#109=EDGE_CURVE('',#135,#135,#161,.T.);
#110=EDGE_CURVE('',#136,#136,#162,.T.);
#111=EDGE_CURVE('',#137,#137,#163,.T.);
#112=EDGE_CURVE('',#138,#138,#164,.T.);
#113=EDGE_CURVE('',#139,#139,#165,.T.);
#114=EDGE_CURVE('',#140,#140,#166,.T.);
#115=EDGE_CURVE('',#141,#141,#167,.T.);
#116=VERTEX_POINT('',#480);
#117=VERTEX_POINT('',#482);
#118=VERTEX_POINT('',#485);
#119=VERTEX_POINT('',#488);
#120=VERTEX_POINT('',#491);
#121=VERTEX_POINT('',#494);
#122=VERTEX_POINT('',#497);
#123=VERTEX_POINT('',#500);
#124=VERTEX_POINT('',#503);
#125=VERTEX_POINT('',#506);
#126=VERTEX_POINT('',#509);
#127=VERTEX_POINT('',#512);
#128=VERTEX_POINT('',#515);
#129=VERTEX_POINT('',#518);
#130=VERTEX_POINT('',#521);
#131=VERTEX_POINT('',#524);
#132=VERTEX_POINT('',#527);
#133=VERTEX_POINT('',#530);
#134=VERTEX_POINT('',#533);
#135=VERTEX_POINT('',#536);
#136=VERTEX_POINT('',#539);
#137=VERTEX_POINT('',#542);
#138=VERTEX_POINT('',#545);
#139=VERTEX_POINT('',#548);
#140=VERTEX_POINT('',#551);
#141=VERTEX_POINT('',#554);
#142=CIRCLE('',#320,3.73786796564404);
#143=CIRCLE('',#321,2.5);
#144=CIRCLE('',#323,3.95);
#145=CIRCLE('',#325,3.95);
#146=CIRCLE('',#327,3.65);
#147=CIRCLE('',#329,3.65);
#148=CIRCLE('',#331,3.95);
#149=CIRCLE('',#333,3.95);
#150=CIRCLE('',#335,6.);
#151=CIRCLE('',#337,6.);
#152=CIRCLE('',#339,5.8);
#153=CIRCLE('',#341,5.8);
#154=CIRCLE('',#343,5.65857864376269);
#155=CIRCLE('',#345,4.175);
#156=CIRCLE('',#347,4.175);
#157=CIRCLE('',#349,4.275);
#158=CIRCLE('',#351,5.9);
#159=CIRCLE('',#353,5.9);
#160=CIRCLE('',#355,5.7);
#161=CIRCLE('',#357,5.9);
#162=CIRCLE('',#359,5.9);
#163=CIRCLE('',#361,5.75857864376269);
#164=CIRCLE('',#363,3.375);
#165=CIRCLE('',#365,2.5);
#166=CIRCLE('',#367,3.175);
#167=CIRCLE('',#369,3.175);
#168=EDGE_LOOP('',(#38));
#169=EDGE_LOOP('',(#39));
#170=EDGE_LOOP('',(#40));
#171=EDGE_LOOP('',(#41));
#172=EDGE_LOOP('',(#42));
#173=EDGE_LOOP('',(#43));
#174=EDGE_LOOP('',(#44));
#175=EDGE_LOOP('',(#45));
#176=EDGE_LOOP('',(#46));
#177=EDGE_LOOP('',(#47));
#178=EDGE_LOOP('',(#48));
#179=EDGE_LOOP('',(#49));
#180=EDGE_LOOP('',(#50));
#181=EDGE_LOOP('',(#51));
#182=EDGE_LOOP('',(#52));
#183=EDGE_LOOP('',(#53));
#184=EDGE_LOOP('',(#54));
#185=EDGE_LOOP('',(#55));
#186=EDGE_LOOP('',(#56));
#187=EDGE_LOOP('',(#57));
#188=EDGE_LOOP('',(#58));
#189=EDGE_LOOP('',(#59));
#190=EDGE_LOOP('',(#60));
#191=EDGE_LOOP('',(#61));
#192=EDGE_LOOP('',(#62));
#193=EDGE_LOOP('',(#63));
#194=EDGE_LOOP('',(#64));
#195=EDGE_LOOP('',(#65));
#196=EDGE_LOOP('',(#66));
#197=EDGE_LOOP('',(#67));
#198=EDGE_LOOP('',(#68));
#199=EDGE_LOOP('',(#69));
#200=EDGE_LOOP('',(#70));
#201=EDGE_LOOP('',(#71));
#202=EDGE_LOOP('',(#72));
#203=EDGE_LOOP('',(#73));
#204=EDGE_LOOP('',(#74));
#205=EDGE_LOOP('',(#75));
#206=EDGE_LOOP('',(#76));
#207=EDGE_LOOP('',(#77));
#208=EDGE_LOOP('',(#78));
#209=EDGE_LOOP('',(#79));
#210=EDGE_LOOP('',(#80));
#211=EDGE_LOOP('',(#81));
#212=EDGE_LOOP('',(#82));
#213=EDGE_LOOP('',(#83));
#214=EDGE_LOOP('',(#84));
#215=EDGE_LOOP('',(#85));
#216=EDGE_LOOP('',(#86));
#217=EDGE_LOOP('',(#87));
#218=EDGE_LOOP('',(#88));
#219=EDGE_LOOP('',(#89));
#220=FACE_BOUND('',#168,.T.);
#221=FACE_BOUND('',#169,.T.);
#222=FACE_BOUND('',#170,.T.);
#223=FACE_BOUND('',#171,.T.);
#224=FACE_BOUND('',#172,.T.);
#225=FACE_BOUND('',#173,.T.);
#226=FACE_BOUND('',#174,.T.);
#227=FACE_BOUND('',#175,.T.);
#228=FACE_BOUND('',#176,.T.);
#229=FACE_BOUND('',#177,.T.);
#230=FACE_BOUND('',#178,.T.);
#231=FACE_BOUND('',#179,.T.);
#232=FACE_BOUND('',#180,.T.);
#233=FACE_BOUND('',#181,.T.);
#234=FACE_BOUND('',#182,.T.);
#235=FACE_BOUND('',#183,.T.);
#236=FACE_BOUND('',#184,.T.);
#237=FACE_BOUND('',#185,.T.);
#238=FACE_BOUND('',#186,.T.);
#239=FACE_BOUND('',#187,.T.);
#240=FACE_BOUND('',#188,.T.);
#241=FACE_BOUND('',#189,.T.);
#242=FACE_BOUND('',#190,.T.);
#243=FACE_BOUND('',#191,.T.);
#244=FACE_BOUND('',#192,.T.);
#245=FACE_BOUND('',#193,.T.);
#246=FACE_BOUND('',#194,.T.);
#247=FACE_BOUND('',#195,.T.);
#248=FACE_BOUND('',#196,.T.);
#249=FACE_BOUND('',#197,.T.);
#250=FACE_BOUND('',#198,.T.);
#251=FACE_BOUND('',#199,.T.);
#252=FACE_BOUND('',#200,.T.);
#253=FACE_BOUND('',#201,.T.);
#254=FACE_BOUND('',#202,.T.);
#255=FACE_BOUND('',#203,.T.);
#256=FACE_BOUND('',#204,.T.);
#257=FACE_BOUND('',#205,.T.);
#258=FACE_BOUND('',#206,.T.);
#259=FACE_BOUND('',#207,.T.);
#260=FACE_BOUND('',#208,.T.);
#261=FACE_BOUND('',#209,.T.);
#262=FACE_BOUND('',#210,.T.);
#263=FACE_BOUND('',#211,.T.);
#264=FACE_BOUND('',#212,.T.);
#265=FACE_BOUND('',#213,.T.);
#266=FACE_BOUND('',#214,.T.);
#267=FACE_BOUND('',#215,.T.);
#268=FACE_BOUND('',#216,.T.);
#269=FACE_BOUND('',#217,.T.);
#270=FACE_BOUND('',#218,.T.);
#271=FACE_BOUND('',#219,.T.);
#272=PLANE('',#319);
#273=PLANE('',#326);
#274=PLANE('',#330);
#275=PLANE('',#338);
#276=PLANE('',#344);
#277=PLANE('',#350);
#278=PLANE('',#362);
#279=PLANE('',#366);
#280=ADVANCED_FACE('',(#220,#221),#272,.F.);
#281=ADVANCED_FACE('',(#222,#223),#31,.T.);
#282=ADVANCED_FACE('',(#224,#225),#21,.T.);
#283=ADVANCED_FACE('',(#226,#227),#273,.F.);
#284=ADVANCED_FACE('',(#228,#229),#22,.T.);
#285=ADVANCED_FACE('',(#230,#231),#274,.F.);
#286=ADVANCED_FACE('',(#232,#233),#23,.T.);
#287=ADVANCED_FACE('',(#234,#235),#32,.T.);
#288=ADVANCED_FACE('',(#236,#237),#24,.T.);
#289=ADVANCED_FACE('',(#238,#239),#275,.F.);
#290=ADVANCED_FACE('',(#240,#241),#25,.T.);
#291=ADVANCED_FACE('',(#242,#243),#33,.T.);
#292=ADVANCED_FACE('',(#244,#245),#276,.F.);
#293=ADVANCED_FACE('',(#246,#247),#26,.T.);
#294=ADVANCED_FACE('',(#248,#249),#20,.F.);
#295=ADVANCED_FACE('',(#250,#251),#277,.F.);
#296=ADVANCED_FACE('',(#252,#253),#27,.T.);
#297=ADVANCED_FACE('',(#254,#255),#34,.T.);
#298=ADVANCED_FACE('',(#256,#257),#35,.T.);
#299=ADVANCED_FACE('',(#258,#259),#28,.T.);
#300=ADVANCED_FACE('',(#260,#261),#36,.T.);
#301=ADVANCED_FACE('',(#262,#263),#278,.F.);
#302=ADVANCED_FACE('',(#264,#265),#29,.F.);
#303=ADVANCED_FACE('',(#266,#267),#279,.T.);
#304=ADVANCED_FACE('',(#268,#269),#30,.F.);
#305=ADVANCED_FACE('',(#270,#271),#37,.F.);
#306=CLOSED_SHELL('',(#280,#281,#282,#283,#284,#285,#286,#287,#288,#289,
#290,#291,#292,#293,#294,#295,#296,#297,#298,#299,#300,#301,#302,#303,#304,
#305));
#307=STYLED_ITEM('',(#308),#315);
#308=PRESENTATION_STYLE_ASSIGNMENT((#309));
#309=SURFACE_STYLE_USAGE(.BOTH.,#310);
#310=SURFACE_SIDE_STYLE('',(#311));
#311=SURFACE_STYLE_FILL_AREA(#312);
#312=FILL_AREA_STYLE('',(#313));
#313=FILL_AREA_STYLE_COLOUR('',#314);
#314=COLOUR_RGB('',0.689999997615814,0.689999997615814,0.689999997615814);
#315=MANIFOLD_SOLID_BREP('565356 CRQS-5/16H-1/4-U',#306);
#316=SHAPE_DEFINITION_REPRESENTATION(#562,#317);
#317=SHAPE_REPRESENTATION('565356 CRQS-5/16H-1/4-U',(#318),#557);
#318=AXIS2_PLACEMENT_3D('',#477,#371,#372);
#319=AXIS2_PLACEMENT_3D('',#478,#373,#374);
#320=AXIS2_PLACEMENT_3D('',#479,#375,#376);
#321=AXIS2_PLACEMENT_3D('',#481,#377,#378);
#322=AXIS2_PLACEMENT_3D('',#483,#379,#380);
#323=AXIS2_PLACEMENT_3D('',#484,#381,#382);
#324=AXIS2_PLACEMENT_3D('',#486,#383,#384);
#325=AXIS2_PLACEMENT_3D('',#487,#385,#386);
#326=AXIS2_PLACEMENT_3D('',#489,#387,#388);
#327=AXIS2_PLACEMENT_3D('',#490,#389,#390);
#328=AXIS2_PLACEMENT_3D('',#492,#391,#392);
#329=AXIS2_PLACEMENT_3D('',#493,#393,#394);
#330=AXIS2_PLACEMENT_3D('',#495,#395,#396);
#331=AXIS2_PLACEMENT_3D('',#496,#397,#398);
#332=AXIS2_PLACEMENT_3D('',#498,#399,#400);
#333=AXIS2_PLACEMENT_3D('',#499,#401,#402);
#334=AXIS2_PLACEMENT_3D('',#501,#403,#404);
#335=AXIS2_PLACEMENT_3D('',#502,#405,#406);
#336=AXIS2_PLACEMENT_3D('',#504,#407,#408);
#337=AXIS2_PLACEMENT_3D('',#505,#409,#410);
#338=AXIS2_PLACEMENT_3D('',#507,#411,#412);
#339=AXIS2_PLACEMENT_3D('',#508,#413,#414);
#340=AXIS2_PLACEMENT_3D('',#510,#415,#416);
#341=AXIS2_PLACEMENT_3D('',#511,#417,#418);
#342=AXIS2_PLACEMENT_3D('',#513,#419,#420);
#343=AXIS2_PLACEMENT_3D('',#514,#421,#422);
#344=AXIS2_PLACEMENT_3D('',#516,#423,#424);
#345=AXIS2_PLACEMENT_3D('',#517,#425,#426);
#346=AXIS2_PLACEMENT_3D('',#519,#427,#428);
#347=AXIS2_PLACEMENT_3D('',#520,#429,#430);
#348=AXIS2_PLACEMENT_3D('',#522,#431,#432);
#349=AXIS2_PLACEMENT_3D('',#523,#433,#434);
#350=AXIS2_PLACEMENT_3D('',#525,#435,#436);
#351=AXIS2_PLACEMENT_3D('',#526,#437,#438);
#352=AXIS2_PLACEMENT_3D('',#528,#439,#440);
#353=AXIS2_PLACEMENT_3D('',#529,#441,#442);
#354=AXIS2_PLACEMENT_3D('',#531,#443,#444);
#355=AXIS2_PLACEMENT_3D('',#532,#445,#446);
#356=AXIS2_PLACEMENT_3D('',#534,#447,#448);
#357=AXIS2_PLACEMENT_3D('',#535,#449,#450);
#358=AXIS2_PLACEMENT_3D('',#537,#451,#452);
#359=AXIS2_PLACEMENT_3D('',#538,#453,#454);
#360=AXIS2_PLACEMENT_3D('',#540,#455,#456);
#361=AXIS2_PLACEMENT_3D('',#541,#457,#458);
#362=AXIS2_PLACEMENT_3D('',#543,#459,#460);
#363=AXIS2_PLACEMENT_3D('',#544,#461,#462);
#364=AXIS2_PLACEMENT_3D('',#546,#463,#464);
#365=AXIS2_PLACEMENT_3D('',#547,#465,#466);
#366=AXIS2_PLACEMENT_3D('',#549,#467,#468);
#367=AXIS2_PLACEMENT_3D('',#550,#469,#470);
#368=AXIS2_PLACEMENT_3D('',#552,#471,#472);
#369=AXIS2_PLACEMENT_3D('',#553,#473,#474);
#370=AXIS2_PLACEMENT_3D('',#555,#475,#476);
#371=DIRECTION('',(0.,0.,1.));
#372=DIRECTION('',(1.,0.,0.));
#373=DIRECTION('',(0.,1.22464679914735E-16,1.));
#374=DIRECTION('',(0.,-1.,1.22464679914735E-16));
#375=DIRECTION('',(0.,1.22464679914735E-16,1.));
#376=DIRECTION('',(0.,-1.,1.22464679914735E-16));
#377=DIRECTION('',(0.,1.22464679914735E-16,1.));
#378=DIRECTION('',(0.,-1.,1.22464679914735E-16));
#379=DIRECTION('',(0.,1.22464679914735E-16,1.));
#380=DIRECTION('',(0.,-1.,1.22464679914735E-16));
#381=DIRECTION('',(0.,1.22464679914735E-16,1.));
#382=DIRECTION('',(0.,-1.,1.22464679914735E-16));
#383=DIRECTION('',(0.,1.22464679914735E-16,1.));
#384=DIRECTION('',(0.,-1.,1.22464679914735E-16));
#385=DIRECTION('',(0.,1.22464679914735E-16,1.));
#386=DIRECTION('',(0.,-1.,1.22464679914735E-16));
#387=DIRECTION('',(0.,-1.22464679914735E-16,-1.));
#388=DIRECTION('',(0.,1.,-1.22464679914735E-16));
#389=DIRECTION('',(0.,1.22464679914735E-16,1.));
#390=DIRECTION('',(0.,-1.,1.22464679914735E-16));
#391=DIRECTION('',(0.,1.22464679914735E-16,1.));
#392=DIRECTION('',(0.,-1.,1.22464679914735E-16));
#393=DIRECTION('',(0.,1.22464679914735E-16,1.));
#394=DIRECTION('',(0.,-1.,1.22464679914735E-16));
#395=DIRECTION('',(0.,1.22464679914735E-16,1.));
#396=DIRECTION('',(0.,-1.,1.22464679914735E-16));
#397=DIRECTION('',(0.,1.22464679914735E-16,1.));
#398=DIRECTION('',(0.,-1.,1.22464679914735E-16));
#399=DIRECTION('',(0.,1.22464679914735E-16,1.));
#400=DIRECTION('',(0.,-1.,1.22464679914735E-16));
#401=DIRECTION('',(0.,1.22464679914735E-16,1.));
#402=DIRECTION('',(0.,-1.,1.22464679914735E-16));
#403=DIRECTION('',(0.,1.22464679914735E-16,1.));
#404=DIRECTION('',(0.,-1.,1.22464679914735E-16));
#405=DIRECTION('',(0.,1.22464679914735E-16,1.));
#406=DIRECTION('',(0.,-1.,1.22464679914735E-16));
#407=DIRECTION('',(0.,1.22464679914735E-16,1.));
#408=DIRECTION('',(0.,-1.,1.22464679914735E-16));
#409=DIRECTION('',(0.,1.22464679914735E-16,1.));
#410=DIRECTION('',(0.,-1.,1.22464679914735E-16));
#411=DIRECTION('',(0.,-1.22464679914735E-16,-1.));
#412=DIRECTION('',(0.,1.,-1.22464679914735E-16));
#413=DIRECTION('',(0.,1.22464679914735E-16,1.));
#414=DIRECTION('',(0.,-1.,1.22464679914735E-16));
#415=DIRECTION('',(0.,1.22464679914735E-16,1.));
#416=DIRECTION('',(0.,-1.,1.22464679914735E-16));
#417=DIRECTION('',(0.,1.22464679914735E-16,1.));
#418=DIRECTION('',(0.,-1.,1.22464679914735E-16));
#419=DIRECTION('',(0.,-1.22464679914735E-16,-1.));
#420=DIRECTION('',(0.,1.,-1.22464679914735E-16));
#421=DIRECTION('',(0.,1.22464679914735E-16,1.));
#422=DIRECTION('',(0.,-1.,1.22464679914735E-16));
#423=DIRECTION('',(0.,-1.22464679914735E-16,-1.));
#424=DIRECTION('',(0.,1.,-1.22464679914735E-16));
#425=DIRECTION('',(0.,1.22464679914735E-16,1.));
#426=DIRECTION('',(0.,-1.,1.22464679914735E-16));
#427=DIRECTION('',(0.,1.22464679914735E-16,1.));
#428=DIRECTION('',(0.,-1.,1.22464679914735E-16));
#429=DIRECTION('',(0.,1.22464679914735E-16,1.));
#430=DIRECTION('',(0.,-1.,1.22464679914735E-16));
#431=DIRECTION('',(0.,1.22464679914735E-16,1.));
#432=DIRECTION('',(0.,-1.,1.22464679914735E-16));
#433=DIRECTION('',(0.,1.22464679914735E-16,1.));
#434=DIRECTION('',(0.,-1.,1.22464679914735E-16));
#435=DIRECTION('',(0.,1.22464679914735E-16,1.));
#436=DIRECTION('',(0.,-1.,1.22464679914735E-16));
#437=DIRECTION('',(0.,1.22464679914735E-16,1.));
#438=DIRECTION('',(0.,-1.,1.22464679914735E-16));
#439=DIRECTION('',(0.,1.22464679914735E-16,1.));
#440=DIRECTION('',(0.,-1.,1.22464679914735E-16));
#441=DIRECTION('',(0.,1.22464679914735E-16,1.));
#442=DIRECTION('',(0.,-1.,1.22464679914735E-16));
#443=DIRECTION('',(0.,-1.22464679914735E-16,-1.));
#444=DIRECTION('',(0.,1.,-1.22464679914735E-16));
#445=DIRECTION('',(0.,1.22464679914735E-16,1.));
#446=DIRECTION('',(0.,-1.,1.22464679914735E-16));
#447=DIRECTION('',(0.,1.22464679914735E-16,1.));
#448=DIRECTION('',(0.,-1.,1.22464679914735E-16));
#449=DIRECTION('',(0.,1.22464679914735E-16,1.));
#450=DIRECTION('',(0.,-1.,1.22464679914735E-16));
#451=DIRECTION('',(0.,1.22464679914735E-16,1.));
#452=DIRECTION('',(0.,-1.,1.22464679914735E-16));
#453=DIRECTION('',(0.,1.22464679914735E-16,1.));
#454=DIRECTION('',(0.,-1.,1.22464679914735E-16));
#455=DIRECTION('',(0.,-1.22464679914735E-16,-1.));
#456=DIRECTION('',(0.,1.,-1.22464679914735E-16));
#457=DIRECTION('',(0.,1.22464679914735E-16,1.));
#458=DIRECTION('',(0.,-1.,1.22464679914735E-16));
#459=DIRECTION('',(0.,-1.22464679914735E-16,-1.));
#460=DIRECTION('',(0.,1.,-1.22464679914735E-16));
#461=DIRECTION('',(0.,1.22464679914735E-16,1.));
#462=DIRECTION('',(0.,-1.,1.22464679914735E-16));
#463=DIRECTION('',(0.,1.22464679914735E-16,1.));
#464=DIRECTION('',(0.,-1.,1.22464679914735E-16));
#465=DIRECTION('',(0.,1.22464679914735E-16,1.));
#466=DIRECTION('',(0.,-1.,1.22464679914735E-16));
#467=DIRECTION('',(0.,1.22464679914735E-16,1.));
#468=DIRECTION('',(0.,-1.,1.22464679914735E-16));
#469=DIRECTION('',(0.,1.22464679914735E-16,1.));
#470=DIRECTION('',(0.,-1.,1.22464679914735E-16));
#471=DIRECTION('',(0.,1.22464679914735E-16,1.));
#472=DIRECTION('',(0.,-1.,1.22464679914735E-16));
#473=DIRECTION('',(0.,1.22464679914735E-16,1.));
#474=DIRECTION('',(0.,-1.,1.22464679914735E-16));
#475=DIRECTION('',(0.,1.22464679914735E-16,1.));
#476=DIRECTION('',(0.,-1.,1.22464679914735E-16));
#477=CARTESIAN_POINT('',(0.,0.,0.));
#478=CARTESIAN_POINT('',(0.,-4.22503145705837E-15,-34.5));
#479=CARTESIAN_POINT('',(0.,-4.22503145705837E-15,-34.5));
#480=CARTESIAN_POINT('',(0.,-3.73786796564404,-34.5));
#481=CARTESIAN_POINT('',(0.,-4.22503145705837E-15,-34.5));
#482=CARTESIAN_POINT('',(0.,-2.5,-34.5));
#483=CARTESIAN_POINT('',(0.,-4.22503145705837E-15,-34.5));
#484=CARTESIAN_POINT('',(0.,-4.1990527753713E-15,-34.287867965644));
#485=CARTESIAN_POINT('',(0.,-3.95,-34.287867965644));
#486=CARTESIAN_POINT('',(0.,0.,0.));
#487=CARTESIAN_POINT('',(0.,-3.24531401774049E-15,-26.5));
#488=CARTESIAN_POINT('',(0.,-3.95,-26.5));
#489=CARTESIAN_POINT('',(0.,-3.95,-26.5));
#490=CARTESIAN_POINT('',(0.,-3.24531401774049E-15,-26.5));
#491=CARTESIAN_POINT('',(0.,-3.65,-26.5));
#492=CARTESIAN_POINT('',(0.,0.,0.));
#493=CARTESIAN_POINT('',(0.,-3.15958874180017E-15,-25.8));
#494=CARTESIAN_POINT('',(0.,-3.65,-25.8));
#495=CARTESIAN_POINT('',(0.,-3.65,-25.8));
#496=CARTESIAN_POINT('',(0.,-3.15958874180017E-15,-25.8));
#497=CARTESIAN_POINT('',(0.,-3.95,-25.8));
#498=CARTESIAN_POINT('',(0.,0.,0.));
#499=CARTESIAN_POINT('',(0.,-2.08802279254624E-15,-17.05));
#500=CARTESIAN_POINT('',(0.,-3.95,-17.05));
#501=CARTESIAN_POINT('',(0.,-2.08802279254624E-15,-17.05));
#502=CARTESIAN_POINT('',(0.,-1.83697019872103E-15,-15.));
#503=CARTESIAN_POINT('',(0.,-6.,-15.));
#504=CARTESIAN_POINT('',(0.,0.,0.));
#505=CARTESIAN_POINT('',(0.,-4.163799117101E-16,-3.4));
#506=CARTESIAN_POINT('',(0.,-6.,-3.4));
#507=CARTESIAN_POINT('',(0.,-6.,-3.4));
#508=CARTESIAN_POINT('',(0.,-4.163799117101E-16,-3.4));
#509=CARTESIAN_POINT('',(0.,-5.8,-3.4));
#510=CARTESIAN_POINT('',(0.,0.,0.));
#511=CARTESIAN_POINT('',(0.,-3.72466692877442E-16,-3.04142135623731));
#512=CARTESIAN_POINT('',(0.,-5.8,-3.04142135623731));
#513=CARTESIAN_POINT('',(0.,-3.72466692877442E-16,-3.04142135623731));
#514=CARTESIAN_POINT('',(0.,-3.55147571752732E-16,-2.9));
#515=CARTESIAN_POINT('',(0.,-5.65857864376269,-2.9));
#516=CARTESIAN_POINT('',(0.,-5.65857864376269,-2.9));
#517=CARTESIAN_POINT('',(0.,-3.55147571752732E-16,-2.9));
#518=CARTESIAN_POINT('',(0.,-4.175,-2.9));
#519=CARTESIAN_POINT('',(0.,0.,0.));
#520=CARTESIAN_POINT('',(0.,-2.32682891837997E-16,-1.9));
#521=CARTESIAN_POINT('',(0.,-4.175,-1.9));
#522=CARTESIAN_POINT('',(0.,0.,-1.9));
#523=CARTESIAN_POINT('',(0.,-2.20436423846523E-16,-1.8));
#524=CARTESIAN_POINT('',(0.,-4.275,-1.8));
#525=CARTESIAN_POINT('',(0.,-4.275,-1.8));
#526=CARTESIAN_POINT('',(0.,-2.20436423846523E-16,-1.8));
#527=CARTESIAN_POINT('',(0.,-5.9,-1.8));
#528=CARTESIAN_POINT('',(0.,0.,0.));
#529=CARTESIAN_POINT('',(0.,-1.46957615897683E-16,-1.2));
#530=CARTESIAN_POINT('',(0.,-5.9,-1.2));
#531=CARTESIAN_POINT('',(0.,-1.46957615897683E-16,-1.2));
#532=CARTESIAN_POINT('',(0.,-1.22464679914735E-16,-1.));
#533=CARTESIAN_POINT('',(0.,-5.7,-1.));
#534=CARTESIAN_POINT('',(0.,-1.22464679914735E-16,-1.));
#535=CARTESIAN_POINT('',(0.,-9.7971743931788E-17,-0.799999999999998));
#536=CARTESIAN_POINT('',(0.,-5.9,-0.799999999999997));
#537=CARTESIAN_POINT('',(0.,0.,0.));
#538=CARTESIAN_POINT('',(0.,-1.73191211247099E-17,-0.14142135623731));
#539=CARTESIAN_POINT('',(0.,-5.9,-0.141421356237309));
#540=CARTESIAN_POINT('',(0.,-1.73191211247099E-17,-0.14142135623731));
#541=CARTESIAN_POINT('',(0.,-8.63648465521075E-32,-7.05222490372229E-16));
#542=CARTESIAN_POINT('',(0.,-5.75857864376269,0.));
#543=CARTESIAN_POINT('',(0.,-5.75857864376269,3.52611245186114E-16));
#544=CARTESIAN_POINT('',(0.,-5.06168926648377E-32,-4.13318294712232E-16));
#545=CARTESIAN_POINT('',(0.,-3.375,0.));
#546=CARTESIAN_POINT('',(0.,0.,0.));
#547=CARTESIAN_POINT('',(0.,-1.95943487863577E-15,-16.));
#548=CARTESIAN_POINT('',(0.,-2.5,-16.));
#549=CARTESIAN_POINT('',(0.,-2.5,-16.));
#550=CARTESIAN_POINT('',(0.,-1.95943487863577E-15,-16.));
#551=CARTESIAN_POINT('',(0.,-3.175,-16.));
#552=CARTESIAN_POINT('',(0.,0.,0.));
#553=CARTESIAN_POINT('',(0.,-4.2423009548996E-17,-0.346410161513773));
#554=CARTESIAN_POINT('',(0.,-3.175,-0.346410161513773));
#555=CARTESIAN_POINT('',(0.,-4.2423009548996E-17,-0.346410161513773));
#556=MECHANICAL_DESIGN_GEOMETRIC_PRESENTATION_REPRESENTATION('',(#307),
#557);
#557=(
GEOMETRIC_REPRESENTATION_CONTEXT(3)
GLOBAL_UNCERTAINTY_ASSIGNED_CONTEXT((#558))
GLOBAL_UNIT_ASSIGNED_CONTEXT((#561,#560,#559))
REPRESENTATION_CONTEXT('565356 CRQS-5/16H-1/4-U',
'TOP_LEVEL_ASSEMBLY_PART')
);
#558=UNCERTAINTY_MEASURE_WITH_UNIT(LENGTH_MEASURE(0.005),#561,
'DISTANCE_ACCURACY_VALUE','Maximum Tolerance applied to model');
#559=(
NAMED_UNIT(*)
SI_UNIT($,.STERADIAN.)
SOLID_ANGLE_UNIT()
);
#560=(
NAMED_UNIT(*)
PLANE_ANGLE_UNIT()
SI_UNIT($,.RADIAN.)
);
#561=(
LENGTH_UNIT()
NAMED_UNIT(*)
SI_UNIT(.MILLI.,.METRE.)
);
#562=PRODUCT_DEFINITION_SHAPE('','',#563);
#563=PRODUCT_DEFINITION('','',#565,#564);
#564=PRODUCT_DEFINITION_CONTEXT('',#571,'design');
#565=PRODUCT_DEFINITION_FORMATION_WITH_SPECIFIED_SOURCE('','',#567,
 .NOT_KNOWN.);
#566=PRODUCT_RELATED_PRODUCT_CATEGORY('','',(#567));
#567=PRODUCT('565356 CRQS-5/16H-1/4-U','565356 CRQS-5/16H-1/4-U',
'565356 CRQS-5/16H-1/4-U',(#569));
#568=PRODUCT_CATEGORY('','');
#569=PRODUCT_CONTEXT('',#571,'mechanical');
#570=APPLICATION_PROTOCOL_DEFINITION('international standard',
'automotive_design',2010,#571);
#571=APPLICATION_CONTEXT(
'core data for automotive mechanical design processes');
ENDSEC;
END-ISO-10303-21;
