ISO-10303-21;
HEADER;
/* Generated by software containing ST-Developer
 * from STEP Tools, Inc. (www.steptools.com) 
 */
/* OPTION: using custom renumber hook */

FILE_DESCRIPTION(
/* description */ ('STEP AP214'),
/* implementation_level */ '2;1');

FILE_NAME(
/* name */ '570458_NPQM-D-Q8-S14-P10',
/* time_stamp */ '2024-09-13T06:20:48+02:00',
/* author */ ('License CC BY-ND 4.0'),
/* organization */ ('CADENAS'),
/* preprocessor_version */ 'ST-DEVELOPER v19.3',
/* originating_system */ 'PARTsolutions',
/* authorisation */ '  ');

FILE_SCHEMA (('AUTOMOTIVE_DESIGN {1 0 10303 214 3 1 1}'));
ENDSEC;

DATA;
#10=PROPERTY_DEFINITION_REPRESENTATION(#14,#12);
#11=PROPERTY_DEFINITION_REPRESENTATION(#15,#13);
#12=REPRESENTATION('',(#16),#417);
#13=REPRESENTATION('',(#17),#417);
#14=PROPERTY_DEFINITION('pmi validation property','',#422);
#15=PROPERTY_DEFINITION('pmi validation property','',#422);
#16=VALUE_REPRESENTATION_ITEM('number of annotations',COUNT_MEASURE(0.));
#17=VALUE_REPRESENTATION_ITEM('number of views',COUNT_MEASURE(0.));
#18=SHAPE_REPRESENTATION_RELATIONSHIP('','',#240,#19);
#19=ADVANCED_BREP_SHAPE_REPRESENTATION('',(#238),#417);
#20=CYLINDRICAL_SURFACE('',#247,3.5);
#21=CYLINDRICAL_SURFACE('',#251,4.);
#22=CYLINDRICAL_SURFACE('',#259,7.);
#23=CYLINDRICAL_SURFACE('',#265,4.7);
#24=CYLINDRICAL_SURFACE('',#271,7.);
#25=CYLINDRICAL_SURFACE('',#275,6.6);
#26=CYLINDRICAL_SURFACE('',#279,7.);
#27=PLANE('',#245);
#28=PLANE('',#249);
#29=PLANE('',#255);
#30=PLANE('',#261);
#31=PLANE('',#267);
#32=PLANE('',#273);
#33=ORIENTED_EDGE('',*,*,#71,.T.);
#34=ORIENTED_EDGE('',*,*,#72,.F.);
#35=ORIENTED_EDGE('',*,*,#73,.T.);
#36=ORIENTED_EDGE('',*,*,#71,.F.);
#37=ORIENTED_EDGE('',*,*,#74,.T.);
#38=ORIENTED_EDGE('',*,*,#73,.F.);
#39=ORIENTED_EDGE('',*,*,#75,.T.);
#40=ORIENTED_EDGE('',*,*,#74,.F.);
#41=ORIENTED_EDGE('',*,*,#76,.T.);
#42=ORIENTED_EDGE('',*,*,#75,.F.);
#43=ORIENTED_EDGE('',*,*,#77,.T.);
#44=ORIENTED_EDGE('',*,*,#76,.F.);
#45=ORIENTED_EDGE('',*,*,#78,.T.);
#46=ORIENTED_EDGE('',*,*,#77,.F.);
#47=ORIENTED_EDGE('',*,*,#79,.T.);
#48=ORIENTED_EDGE('',*,*,#78,.F.);
#49=ORIENTED_EDGE('',*,*,#80,.T.);
#50=ORIENTED_EDGE('',*,*,#79,.F.);
#51=ORIENTED_EDGE('',*,*,#81,.T.);
#52=ORIENTED_EDGE('',*,*,#80,.F.);
#53=ORIENTED_EDGE('',*,*,#82,.T.);
#54=ORIENTED_EDGE('',*,*,#81,.F.);
#55=ORIENTED_EDGE('',*,*,#83,.T.);
#56=ORIENTED_EDGE('',*,*,#82,.F.);
#57=ORIENTED_EDGE('',*,*,#84,.T.);
#58=ORIENTED_EDGE('',*,*,#83,.F.);
#59=ORIENTED_EDGE('',*,*,#85,.T.);
#60=ORIENTED_EDGE('',*,*,#84,.F.);
#61=ORIENTED_EDGE('',*,*,#86,.T.);
#62=ORIENTED_EDGE('',*,*,#85,.F.);
#63=ORIENTED_EDGE('',*,*,#87,.T.);
#64=ORIENTED_EDGE('',*,*,#86,.F.);
#65=ORIENTED_EDGE('',*,*,#88,.T.);
#66=ORIENTED_EDGE('',*,*,#87,.F.);
#67=ORIENTED_EDGE('',*,*,#89,.T.);
#68=ORIENTED_EDGE('',*,*,#88,.F.);
#69=ORIENTED_EDGE('',*,*,#72,.T.);
#70=ORIENTED_EDGE('',*,*,#89,.F.);
#71=EDGE_CURVE('',#90,#90,#109,.T.);
#72=EDGE_CURVE('',#91,#91,#110,.T.);
#73=EDGE_CURVE('',#92,#92,#111,.T.);
#74=EDGE_CURVE('',#93,#93,#112,.T.);
#75=EDGE_CURVE('',#94,#94,#113,.T.);
#76=EDGE_CURVE('',#95,#95,#114,.T.);
#77=EDGE_CURVE('',#96,#96,#115,.T.);
#78=EDGE_CURVE('',#97,#97,#116,.T.);
#79=EDGE_CURVE('',#98,#98,#117,.T.);
#80=EDGE_CURVE('',#99,#99,#118,.T.);
#81=EDGE_CURVE('',#100,#100,#119,.T.);
#82=EDGE_CURVE('',#101,#101,#120,.T.);
#83=EDGE_CURVE('',#102,#102,#121,.T.);
#84=EDGE_CURVE('',#103,#103,#122,.T.);
#85=EDGE_CURVE('',#104,#104,#123,.T.);
#86=EDGE_CURVE('',#105,#105,#124,.T.);
#87=EDGE_CURVE('',#106,#106,#125,.T.);
#88=EDGE_CURVE('',#107,#107,#126,.T.);
#89=EDGE_CURVE('',#108,#108,#127,.T.);
#90=VERTEX_POINT('',#361);
#91=VERTEX_POINT('',#363);
#92=VERTEX_POINT('',#366);
#93=VERTEX_POINT('',#369);
#94=VERTEX_POINT('',#372);
#95=VERTEX_POINT('',#375);
#96=VERTEX_POINT('',#378);
#97=VERTEX_POINT('',#381);
#98=VERTEX_POINT('',#384);
#99=VERTEX_POINT('',#387);
#100=VERTEX_POINT('',#390);
#101=VERTEX_POINT('',#393);
#102=VERTEX_POINT('',#396);
#103=VERTEX_POINT('',#399);
#104=VERTEX_POINT('',#402);
#105=VERTEX_POINT('',#405);
#106=VERTEX_POINT('',#408);
#107=VERTEX_POINT('',#411);
#108=VERTEX_POINT('',#414);
#109=CIRCLE('',#243,6.64644660940673);
#110=CIRCLE('',#244,7.);
#111=CIRCLE('',#246,3.5);
#112=CIRCLE('',#248,3.5);
#113=CIRCLE('',#250,4.);
#114=CIRCLE('',#252,4.);
#115=CIRCLE('',#254,4.25);
#116=CIRCLE('',#256,6.85857864376269);
#117=CIRCLE('',#258,7.);
#118=CIRCLE('',#260,7.);
#119=CIRCLE('',#262,4.77071067811865);
#120=CIRCLE('',#264,4.7);
#121=CIRCLE('',#266,4.7);
#122=CIRCLE('',#268,6.85857864376269);
#123=CIRCLE('',#270,7.);
#124=CIRCLE('',#272,7.);
#125=CIRCLE('',#274,6.6);
#126=CIRCLE('',#276,6.6);
#127=CIRCLE('',#278,7.);
#128=EDGE_LOOP('',(#33));
#129=EDGE_LOOP('',(#34));
#130=EDGE_LOOP('',(#35));
#131=EDGE_LOOP('',(#36));
#132=EDGE_LOOP('',(#37));
#133=EDGE_LOOP('',(#38));
#134=EDGE_LOOP('',(#39));
#135=EDGE_LOOP('',(#40));
#136=EDGE_LOOP('',(#41));
#137=EDGE_LOOP('',(#42));
#138=EDGE_LOOP('',(#43));
#139=EDGE_LOOP('',(#44));
#140=EDGE_LOOP('',(#45));
#141=EDGE_LOOP('',(#46));
#142=EDGE_LOOP('',(#47));
#143=EDGE_LOOP('',(#48));
#144=EDGE_LOOP('',(#49));
#145=EDGE_LOOP('',(#50));
#146=EDGE_LOOP('',(#51));
#147=EDGE_LOOP('',(#52));
#148=EDGE_LOOP('',(#53));
#149=EDGE_LOOP('',(#54));
#150=EDGE_LOOP('',(#55));
#151=EDGE_LOOP('',(#56));
#152=EDGE_LOOP('',(#57));
#153=EDGE_LOOP('',(#58));
#154=EDGE_LOOP('',(#59));
#155=EDGE_LOOP('',(#60));
#156=EDGE_LOOP('',(#61));
#157=EDGE_LOOP('',(#62));
#158=EDGE_LOOP('',(#63));
#159=EDGE_LOOP('',(#64));
#160=EDGE_LOOP('',(#65));
#161=EDGE_LOOP('',(#66));
#162=EDGE_LOOP('',(#67));
#163=EDGE_LOOP('',(#68));
#164=EDGE_LOOP('',(#69));
#165=EDGE_LOOP('',(#70));
#166=FACE_BOUND('',#128,.T.);
#167=FACE_BOUND('',#129,.T.);
#168=FACE_BOUND('',#130,.T.);
#169=FACE_BOUND('',#131,.T.);
#170=FACE_BOUND('',#132,.T.);
#171=FACE_BOUND('',#133,.T.);
#172=FACE_BOUND('',#134,.T.);
#173=FACE_BOUND('',#135,.T.);
#174=FACE_BOUND('',#136,.T.);
#175=FACE_BOUND('',#137,.T.);
#176=FACE_BOUND('',#138,.T.);
#177=FACE_BOUND('',#139,.T.);
#178=FACE_BOUND('',#140,.T.);
#179=FACE_BOUND('',#141,.T.);
#180=FACE_BOUND('',#142,.T.);
#181=FACE_BOUND('',#143,.T.);
#182=FACE_BOUND('',#144,.T.);
#183=FACE_BOUND('',#145,.T.);
#184=FACE_BOUND('',#146,.T.);
#185=FACE_BOUND('',#147,.T.);
#186=FACE_BOUND('',#148,.T.);
#187=FACE_BOUND('',#149,.T.);
#188=FACE_BOUND('',#150,.T.);
#189=FACE_BOUND('',#151,.T.);
#190=FACE_BOUND('',#152,.T.);
#191=FACE_BOUND('',#153,.T.);
#192=FACE_BOUND('',#154,.T.);
#193=FACE_BOUND('',#155,.T.);
#194=FACE_BOUND('',#156,.T.);
#195=FACE_BOUND('',#157,.T.);
#196=FACE_BOUND('',#158,.T.);
#197=FACE_BOUND('',#159,.T.);
#198=FACE_BOUND('',#160,.T.);
#199=FACE_BOUND('',#161,.T.);
#200=FACE_BOUND('',#162,.T.);
#201=FACE_BOUND('',#163,.T.);
#202=FACE_BOUND('',#164,.T.);
#203=FACE_BOUND('',#165,.T.);
#204=CONICAL_SURFACE('',#242,7.,0.785398163397451);
#205=CONICAL_SURFACE('',#253,4.,0.523598775598301);
#206=CONICAL_SURFACE('',#257,6.85857864376269,0.785398163397446);
#207=CONICAL_SURFACE('',#263,4.77071067811865,0.785398163397448);
#208=CONICAL_SURFACE('',#269,6.85857864376269,0.785398163397445);
#209=CONICAL_SURFACE('',#277,6.6,1.13446401379631);
#210=ADVANCED_FACE('',(#166,#167),#204,.T.);
#211=ADVANCED_FACE('',(#168,#169),#27,.T.);
#212=ADVANCED_FACE('',(#170,#171),#20,.F.);
#213=ADVANCED_FACE('',(#172,#173),#28,.T.);
#214=ADVANCED_FACE('',(#174,#175),#21,.F.);
#215=ADVANCED_FACE('',(#176,#177),#205,.F.);
#216=ADVANCED_FACE('',(#178,#179),#29,.T.);
#217=ADVANCED_FACE('',(#180,#181),#206,.T.);
#218=ADVANCED_FACE('',(#182,#183),#22,.T.);
#219=ADVANCED_FACE('',(#184,#185),#30,.T.);
#220=ADVANCED_FACE('',(#186,#187),#207,.T.);
#221=ADVANCED_FACE('',(#188,#189),#23,.T.);
#222=ADVANCED_FACE('',(#190,#191),#31,.T.);
#223=ADVANCED_FACE('',(#192,#193),#208,.T.);
#224=ADVANCED_FACE('',(#194,#195),#24,.T.);
#225=ADVANCED_FACE('',(#196,#197),#32,.T.);
#226=ADVANCED_FACE('',(#198,#199),#25,.T.);
#227=ADVANCED_FACE('',(#200,#201),#209,.T.);
#228=ADVANCED_FACE('',(#202,#203),#26,.T.);
#229=CLOSED_SHELL('',(#210,#211,#212,#213,#214,#215,#216,#217,#218,#219,
#220,#221,#222,#223,#224,#225,#226,#227,#228));
#230=STYLED_ITEM('',(#231),#238);
#231=PRESENTATION_STYLE_ASSIGNMENT((#232));
#232=SURFACE_STYLE_USAGE(.BOTH.,#233);
#233=SURFACE_SIDE_STYLE('',(#234));
#234=SURFACE_STYLE_FILL_AREA(#235);
#235=FILL_AREA_STYLE('',(#236));
#236=FILL_AREA_STYLE_COLOUR('',#237);
#237=COLOUR_RGB('',0.689999997615814,0.689999997615814,0.689999997615814);
#238=MANIFOLD_SOLID_BREP('570458 NPQM-D-Q8-S14-P10',#229);
#239=SHAPE_DEFINITION_REPRESENTATION(#422,#240);
#240=SHAPE_REPRESENTATION('570458 NPQM-D-Q8-S14-P10',(#241),#417);
#241=AXIS2_PLACEMENT_3D('',#358,#280,#281);
#242=AXIS2_PLACEMENT_3D('',#359,#282,#283);
#243=AXIS2_PLACEMENT_3D('',#360,#284,#285);
#244=AXIS2_PLACEMENT_3D('',#362,#286,#287);
#245=AXIS2_PLACEMENT_3D('',#364,#288,#289);
#246=AXIS2_PLACEMENT_3D('',#365,#290,#291);
#247=AXIS2_PLACEMENT_3D('',#367,#292,#293);
#248=AXIS2_PLACEMENT_3D('',#368,#294,#295);
#249=AXIS2_PLACEMENT_3D('',#370,#296,#297);
#250=AXIS2_PLACEMENT_3D('',#371,#298,#299);
#251=AXIS2_PLACEMENT_3D('',#373,#300,#301);
#252=AXIS2_PLACEMENT_3D('',#374,#302,#303);
#253=AXIS2_PLACEMENT_3D('',#376,#304,#305);
#254=AXIS2_PLACEMENT_3D('',#377,#306,#307);
#255=AXIS2_PLACEMENT_3D('',#379,#308,#309);
#256=AXIS2_PLACEMENT_3D('',#380,#310,#311);
#257=AXIS2_PLACEMENT_3D('',#382,#312,#313);
#258=AXIS2_PLACEMENT_3D('',#383,#314,#315);
#259=AXIS2_PLACEMENT_3D('',#385,#316,#317);
#260=AXIS2_PLACEMENT_3D('',#386,#318,#319);
#261=AXIS2_PLACEMENT_3D('',#388,#320,#321);
#262=AXIS2_PLACEMENT_3D('',#389,#322,#323);
#263=AXIS2_PLACEMENT_3D('',#391,#324,#325);
#264=AXIS2_PLACEMENT_3D('',#392,#326,#327);
#265=AXIS2_PLACEMENT_3D('',#394,#328,#329);
#266=AXIS2_PLACEMENT_3D('',#395,#330,#331);
#267=AXIS2_PLACEMENT_3D('',#397,#332,#333);
#268=AXIS2_PLACEMENT_3D('',#398,#334,#335);
#269=AXIS2_PLACEMENT_3D('',#400,#336,#337);
#270=AXIS2_PLACEMENT_3D('',#401,#338,#339);
#271=AXIS2_PLACEMENT_3D('',#403,#340,#341);
#272=AXIS2_PLACEMENT_3D('',#404,#342,#343);
#273=AXIS2_PLACEMENT_3D('',#406,#344,#345);
#274=AXIS2_PLACEMENT_3D('',#407,#346,#347);
#275=AXIS2_PLACEMENT_3D('',#409,#348,#349);
#276=AXIS2_PLACEMENT_3D('',#410,#350,#351);
#277=AXIS2_PLACEMENT_3D('',#412,#352,#353);
#278=AXIS2_PLACEMENT_3D('',#413,#354,#355);
#279=AXIS2_PLACEMENT_3D('',#415,#356,#357);
#280=DIRECTION('',(0.,0.,1.));
#281=DIRECTION('',(1.,0.,0.));
#282=DIRECTION('',(0.,0.,-1.));
#283=DIRECTION('',(-1.,0.,0.));
#284=DIRECTION('',(0.,0.,-1.));
#285=DIRECTION('',(-1.,0.,0.));
#286=DIRECTION('',(0.,0.,-1.));
#287=DIRECTION('',(-1.,0.,0.));
#288=DIRECTION('',(0.,0.,1.));
#289=DIRECTION('',(1.,0.,0.));
#290=DIRECTION('',(0.,0.,-1.));
#291=DIRECTION('',(-1.,0.,0.));
#292=DIRECTION('',(0.,0.,-1.));
#293=DIRECTION('',(-1.,0.,0.));
#294=DIRECTION('',(0.,0.,-1.));
#295=DIRECTION('',(-1.,0.,0.));
#296=DIRECTION('',(0.,0.,-1.));
#297=DIRECTION('',(-1.,0.,0.));
#298=DIRECTION('',(0.,0.,-1.));
#299=DIRECTION('',(-1.,0.,0.));
#300=DIRECTION('',(0.,0.,-1.));
#301=DIRECTION('',(-1.,0.,0.));
#302=DIRECTION('',(0.,0.,-1.));
#303=DIRECTION('',(-1.,0.,0.));
#304=DIRECTION('',(0.,0.,-1.));
#305=DIRECTION('',(-1.,0.,0.));
#306=DIRECTION('',(0.,0.,-1.));
#307=DIRECTION('',(-1.,0.,0.));
#308=DIRECTION('',(0.,0.,-1.));
#309=DIRECTION('',(-1.,0.,0.));
#310=DIRECTION('',(0.,0.,-1.));
#311=DIRECTION('',(-1.,0.,0.));
#312=DIRECTION('',(0.,0.,1.));
#313=DIRECTION('',(1.,0.,0.));
#314=DIRECTION('',(0.,0.,-1.));
#315=DIRECTION('',(-1.,0.,0.));
#316=DIRECTION('',(0.,0.,-1.));
#317=DIRECTION('',(-1.,0.,0.));
#318=DIRECTION('',(0.,0.,-1.));
#319=DIRECTION('',(-1.,0.,0.));
#320=DIRECTION('',(0.,0.,1.));
#321=DIRECTION('',(1.,0.,0.));
#322=DIRECTION('',(0.,0.,-1.));
#323=DIRECTION('',(-1.,0.,0.));
#324=DIRECTION('',(0.,0.,-1.));
#325=DIRECTION('',(-1.,0.,0.));
#326=DIRECTION('',(0.,0.,-1.));
#327=DIRECTION('',(-1.,0.,0.));
#328=DIRECTION('',(0.,0.,-1.));
#329=DIRECTION('',(-1.,0.,0.));
#330=DIRECTION('',(0.,0.,-1.));
#331=DIRECTION('',(-1.,0.,0.));
#332=DIRECTION('',(0.,0.,-1.));
#333=DIRECTION('',(-1.,0.,0.));
#334=DIRECTION('',(0.,0.,-1.));
#335=DIRECTION('',(-1.,0.,0.));
#336=DIRECTION('',(0.,0.,1.));
#337=DIRECTION('',(1.,0.,0.));
#338=DIRECTION('',(0.,0.,-1.));
#339=DIRECTION('',(-1.,0.,0.));
#340=DIRECTION('',(0.,0.,-1.));
#341=DIRECTION('',(-1.,0.,0.));
#342=DIRECTION('',(0.,0.,-1.));
#343=DIRECTION('',(-1.,0.,0.));
#344=DIRECTION('',(0.,0.,1.));
#345=DIRECTION('',(1.,0.,0.));
#346=DIRECTION('',(0.,0.,-1.));
#347=DIRECTION('',(-1.,0.,0.));
#348=DIRECTION('',(0.,0.,-1.));
#349=DIRECTION('',(-1.,0.,0.));
#350=DIRECTION('',(0.,0.,-1.));
#351=DIRECTION('',(-1.,0.,0.));
#352=DIRECTION('',(0.,0.,1.));
#353=DIRECTION('',(1.,0.,0.));
#354=DIRECTION('',(0.,0.,-1.));
#355=DIRECTION('',(-1.,0.,0.));
#356=DIRECTION('',(0.,0.,-1.));
#357=DIRECTION('',(-1.,0.,0.));
#358=CARTESIAN_POINT('',(0.,0.,0.));
#359=CARTESIAN_POINT('',(0.,0.,38.1464466094067));
#360=CARTESIAN_POINT('',(0.,0.,38.5));
#361=CARTESIAN_POINT('',(-6.64644660940673,0.,38.5));
#362=CARTESIAN_POINT('',(0.,0.,38.1464466094067));
#363=CARTESIAN_POINT('',(-7.,0.,38.1464466094067));
#364=CARTESIAN_POINT('',(0.,6.64644660940673,38.5));
#365=CARTESIAN_POINT('',(0.,0.,38.5));
#366=CARTESIAN_POINT('',(-3.5,0.,38.5));
#367=CARTESIAN_POINT('',(0.,0.,0.));
#368=CARTESIAN_POINT('',(0.,0.,16.));
#369=CARTESIAN_POINT('',(-3.5,0.,16.));
#370=CARTESIAN_POINT('',(0.,3.5,16.));
#371=CARTESIAN_POINT('',(0.,0.,16.));
#372=CARTESIAN_POINT('',(-4.,0.,16.));
#373=CARTESIAN_POINT('',(0.,0.,0.));
#374=CARTESIAN_POINT('',(0.,0.,0.433012701892218));
#375=CARTESIAN_POINT('',(-4.,0.,0.433012701892218));
#376=CARTESIAN_POINT('',(0.,0.,0.433012701892218));
#377=CARTESIAN_POINT('',(0.,0.,5.42101086242752E-17));
#378=CARTESIAN_POINT('',(-4.25,0.,5.42101086242752E-17));
#379=CARTESIAN_POINT('',(0.,4.25,2.71050543121376E-17));
#380=CARTESIAN_POINT('',(0.,0.,0.));
#381=CARTESIAN_POINT('',(-6.85857864376269,0.,0.));
#382=CARTESIAN_POINT('',(0.,0.,0.));
#383=CARTESIAN_POINT('',(0.,0.,0.14142135623731));
#384=CARTESIAN_POINT('',(-7.,0.,0.14142135623731));
#385=CARTESIAN_POINT('',(0.,0.,0.));
#386=CARTESIAN_POINT('',(0.,0.,1.2));
#387=CARTESIAN_POINT('',(-7.,0.,1.2));
#388=CARTESIAN_POINT('',(0.,7.,1.2));
#389=CARTESIAN_POINT('',(0.,0.,1.2));
#390=CARTESIAN_POINT('',(-4.77071067811865,0.,1.2));
#391=CARTESIAN_POINT('',(0.,0.,1.2));
#392=CARTESIAN_POINT('',(0.,0.,1.27071067811865));
#393=CARTESIAN_POINT('',(-4.7,0.,1.27071067811865));
#394=CARTESIAN_POINT('',(0.,0.,0.));
#395=CARTESIAN_POINT('',(0.,0.,3.));
#396=CARTESIAN_POINT('',(-4.7,0.,3.));
#397=CARTESIAN_POINT('',(0.,4.7,3.));
#398=CARTESIAN_POINT('',(0.,0.,3.));
#399=CARTESIAN_POINT('',(-6.85857864376269,0.,3.));
#400=CARTESIAN_POINT('',(0.,0.,3.));
#401=CARTESIAN_POINT('',(0.,0.,3.14142135623731));
#402=CARTESIAN_POINT('',(-7.,0.,3.14142135623731));
#403=CARTESIAN_POINT('',(0.,0.,0.));
#404=CARTESIAN_POINT('',(0.,0.,29.2));
#405=CARTESIAN_POINT('',(-7.,0.,29.2));
#406=CARTESIAN_POINT('',(0.,7.,29.2));
#407=CARTESIAN_POINT('',(0.,0.,29.2));
#408=CARTESIAN_POINT('',(-6.6,0.,29.2));
#409=CARTESIAN_POINT('',(0.,0.,0.));
#410=CARTESIAN_POINT('',(0.,0.,29.813476936738));
#411=CARTESIAN_POINT('',(-6.6,0.,29.813476936738));
#412=CARTESIAN_POINT('',(0.,0.,29.813476936738));
#413=CARTESIAN_POINT('',(0.,0.,30.));
#414=CARTESIAN_POINT('',(-7.,0.,30.));
#415=CARTESIAN_POINT('',(0.,0.,0.));
#416=MECHANICAL_DESIGN_GEOMETRIC_PRESENTATION_REPRESENTATION('',(#230),
#417);
#417=(
GEOMETRIC_REPRESENTATION_CONTEXT(3)
GLOBAL_UNCERTAINTY_ASSIGNED_CONTEXT((#418))
GLOBAL_UNIT_ASSIGNED_CONTEXT((#421,#420,#419))
REPRESENTATION_CONTEXT('570458 NPQM-D-Q8-S14-P10',
'TOP_LEVEL_ASSEMBLY_PART')
);
#418=UNCERTAINTY_MEASURE_WITH_UNIT(LENGTH_MEASURE(0.005),#421,
'DISTANCE_ACCURACY_VALUE','Maximum Tolerance applied to model');
#419=(
NAMED_UNIT(*)
SI_UNIT($,.STERADIAN.)
SOLID_ANGLE_UNIT()
);
#420=(
NAMED_UNIT(*)
PLANE_ANGLE_UNIT()
SI_UNIT($,.RADIAN.)
);
#421=(
LENGTH_UNIT()
NAMED_UNIT(*)
SI_UNIT(.MILLI.,.METRE.)
);
#422=PRODUCT_DEFINITION_SHAPE('','',#423);
#423=PRODUCT_DEFINITION('','',#425,#424);
#424=PRODUCT_DEFINITION_CONTEXT('',#431,'design');
#425=PRODUCT_DEFINITION_FORMATION_WITH_SPECIFIED_SOURCE('','',#427,
 .NOT_KNOWN.);
#426=PRODUCT_RELATED_PRODUCT_CATEGORY('','',(#427));
#427=PRODUCT('570458 NPQM-D-Q8-S14-P10','570458 NPQM-D-Q8-S14-P10',
'570458 NPQM-D-Q8-S14-P10',(#429));
#428=PRODUCT_CATEGORY('','');
#429=PRODUCT_CONTEXT('',#431,'mechanical');
#430=APPLICATION_PROTOCOL_DEFINITION('international standard',
'automotive_design',2010,#431);
#431=APPLICATION_CONTEXT(
'core data for automotive mechanical design processes');
ENDSEC;
END-ISO-10303-21;
