ISO-10303-21;
HEADER;
/* Generated by software containing ST-Developer
 * from STEP Tools, Inc. (www.steptools.com) 
 */
/* OPTION: using custom renumber hook */

FILE_DESCRIPTION(
/* description */ ('STEP AP214'),
/* implementation_level */ '2;1');

FILE_NAME(
/* name */ '5763_B-1',
/* time_stamp */ '2024-08-05T10:52:38+02:00',
/* author */ ('License CC BY-ND 4.0'),
/* organization */ ('CADENAS'),
/* preprocessor_version */ 'ST-DEVELOPER v19.3',
/* originating_system */ 'PARTsolutions',
/* authorisation */ '  ');

FILE_SCHEMA (('AUTOMOTIVE_DESIGN {1 0 10303 214 3 1 1}'));
ENDSEC;

DATA;
#10=PROPERTY_DEFINITION_REPRESENTATION(#14,#12);
#11=PROPERTY_DEFINITION_REPRESENTATION(#15,#13);
#12=REPRESENTATION('',(#16),#509);
#13=REPRESENTATION('',(#17),#509);
#14=PROPERTY_DEFINITION('pmi validation property','',#514);
#15=PROPERTY_DEFINITION('pmi validation property','',#514);
#16=VALUE_REPRESENTATION_ITEM('number of annotations',COUNT_MEASURE(0.));
#17=VALUE_REPRESENTATION_ITEM('number of views',COUNT_MEASURE(0.));
#18=SHAPE_REPRESENTATION_RELATIONSHIP('','',#291,#19);
#19=ADVANCED_BREP_SHAPE_REPRESENTATION('',(#289),#509);
#20=LINE('',#484,#32);
#21=LINE('',#486,#33);
#22=LINE('',#488,#34);
#23=LINE('',#490,#35);
#24=LINE('',#492,#36);
#25=LINE('',#494,#37);
#26=LINE('',#496,#38);
#27=LINE('',#498,#39);
#28=LINE('',#500,#40);
#29=LINE('',#502,#41);
#30=LINE('',#504,#42);
#31=LINE('',#506,#43);
#32=VECTOR('',#379,1000.);
#33=VECTOR('',#380,1000.);
#34=VECTOR('',#381,1000.);
#35=VECTOR('',#384,1000.);
#36=VECTOR('',#385,1000.);
#37=VECTOR('',#388,1000.);
#38=VECTOR('',#389,1000.);
#39=VECTOR('',#392,1000.);
#40=VECTOR('',#393,1000.);
#41=VECTOR('',#396,1000.);
#42=VECTOR('',#397,1000.);
#43=VECTOR('',#400,1000.);
#44=CYLINDRICAL_SURFACE('',#299,19.5);
#45=CYLINDRICAL_SURFACE('',#303,17.55);
#46=CYLINDRICAL_SURFACE('',#307,19.5);
#47=CYLINDRICAL_SURFACE('',#313,16.6245);
#48=TOROIDAL_SURFACE('',#297,19.3,0.200000000000002);
#49=PLANE('',#295);
#50=PLANE('',#301);
#51=PLANE('',#305);
#52=PLANE('',#309);
#53=PLANE('',#317);
#54=PLANE('',#318);
#55=PLANE('',#319);
#56=PLANE('',#320);
#57=PLANE('',#321);
#58=PLANE('',#322);
#59=PLANE('',#323);
#60=PLANE('',#324);
#61=B_SPLINE_CURVE_WITH_KNOTS('',3,(#407,#408,#409,#410,#411,#412),
 .UNSPECIFIED.,.F.,.F.,(4,1,1,4),(2.38073127945083E-7,0.00495651901602912,
0.00743465948747971,0.0099127999589303),.UNSPECIFIED.);
#62=B_SPLINE_CURVE_WITH_KNOTS('',3,(#415,#416,#417,#418,#419,#420),
 .UNSPECIFIED.,.F.,.F.,(4,1,1,4),(0.0124906279462587,0.0149893297612631,
0.0174880315762674,0.0224854352062762),.UNSPECIFIED.);
#63=B_SPLINE_CURVE_WITH_KNOTS('',3,(#422,#423,#424,#425,#426,#427),
 .UNSPECIFIED.,.F.,.F.,(4,1,1,4),(2.38073127944678E-7,0.00495651901602912,
0.00743465948747971,0.0099127999589303),.UNSPECIFIED.);
#64=B_SPLINE_CURVE_WITH_KNOTS('',3,(#429,#430,#431,#432,#433,#434),
 .UNSPECIFIED.,.F.,.F.,(4,1,1,4),(2.38073127944452E-7,0.00495651901602912,
0.00743465948747971,0.0099127999589303),.UNSPECIFIED.);
#65=B_SPLINE_CURVE_WITH_KNOTS('',3,(#436,#437,#438,#439,#440,#441),
 .UNSPECIFIED.,.F.,.F.,(4,1,1,4),(0.0124906279462587,0.0149893297612631,
0.0174880315762674,0.0224854352062762),.UNSPECIFIED.);
#66=B_SPLINE_CURVE_WITH_KNOTS('',3,(#443,#444,#445,#446,#447,#448),
 .UNSPECIFIED.,.F.,.F.,(4,1,1,4),(2.38073127944678E-7,0.00495651901602912,
0.00743465948747971,0.0099127999589303),.UNSPECIFIED.);
#67=ORIENTED_EDGE('',*,*,#127,.F.);
#68=ORIENTED_EDGE('',*,*,#128,.T.);
#69=ORIENTED_EDGE('',*,*,#129,.T.);
#70=ORIENTED_EDGE('',*,*,#130,.T.);
#71=ORIENTED_EDGE('',*,*,#131,.T.);
#72=ORIENTED_EDGE('',*,*,#132,.T.);
#73=ORIENTED_EDGE('',*,*,#133,.T.);
#74=ORIENTED_EDGE('',*,*,#134,.F.);
#75=ORIENTED_EDGE('',*,*,#127,.T.);
#76=ORIENTED_EDGE('',*,*,#134,.T.);
#77=ORIENTED_EDGE('',*,*,#135,.F.);
#78=ORIENTED_EDGE('',*,*,#136,.F.);
#79=ORIENTED_EDGE('',*,*,#135,.T.);
#80=ORIENTED_EDGE('',*,*,#137,.F.);
#81=ORIENTED_EDGE('',*,*,#136,.T.);
#82=ORIENTED_EDGE('',*,*,#138,.F.);
#83=ORIENTED_EDGE('',*,*,#137,.T.);
#84=ORIENTED_EDGE('',*,*,#139,.F.);
#85=ORIENTED_EDGE('',*,*,#138,.T.);
#86=ORIENTED_EDGE('',*,*,#140,.F.);
#87=ORIENTED_EDGE('',*,*,#139,.T.);
#88=ORIENTED_EDGE('',*,*,#141,.F.);
#89=ORIENTED_EDGE('',*,*,#140,.T.);
#90=ORIENTED_EDGE('',*,*,#142,.F.);
#91=ORIENTED_EDGE('',*,*,#141,.T.);
#92=ORIENTED_EDGE('',*,*,#143,.F.);
#93=ORIENTED_EDGE('',*,*,#142,.T.);
#94=ORIENTED_EDGE('',*,*,#144,.F.);
#95=ORIENTED_EDGE('',*,*,#143,.T.);
#96=ORIENTED_EDGE('',*,*,#144,.T.);
#97=ORIENTED_EDGE('',*,*,#145,.F.);
#98=ORIENTED_EDGE('',*,*,#146,.F.);
#99=ORIENTED_EDGE('',*,*,#147,.T.);
#100=ORIENTED_EDGE('',*,*,#129,.F.);
#101=ORIENTED_EDGE('',*,*,#148,.F.);
#102=ORIENTED_EDGE('',*,*,#149,.F.);
#103=ORIENTED_EDGE('',*,*,#145,.T.);
#104=ORIENTED_EDGE('',*,*,#128,.F.);
#105=ORIENTED_EDGE('',*,*,#150,.F.);
#106=ORIENTED_EDGE('',*,*,#151,.F.);
#107=ORIENTED_EDGE('',*,*,#148,.T.);
#108=ORIENTED_EDGE('',*,*,#133,.F.);
#109=ORIENTED_EDGE('',*,*,#152,.F.);
#110=ORIENTED_EDGE('',*,*,#153,.F.);
#111=ORIENTED_EDGE('',*,*,#150,.T.);
#112=ORIENTED_EDGE('',*,*,#132,.F.);
#113=ORIENTED_EDGE('',*,*,#154,.F.);
#114=ORIENTED_EDGE('',*,*,#155,.F.);
#115=ORIENTED_EDGE('',*,*,#152,.T.);
#116=ORIENTED_EDGE('',*,*,#131,.F.);
#117=ORIENTED_EDGE('',*,*,#147,.F.);
#118=ORIENTED_EDGE('',*,*,#156,.F.);
#119=ORIENTED_EDGE('',*,*,#154,.T.);
#120=ORIENTED_EDGE('',*,*,#130,.F.);
#121=ORIENTED_EDGE('',*,*,#146,.T.);
#122=ORIENTED_EDGE('',*,*,#149,.T.);
#123=ORIENTED_EDGE('',*,*,#151,.T.);
#124=ORIENTED_EDGE('',*,*,#153,.T.);
#125=ORIENTED_EDGE('',*,*,#155,.T.);
#126=ORIENTED_EDGE('',*,*,#156,.T.);
#127=EDGE_CURVE('',#157,#157,#181,.T.);
#128=EDGE_CURVE('',#158,#159,#61,.T.);
#129=EDGE_CURVE('',#159,#160,#62,.T.);
#130=EDGE_CURVE('',#160,#161,#63,.T.);
#131=EDGE_CURVE('',#161,#162,#64,.T.);
#132=EDGE_CURVE('',#162,#163,#65,.T.);
#133=EDGE_CURVE('',#163,#158,#66,.T.);
#134=EDGE_CURVE('',#164,#164,#182,.T.);
#135=EDGE_CURVE('',#165,#165,#183,.T.);
#136=EDGE_CURVE('',#166,#166,#184,.T.);
#137=EDGE_CURVE('',#167,#167,#185,.T.);
#138=EDGE_CURVE('',#168,#168,#186,.T.);
#139=EDGE_CURVE('',#169,#169,#187,.T.);
#140=EDGE_CURVE('',#170,#170,#188,.T.);
#141=EDGE_CURVE('',#171,#171,#189,.T.);
#142=EDGE_CURVE('',#172,#172,#190,.T.);
#143=EDGE_CURVE('',#173,#173,#191,.T.);
#144=EDGE_CURVE('',#174,#174,#192,.T.);
#145=EDGE_CURVE('',#175,#159,#20,.T.);
#146=EDGE_CURVE('',#176,#175,#21,.T.);
#147=EDGE_CURVE('',#176,#160,#22,.T.);
#148=EDGE_CURVE('',#177,#158,#23,.T.);
#149=EDGE_CURVE('',#175,#177,#24,.T.);
#150=EDGE_CURVE('',#178,#163,#25,.T.);
#151=EDGE_CURVE('',#177,#178,#26,.T.);
#152=EDGE_CURVE('',#179,#162,#27,.T.);
#153=EDGE_CURVE('',#178,#179,#28,.T.);
#154=EDGE_CURVE('',#180,#161,#29,.T.);
#155=EDGE_CURVE('',#179,#180,#30,.T.);
#156=EDGE_CURVE('',#180,#176,#31,.T.);
#157=VERTEX_POINT('',#406);
#158=VERTEX_POINT('',#413);
#159=VERTEX_POINT('',#414);
#160=VERTEX_POINT('',#421);
#161=VERTEX_POINT('',#428);
#162=VERTEX_POINT('',#435);
#163=VERTEX_POINT('',#442);
#164=VERTEX_POINT('',#451);
#165=VERTEX_POINT('',#454);
#166=VERTEX_POINT('',#457);
#167=VERTEX_POINT('',#460);
#168=VERTEX_POINT('',#463);
#169=VERTEX_POINT('',#466);
#170=VERTEX_POINT('',#469);
#171=VERTEX_POINT('',#472);
#172=VERTEX_POINT('',#475);
#173=VERTEX_POINT('',#478);
#174=VERTEX_POINT('',#481);
#175=VERTEX_POINT('',#485);
#176=VERTEX_POINT('',#487);
#177=VERTEX_POINT('',#491);
#178=VERTEX_POINT('',#495);
#179=VERTEX_POINT('',#499);
#180=VERTEX_POINT('',#503);
#181=CIRCLE('',#294,10.2);
#182=CIRCLE('',#296,19.3);
#183=CIRCLE('',#298,19.5);
#184=CIRCLE('',#300,19.5);
#185=CIRCLE('',#302,17.55);
#186=CIRCLE('',#304,17.55);
#187=CIRCLE('',#306,19.5);
#188=CIRCLE('',#308,19.5);
#189=CIRCLE('',#310,15.1455);
#190=CIRCLE('',#312,16.6245);
#191=CIRCLE('',#314,16.6245);
#192=CIRCLE('',#316,15.1455);
#193=EDGE_LOOP('',(#67));
#194=EDGE_LOOP('',(#68,#69,#70,#71,#72,#73));
#195=EDGE_LOOP('',(#74));
#196=EDGE_LOOP('',(#75));
#197=EDGE_LOOP('',(#76));
#198=EDGE_LOOP('',(#77));
#199=EDGE_LOOP('',(#78));
#200=EDGE_LOOP('',(#79));
#201=EDGE_LOOP('',(#80));
#202=EDGE_LOOP('',(#81));
#203=EDGE_LOOP('',(#82));
#204=EDGE_LOOP('',(#83));
#205=EDGE_LOOP('',(#84));
#206=EDGE_LOOP('',(#85));
#207=EDGE_LOOP('',(#86));
#208=EDGE_LOOP('',(#87));
#209=EDGE_LOOP('',(#88));
#210=EDGE_LOOP('',(#89));
#211=EDGE_LOOP('',(#90));
#212=EDGE_LOOP('',(#91));
#213=EDGE_LOOP('',(#92));
#214=EDGE_LOOP('',(#93));
#215=EDGE_LOOP('',(#94));
#216=EDGE_LOOP('',(#95));
#217=EDGE_LOOP('',(#96));
#218=EDGE_LOOP('',(#97,#98,#99,#100));
#219=EDGE_LOOP('',(#101,#102,#103,#104));
#220=EDGE_LOOP('',(#105,#106,#107,#108));
#221=EDGE_LOOP('',(#109,#110,#111,#112));
#222=EDGE_LOOP('',(#113,#114,#115,#116));
#223=EDGE_LOOP('',(#117,#118,#119,#120));
#224=EDGE_LOOP('',(#121,#122,#123,#124,#125,#126));
#225=FACE_BOUND('',#193,.T.);
#226=FACE_BOUND('',#194,.T.);
#227=FACE_BOUND('',#195,.T.);
#228=FACE_BOUND('',#196,.T.);
#229=FACE_BOUND('',#197,.T.);
#230=FACE_BOUND('',#198,.T.);
#231=FACE_BOUND('',#199,.T.);
#232=FACE_BOUND('',#200,.T.);
#233=FACE_BOUND('',#201,.T.);
#234=FACE_BOUND('',#202,.T.);
#235=FACE_BOUND('',#203,.T.);
#236=FACE_BOUND('',#204,.T.);
#237=FACE_BOUND('',#205,.T.);
#238=FACE_BOUND('',#206,.T.);
#239=FACE_BOUND('',#207,.T.);
#240=FACE_BOUND('',#208,.T.);
#241=FACE_BOUND('',#209,.T.);
#242=FACE_BOUND('',#210,.T.);
#243=FACE_BOUND('',#211,.T.);
#244=FACE_BOUND('',#212,.T.);
#245=FACE_BOUND('',#213,.T.);
#246=FACE_BOUND('',#214,.T.);
#247=FACE_BOUND('',#215,.T.);
#248=FACE_BOUND('',#216,.T.);
#249=FACE_BOUND('',#217,.T.);
#250=FACE_BOUND('',#218,.T.);
#251=FACE_BOUND('',#219,.T.);
#252=FACE_BOUND('',#220,.T.);
#253=FACE_BOUND('',#221,.T.);
#254=FACE_BOUND('',#222,.T.);
#255=FACE_BOUND('',#223,.T.);
#256=FACE_BOUND('',#224,.T.);
#257=CONICAL_SURFACE('',#293,8.67361737988404E-16,1.0471975511966);
#258=CONICAL_SURFACE('',#311,15.1455,0.785398163397448);
#259=CONICAL_SURFACE('',#315,16.6245,0.785398163397448);
#260=ADVANCED_FACE('',(#225,#226),#257,.F.);
#261=ADVANCED_FACE('',(#227,#228),#49,.F.);
#262=ADVANCED_FACE('',(#229,#230),#48,.T.);
#263=ADVANCED_FACE('',(#231,#232),#44,.T.);
#264=ADVANCED_FACE('',(#233,#234),#50,.F.);
#265=ADVANCED_FACE('',(#235,#236),#45,.T.);
#266=ADVANCED_FACE('',(#237,#238),#51,.F.);
#267=ADVANCED_FACE('',(#239,#240),#46,.T.);
#268=ADVANCED_FACE('',(#241,#242),#52,.F.);
#269=ADVANCED_FACE('',(#243,#244),#258,.T.);
#270=ADVANCED_FACE('',(#245,#246),#47,.T.);
#271=ADVANCED_FACE('',(#247,#248),#259,.T.);
#272=ADVANCED_FACE('',(#249),#53,.F.);
#273=ADVANCED_FACE('',(#250),#54,.F.);
#274=ADVANCED_FACE('',(#251),#55,.F.);
#275=ADVANCED_FACE('',(#252),#56,.F.);
#276=ADVANCED_FACE('',(#253),#57,.F.);
#277=ADVANCED_FACE('',(#254),#58,.F.);
#278=ADVANCED_FACE('',(#255),#59,.F.);
#279=ADVANCED_FACE('',(#256),#60,.T.);
#280=CLOSED_SHELL('',(#260,#261,#262,#263,#264,#265,#266,#267,#268,#269,
#270,#271,#272,#273,#274,#275,#276,#277,#278,#279));
#281=STYLED_ITEM('',(#282),#289);
#282=PRESENTATION_STYLE_ASSIGNMENT((#283));
#283=SURFACE_STYLE_USAGE(.BOTH.,#284);
#284=SURFACE_SIDE_STYLE('',(#285));
#285=SURFACE_STYLE_FILL_AREA(#286);
#286=FILL_AREA_STYLE('',(#287));
#287=FILL_AREA_STYLE_COLOUR('',#288);
#288=COLOUR_RGB('',0.689999997615814,0.689999997615814,0.689999997615814);
#289=MANIFOLD_SOLID_BREP('5763 B-1',#280);
#290=SHAPE_DEFINITION_REPRESENTATION(#514,#291);
#291=SHAPE_REPRESENTATION('5763 B-1',(#292),#509);
#292=AXIS2_PLACEMENT_3D('',#403,#325,#326);
#293=AXIS2_PLACEMENT_3D('',#404,#327,#328);
#294=AXIS2_PLACEMENT_3D('',#405,#329,#330);
#295=AXIS2_PLACEMENT_3D('',#449,#331,#332);
#296=AXIS2_PLACEMENT_3D('',#450,#333,#334);
#297=AXIS2_PLACEMENT_3D('',#452,#335,#336);
#298=AXIS2_PLACEMENT_3D('',#453,#337,#338);
#299=AXIS2_PLACEMENT_3D('',#455,#339,#340);
#300=AXIS2_PLACEMENT_3D('',#456,#341,#342);
#301=AXIS2_PLACEMENT_3D('',#458,#343,#344);
#302=AXIS2_PLACEMENT_3D('',#459,#345,#346);
#303=AXIS2_PLACEMENT_3D('',#461,#347,#348);
#304=AXIS2_PLACEMENT_3D('',#462,#349,#350);
#305=AXIS2_PLACEMENT_3D('',#464,#351,#352);
#306=AXIS2_PLACEMENT_3D('',#465,#353,#354);
#307=AXIS2_PLACEMENT_3D('',#467,#355,#356);
#308=AXIS2_PLACEMENT_3D('',#468,#357,#358);
#309=AXIS2_PLACEMENT_3D('',#470,#359,#360);
#310=AXIS2_PLACEMENT_3D('',#471,#361,#362);
#311=AXIS2_PLACEMENT_3D('',#473,#363,#364);
#312=AXIS2_PLACEMENT_3D('',#474,#365,#366);
#313=AXIS2_PLACEMENT_3D('',#476,#367,#368);
#314=AXIS2_PLACEMENT_3D('',#477,#369,#370);
#315=AXIS2_PLACEMENT_3D('',#479,#371,#372);
#316=AXIS2_PLACEMENT_3D('',#480,#373,#374);
#317=AXIS2_PLACEMENT_3D('',#482,#375,#376);
#318=AXIS2_PLACEMENT_3D('',#483,#377,#378);
#319=AXIS2_PLACEMENT_3D('',#489,#382,#383);
#320=AXIS2_PLACEMENT_3D('',#493,#386,#387);
#321=AXIS2_PLACEMENT_3D('',#497,#390,#391);
#322=AXIS2_PLACEMENT_3D('',#501,#394,#395);
#323=AXIS2_PLACEMENT_3D('',#505,#398,#399);
#324=AXIS2_PLACEMENT_3D('',#507,#401,#402);
#325=DIRECTION('',(0.,0.,1.));
#326=DIRECTION('',(1.,0.,0.));
#327=DIRECTION('',(0.,0.,1.));
#328=DIRECTION('',(1.,0.,0.));
#329=DIRECTION('',(0.,0.,-1.));
#330=DIRECTION('',(-1.,0.,0.));
#331=DIRECTION('',(0.,0.,-1.));
#332=DIRECTION('',(-1.,0.,0.));
#333=DIRECTION('',(0.,0.,-1.));
#334=DIRECTION('',(-1.,0.,0.));
#335=DIRECTION('',(0.,0.,-1.));
#336=DIRECTION('',(-1.,0.,0.));
#337=DIRECTION('',(0.,0.,-1.));
#338=DIRECTION('',(-1.,0.,0.));
#339=DIRECTION('',(0.,0.,-1.));
#340=DIRECTION('',(-1.,0.,0.));
#341=DIRECTION('',(0.,0.,-1.));
#342=DIRECTION('',(-1.,0.,0.));
#343=DIRECTION('',(0.,0.,1.));
#344=DIRECTION('',(1.,0.,0.));
#345=DIRECTION('',(0.,0.,-1.));
#346=DIRECTION('',(-1.,0.,0.));
#347=DIRECTION('',(0.,0.,-1.));
#348=DIRECTION('',(-1.,0.,0.));
#349=DIRECTION('',(0.,0.,-1.));
#350=DIRECTION('',(-1.,0.,0.));
#351=DIRECTION('',(0.,0.,-1.));
#352=DIRECTION('',(-1.,0.,0.));
#353=DIRECTION('',(0.,0.,-1.));
#354=DIRECTION('',(-1.,0.,0.));
#355=DIRECTION('',(0.,0.,-1.));
#356=DIRECTION('',(-1.,0.,0.));
#357=DIRECTION('',(0.,0.,-1.));
#358=DIRECTION('',(-1.,0.,0.));
#359=DIRECTION('',(0.,0.,1.));
#360=DIRECTION('',(1.,0.,0.));
#361=DIRECTION('',(0.,0.,-1.));
#362=DIRECTION('',(-1.,0.,0.));
#363=DIRECTION('',(0.,0.,-1.));
#364=DIRECTION('',(-1.,0.,0.));
#365=DIRECTION('',(0.,0.,-1.));
#366=DIRECTION('',(-1.,0.,0.));
#367=DIRECTION('',(0.,0.,-1.));
#368=DIRECTION('',(-1.,0.,0.));
#369=DIRECTION('',(0.,0.,-1.));
#370=DIRECTION('',(-1.,0.,0.));
#371=DIRECTION('',(0.,0.,1.));
#372=DIRECTION('',(1.,0.,0.));
#373=DIRECTION('',(0.,0.,-1.));
#374=DIRECTION('',(-1.,0.,0.));
#375=DIRECTION('',(0.,0.,1.));
#376=DIRECTION('',(1.,0.,0.));
#377=DIRECTION('',(-1.,0.,0.));
#378=DIRECTION('',(0.,0.,1.));
#379=DIRECTION('',(0.,0.,1.));
#380=DIRECTION('',(0.,-1.,0.));
#381=DIRECTION('',(0.,0.,1.));
#382=DIRECTION('',(-0.5,-0.866025403784439,0.));
#383=DIRECTION('',(0.866025403784439,-0.5,0.));
#384=DIRECTION('',(0.,0.,1.));
#385=DIRECTION('',(0.866025403784439,-0.5,0.));
#386=DIRECTION('',(0.5,-0.866025403784439,0.));
#387=DIRECTION('',(0.866025403784439,0.5,0.));
#388=DIRECTION('',(0.,0.,1.));
#389=DIRECTION('',(0.866025403784439,0.5,0.));
#390=DIRECTION('',(1.,0.,0.));
#391=DIRECTION('',(0.,0.,-1.));
#392=DIRECTION('',(0.,0.,1.));
#393=DIRECTION('',(0.,1.,0.));
#394=DIRECTION('',(0.5,0.866025403784439,0.));
#395=DIRECTION('',(-0.866025403784439,0.5,0.));
#396=DIRECTION('',(0.,0.,1.));
#397=DIRECTION('',(-0.866025403784439,0.5,0.));
#398=DIRECTION('',(-0.5,0.866025403784439,0.));
#399=DIRECTION('',(-0.866025403784439,-0.5,0.));
#400=DIRECTION('',(-0.866025403784439,-0.5,0.));
#401=DIRECTION('',(0.,0.,1.));
#402=DIRECTION('',(1.,0.,0.));
#403=CARTESIAN_POINT('',(0.,0.,0.));
#404=CARTESIAN_POINT('',(0.,0.,1.11102725426582));
#405=CARTESIAN_POINT('',(0.,0.,7.));
#406=CARTESIAN_POINT('',(-10.2,0.,7.));
#407=CARTESIAN_POINT('',(5.11048775678348E-14,-9.81495457622366,6.77769392093208));
#408=CARTESIAN_POINT('',(-1.3878885220957,-9.01365676438649,6.31506441356682));
#409=CARTESIAN_POINT('',(-3.51290402730145,-7.78677849042383,5.87223728487657));
#410=CARTESIAN_POINT('',(-6.40816734331875,-6.11519743554639,6.16343897376142));
#411=CARTESIAN_POINT('',(-7.80519071749185,-5.30862561440335,6.54609082676288));
#412=CARTESIAN_POINT('',(-8.50000000000003,-4.9074772881118,6.77769392093228));
#413=CARTESIAN_POINT('',(0.,-9.81495457622364,6.77769392093249));
#414=CARTESIAN_POINT('',(-8.5,-4.90747728811182,6.77769392093249));
#415=CARTESIAN_POINT('',(-8.5,-4.90747728811182,6.77769392093249));
#416=CARTESIAN_POINT('',(-8.5,-4.10942051829367,6.54731477549093));
#417=CARTESIAN_POINT('',(-8.5,-2.5020207484982,6.16470839057341));
#418=CARTESIAN_POINT('',(-8.5,0.861160012956399,5.87126440747107));
#419=CARTESIAN_POINT('',(-8.5,3.30860054875628,6.31613796299851));
#420=CARTESIAN_POINT('',(-8.5,4.90747728811181,6.77769392093249));
#421=CARTESIAN_POINT('',(-8.5,4.90747728811182,6.77769392093249));
#422=CARTESIAN_POINT('',(-8.50000000000005,4.90747728811179,6.77769392093208));
#423=CARTESIAN_POINT('',(-7.1121114779043,5.70877509994896,6.31506441356682));
#424=CARTESIAN_POINT('',(-4.98709597269856,6.93565337391163,5.87223728487657));
#425=CARTESIAN_POINT('',(-2.09183265668125,8.60723442878906,6.16343897376142));
#426=CARTESIAN_POINT('',(-0.694809282508156,9.4138062499321,6.54609082676288));
#427=CARTESIAN_POINT('',(2.81503413591153E-14,9.81495457622365,6.77769392093228));
#428=CARTESIAN_POINT('',(0.,9.81495457622364,6.77769392093249));
#429=CARTESIAN_POINT('',(-5.16398301592239E-14,9.81495457622366,6.77769392093208));
#430=CARTESIAN_POINT('',(1.3878885220957,9.01365676438649,6.31506441356682));
#431=CARTESIAN_POINT('',(3.51290402730144,7.78677849042383,5.87223728487657));
#432=CARTESIAN_POINT('',(6.40816734331875,6.11519743554639,6.16343897376142));
#433=CARTESIAN_POINT('',(7.80519071749184,5.30862561440335,6.54609082676288));
#434=CARTESIAN_POINT('',(8.50000000000003,4.9074772881118,6.77769392093228));
#435=CARTESIAN_POINT('',(8.5,4.90747728811182,6.77769392093249));
#436=CARTESIAN_POINT('',(8.5,4.90747728811182,6.77769392093249));
#437=CARTESIAN_POINT('',(8.5,4.10942051829367,6.54731477549093));
#438=CARTESIAN_POINT('',(8.5,2.5020207484982,6.16470839057341));
#439=CARTESIAN_POINT('',(8.5,-0.861160012956399,5.87126440747107));
#440=CARTESIAN_POINT('',(8.5,-3.30860054875628,6.31613796299851));
#441=CARTESIAN_POINT('',(8.5,-4.90747728811181,6.77769392093249));
#442=CARTESIAN_POINT('',(8.5,-4.90747728811182,6.77769392093249));
#443=CARTESIAN_POINT('',(8.50000000000005,-4.90747728811179,6.77769392093208));
#444=CARTESIAN_POINT('',(7.1121114779043,-5.70877509994896,6.31506441356682));
#445=CARTESIAN_POINT('',(4.98709597269856,-6.93565337391163,5.87223728487657));
#446=CARTESIAN_POINT('',(2.09183265668125,-8.60723442878906,6.16343897376142));
#447=CARTESIAN_POINT('',(0.694809282508156,-9.4138062499321,6.54609082676288));
#448=CARTESIAN_POINT('',(-2.81503413591153E-14,-9.81495457622365,6.77769392093228));
#449=CARTESIAN_POINT('',(0.,10.2,7.));
#450=CARTESIAN_POINT('',(0.,0.,7.));
#451=CARTESIAN_POINT('',(-19.3,0.,7.));
#452=CARTESIAN_POINT('',(0.,0.,6.8));
#453=CARTESIAN_POINT('',(0.,0.,6.8));
#454=CARTESIAN_POINT('',(-19.5,0.,6.8));
#455=CARTESIAN_POINT('',(0.,0.,-14.));
#456=CARTESIAN_POINT('',(0.,0.,2.33333333333333));
#457=CARTESIAN_POINT('',(-19.5,0.,2.33333333333333));
#458=CARTESIAN_POINT('',(0.,19.5,2.33333333333333));
#459=CARTESIAN_POINT('',(0.,0.,2.33333333333333));
#460=CARTESIAN_POINT('',(-17.55,0.,2.33333333333333));
#461=CARTESIAN_POINT('',(0.,0.,-14.));
#462=CARTESIAN_POINT('',(0.,0.,2.18333333333333));
#463=CARTESIAN_POINT('',(-17.55,0.,2.18333333333333));
#464=CARTESIAN_POINT('',(0.,17.55,2.18333333333333));
#465=CARTESIAN_POINT('',(0.,0.,2.18333333333333));
#466=CARTESIAN_POINT('',(-19.5,0.,2.18333333333333));
#467=CARTESIAN_POINT('',(0.,0.,-14.));
#468=CARTESIAN_POINT('',(0.,0.,0.));
#469=CARTESIAN_POINT('',(-19.5,0.,0.));
#470=CARTESIAN_POINT('',(0.,19.5,0.));
#471=CARTESIAN_POINT('',(0.,0.,0.));
#472=CARTESIAN_POINT('',(-15.1455,0.,0.));
#473=CARTESIAN_POINT('',(0.,0.,0.));
#474=CARTESIAN_POINT('',(0.,0.,-1.479));
#475=CARTESIAN_POINT('',(-16.6245,0.,-1.479));
#476=CARTESIAN_POINT('',(0.,0.,-14.));
#477=CARTESIAN_POINT('',(0.,0.,-12.521));
#478=CARTESIAN_POINT('',(-16.6245,0.,-12.521));
#479=CARTESIAN_POINT('',(0.,0.,-12.521));
#480=CARTESIAN_POINT('',(0.,0.,-14.));
#481=CARTESIAN_POINT('',(-15.1455,0.,-14.));
#482=CARTESIAN_POINT('',(0.,15.1455,-14.));
#483=CARTESIAN_POINT('',(-8.5,4.90747728811182,0.));
#484=CARTESIAN_POINT('',(-8.5,-4.90747728811182,0.));
#485=CARTESIAN_POINT('',(-8.5,-4.90747728811182,0.));
#486=CARTESIAN_POINT('',(-8.5,4.90747728811182,0.));
#487=CARTESIAN_POINT('',(-8.5,4.90747728811182,0.));
#488=CARTESIAN_POINT('',(-8.5,4.90747728811182,0.));
#489=CARTESIAN_POINT('',(-8.5,-4.90747728811182,0.));
#490=CARTESIAN_POINT('',(0.,-9.81495457622364,0.));
#491=CARTESIAN_POINT('',(0.,-9.81495457622364,0.));
#492=CARTESIAN_POINT('',(-8.5,-4.90747728811182,0.));
#493=CARTESIAN_POINT('',(0.,-9.81495457622364,0.));
#494=CARTESIAN_POINT('',(8.5,-4.90747728811182,0.));
#495=CARTESIAN_POINT('',(8.5,-4.90747728811182,0.));
#496=CARTESIAN_POINT('',(0.,-9.81495457622364,0.));
#497=CARTESIAN_POINT('',(8.5,-4.90747728811182,0.));
#498=CARTESIAN_POINT('',(8.5,4.90747728811182,0.));
#499=CARTESIAN_POINT('',(8.5,4.90747728811182,0.));
#500=CARTESIAN_POINT('',(8.5,-4.90747728811182,0.));
#501=CARTESIAN_POINT('',(8.5,4.90747728811182,0.));
#502=CARTESIAN_POINT('',(0.,9.81495457622364,0.));
#503=CARTESIAN_POINT('',(0.,9.81495457622364,0.));
#504=CARTESIAN_POINT('',(8.5,4.90747728811182,0.));
#505=CARTESIAN_POINT('',(0.,9.81495457622364,0.));
#506=CARTESIAN_POINT('',(0.,9.81495457622364,0.));
#507=CARTESIAN_POINT('',(0.,0.,0.));
#508=MECHANICAL_DESIGN_GEOMETRIC_PRESENTATION_REPRESENTATION('',(#281),
#509);
#509=(
GEOMETRIC_REPRESENTATION_CONTEXT(3)
GLOBAL_UNCERTAINTY_ASSIGNED_CONTEXT((#510))
GLOBAL_UNIT_ASSIGNED_CONTEXT((#513,#512,#511))
REPRESENTATION_CONTEXT('5763 B-1','TOP_LEVEL_ASSEMBLY_PART')
);
#510=UNCERTAINTY_MEASURE_WITH_UNIT(LENGTH_MEASURE(0.005),#513,
'DISTANCE_ACCURACY_VALUE','Maximum Tolerance applied to model');
#511=(
NAMED_UNIT(*)
SI_UNIT($,.STERADIAN.)
SOLID_ANGLE_UNIT()
);
#512=(
NAMED_UNIT(*)
PLANE_ANGLE_UNIT()
SI_UNIT($,.RADIAN.)
);
#513=(
LENGTH_UNIT()
NAMED_UNIT(*)
SI_UNIT(.MILLI.,.METRE.)
);
#514=PRODUCT_DEFINITION_SHAPE('','',#515);
#515=PRODUCT_DEFINITION('','',#517,#516);
#516=PRODUCT_DEFINITION_CONTEXT('',#523,'design');
#517=PRODUCT_DEFINITION_FORMATION_WITH_SPECIFIED_SOURCE('','',#519,
 .NOT_KNOWN.);
#518=PRODUCT_RELATED_PRODUCT_CATEGORY('','',(#519));
#519=PRODUCT('5763 B-1','5763 B-1','5763 B-1',(#521));
#520=PRODUCT_CATEGORY('','');
#521=PRODUCT_CONTEXT('',#523,'mechanical');
#522=APPLICATION_PROTOCOL_DEFINITION('international standard',
'automotive_design',2010,#523);
#523=APPLICATION_CONTEXT(
'core data for automotive mechanical design processes');
ENDSEC;
END-ISO-10303-21;
