ISO-10303-21;
HEADER;
/* Generated by software containing ST-Developer
 * from STEP Tools, Inc. (www.steptools.com) 
 */
/* OPTION: using custom renumber hook */

FILE_DESCRIPTION(
/* description */ ('STEP AP214'),
/* implementation_level */ '2;1');

FILE_NAME(
/* name */ '578311_NPQH-D-S12-Q8-P10',
/* time_stamp */ '2024-09-13T04:20:43+02:00',
/* author */ ('License CC BY-ND 4.0'),
/* organization */ ('CADENAS'),
/* preprocessor_version */ 'ST-DEVELOPER v19.3',
/* originating_system */ 'PARTsolutions',
/* authorisation */ '  ');

FILE_SCHEMA (('AUTOMOTIVE_DESIGN {1 0 10303 214 3 1 1}'));
ENDSEC;

DATA;
#10=PROPERTY_DEFINITION_REPRESENTATION(#14,#12);
#11=PROPERTY_DEFINITION_REPRESENTATION(#15,#13);
#12=REPRESENTATION('',(#16),#497);
#13=REPRESENTATION('',(#17),#497);
#14=PROPERTY_DEFINITION('pmi validation property','',#502);
#15=PROPERTY_DEFINITION('pmi validation property','',#502);
#16=VALUE_REPRESENTATION_ITEM('number of annotations',COUNT_MEASURE(0.));
#17=VALUE_REPRESENTATION_ITEM('number of views',COUNT_MEASURE(0.));
#18=SHAPE_REPRESENTATION_RELATIONSHIP('','',#284,#19);
#19=ADVANCED_BREP_SHAPE_REPRESENTATION('',(#282),#497);
#20=CYLINDRICAL_SURFACE('',#291,6.);
#21=CYLINDRICAL_SURFACE('',#295,5.6);
#22=CYLINDRICAL_SURFACE('',#299,6.);
#23=CYLINDRICAL_SURFACE('',#303,7.);
#24=CYLINDRICAL_SURFACE('',#309,4.9);
#25=CYLINDRICAL_SURFACE('',#313,4.5);
#26=CYLINDRICAL_SURFACE('',#319,6.4);
#27=CYLINDRICAL_SURFACE('',#325,3.5);
#28=CYLINDRICAL_SURFACE('',#329,4.);
#29=CONICAL_SURFACE('',#289,5.7,0.785398163397445);
#30=CONICAL_SURFACE('',#293,6.,1.13446401379631);
#31=CONICAL_SURFACE('',#301,6.,0.785398163397448);
#32=CONICAL_SURFACE('',#305,7.,0.785398163397442);
#33=CONICAL_SURFACE('',#315,4.5,0.78539816339745);
#34=CONICAL_SURFACE('',#321,6.4,0.78539816339745);
#35=CONICAL_SURFACE('',#327,3.5,0.785398163397438);
#36=CONICAL_SURFACE('',#331,4.,0.785398163397442);
#37=ORIENTED_EDGE('',*,*,#83,.F.);
#38=ORIENTED_EDGE('',*,*,#84,.T.);
#39=ORIENTED_EDGE('',*,*,#85,.F.);
#40=ORIENTED_EDGE('',*,*,#83,.T.);
#41=ORIENTED_EDGE('',*,*,#86,.F.);
#42=ORIENTED_EDGE('',*,*,#85,.T.);
#43=ORIENTED_EDGE('',*,*,#87,.F.);
#44=ORIENTED_EDGE('',*,*,#86,.T.);
#45=ORIENTED_EDGE('',*,*,#88,.F.);
#46=ORIENTED_EDGE('',*,*,#87,.T.);
#47=ORIENTED_EDGE('',*,*,#89,.F.);
#48=ORIENTED_EDGE('',*,*,#88,.T.);
#49=ORIENTED_EDGE('',*,*,#90,.F.);
#50=ORIENTED_EDGE('',*,*,#89,.T.);
#51=ORIENTED_EDGE('',*,*,#91,.F.);
#52=ORIENTED_EDGE('',*,*,#90,.T.);
#53=ORIENTED_EDGE('',*,*,#92,.F.);
#54=ORIENTED_EDGE('',*,*,#91,.T.);
#55=ORIENTED_EDGE('',*,*,#93,.F.);
#56=ORIENTED_EDGE('',*,*,#92,.T.);
#57=ORIENTED_EDGE('',*,*,#94,.F.);
#58=ORIENTED_EDGE('',*,*,#93,.T.);
#59=ORIENTED_EDGE('',*,*,#95,.F.);
#60=ORIENTED_EDGE('',*,*,#94,.T.);
#61=ORIENTED_EDGE('',*,*,#96,.F.);
#62=ORIENTED_EDGE('',*,*,#95,.T.);
#63=ORIENTED_EDGE('',*,*,#97,.F.);
#64=ORIENTED_EDGE('',*,*,#96,.T.);
#65=ORIENTED_EDGE('',*,*,#98,.F.);
#66=ORIENTED_EDGE('',*,*,#97,.T.);
#67=ORIENTED_EDGE('',*,*,#99,.F.);
#68=ORIENTED_EDGE('',*,*,#98,.T.);
#69=ORIENTED_EDGE('',*,*,#100,.F.);
#70=ORIENTED_EDGE('',*,*,#99,.T.);
#71=ORIENTED_EDGE('',*,*,#101,.F.);
#72=ORIENTED_EDGE('',*,*,#100,.T.);
#73=ORIENTED_EDGE('',*,*,#102,.F.);
#74=ORIENTED_EDGE('',*,*,#101,.T.);
#75=ORIENTED_EDGE('',*,*,#103,.T.);
#76=ORIENTED_EDGE('',*,*,#84,.F.);
#77=ORIENTED_EDGE('',*,*,#104,.T.);
#78=ORIENTED_EDGE('',*,*,#103,.F.);
#79=ORIENTED_EDGE('',*,*,#105,.T.);
#80=ORIENTED_EDGE('',*,*,#104,.F.);
#81=ORIENTED_EDGE('',*,*,#102,.T.);
#82=ORIENTED_EDGE('',*,*,#105,.F.);
#83=EDGE_CURVE('',#106,#106,#129,.T.);
#84=EDGE_CURVE('',#107,#107,#130,.T.);
#85=EDGE_CURVE('',#108,#108,#131,.T.);
#86=EDGE_CURVE('',#109,#109,#132,.T.);
#87=EDGE_CURVE('',#110,#110,#133,.T.);
#88=EDGE_CURVE('',#111,#111,#134,.T.);
#89=EDGE_CURVE('',#112,#112,#135,.T.);
#90=EDGE_CURVE('',#113,#113,#136,.T.);
#91=EDGE_CURVE('',#114,#114,#137,.T.);
#92=EDGE_CURVE('',#115,#115,#138,.T.);
#93=EDGE_CURVE('',#116,#116,#139,.T.);
#94=EDGE_CURVE('',#117,#117,#140,.T.);
#95=EDGE_CURVE('',#118,#118,#141,.T.);
#96=EDGE_CURVE('',#119,#119,#142,.T.);
#97=EDGE_CURVE('',#120,#120,#143,.T.);
#98=EDGE_CURVE('',#121,#121,#144,.T.);
#99=EDGE_CURVE('',#122,#122,#145,.T.);
#100=EDGE_CURVE('',#123,#123,#146,.T.);
#101=EDGE_CURVE('',#124,#124,#147,.T.);
#102=EDGE_CURVE('',#125,#125,#148,.T.);
#103=EDGE_CURVE('',#126,#126,#149,.T.);
#104=EDGE_CURVE('',#127,#127,#150,.T.);
#105=EDGE_CURVE('',#128,#128,#151,.T.);
#106=VERTEX_POINT('',#429);
#107=VERTEX_POINT('',#431);
#108=VERTEX_POINT('',#434);
#109=VERTEX_POINT('',#437);
#110=VERTEX_POINT('',#440);
#111=VERTEX_POINT('',#443);
#112=VERTEX_POINT('',#446);
#113=VERTEX_POINT('',#449);
#114=VERTEX_POINT('',#452);
#115=VERTEX_POINT('',#455);
#116=VERTEX_POINT('',#458);
#117=VERTEX_POINT('',#461);
#118=VERTEX_POINT('',#464);
#119=VERTEX_POINT('',#467);
#120=VERTEX_POINT('',#470);
#121=VERTEX_POINT('',#473);
#122=VERTEX_POINT('',#476);
#123=VERTEX_POINT('',#479);
#124=VERTEX_POINT('',#482);
#125=VERTEX_POINT('',#485);
#126=VERTEX_POINT('',#488);
#127=VERTEX_POINT('',#491);
#128=VERTEX_POINT('',#494);
#129=CIRCLE('',#287,5.7);
#130=CIRCLE('',#288,3.5);
#131=CIRCLE('',#290,6.);
#132=CIRCLE('',#292,6.);
#133=CIRCLE('',#294,5.6);
#134=CIRCLE('',#296,5.6);
#135=CIRCLE('',#298,6.);
#136=CIRCLE('',#300,6.);
#137=CIRCLE('',#302,7.);
#138=CIRCLE('',#304,7.);
#139=CIRCLE('',#306,6.78786796564404);
#140=CIRCLE('',#308,4.9);
#141=CIRCLE('',#310,4.9);
#142=CIRCLE('',#312,4.5);
#143=CIRCLE('',#314,4.5);
#144=CIRCLE('',#316,4.7);
#145=CIRCLE('',#318,6.4);
#146=CIRCLE('',#320,6.4);
#147=CIRCLE('',#322,6.2);
#148=CIRCLE('',#324,4.21213203435596);
#149=CIRCLE('',#326,3.5);
#150=CIRCLE('',#328,4.);
#151=CIRCLE('',#330,4.);
#152=EDGE_LOOP('',(#37));
#153=EDGE_LOOP('',(#38));
#154=EDGE_LOOP('',(#39));
#155=EDGE_LOOP('',(#40));
#156=EDGE_LOOP('',(#41));
#157=EDGE_LOOP('',(#42));
#158=EDGE_LOOP('',(#43));
#159=EDGE_LOOP('',(#44));
#160=EDGE_LOOP('',(#45));
#161=EDGE_LOOP('',(#46));
#162=EDGE_LOOP('',(#47));
#163=EDGE_LOOP('',(#48));
#164=EDGE_LOOP('',(#49));
#165=EDGE_LOOP('',(#50));
#166=EDGE_LOOP('',(#51));
#167=EDGE_LOOP('',(#52));
#168=EDGE_LOOP('',(#53));
#169=EDGE_LOOP('',(#54));
#170=EDGE_LOOP('',(#55));
#171=EDGE_LOOP('',(#56));
#172=EDGE_LOOP('',(#57));
#173=EDGE_LOOP('',(#58));
#174=EDGE_LOOP('',(#59));
#175=EDGE_LOOP('',(#60));
#176=EDGE_LOOP('',(#61));
#177=EDGE_LOOP('',(#62));
#178=EDGE_LOOP('',(#63));
#179=EDGE_LOOP('',(#64));
#180=EDGE_LOOP('',(#65));
#181=EDGE_LOOP('',(#66));
#182=EDGE_LOOP('',(#67));
#183=EDGE_LOOP('',(#68));
#184=EDGE_LOOP('',(#69));
#185=EDGE_LOOP('',(#70));
#186=EDGE_LOOP('',(#71));
#187=EDGE_LOOP('',(#72));
#188=EDGE_LOOP('',(#73));
#189=EDGE_LOOP('',(#74));
#190=EDGE_LOOP('',(#75));
#191=EDGE_LOOP('',(#76));
#192=EDGE_LOOP('',(#77));
#193=EDGE_LOOP('',(#78));
#194=EDGE_LOOP('',(#79));
#195=EDGE_LOOP('',(#80));
#196=EDGE_LOOP('',(#81));
#197=EDGE_LOOP('',(#82));
#198=FACE_BOUND('',#152,.T.);
#199=FACE_BOUND('',#153,.T.);
#200=FACE_BOUND('',#154,.T.);
#201=FACE_BOUND('',#155,.T.);
#202=FACE_BOUND('',#156,.T.);
#203=FACE_BOUND('',#157,.T.);
#204=FACE_BOUND('',#158,.T.);
#205=FACE_BOUND('',#159,.T.);
#206=FACE_BOUND('',#160,.T.);
#207=FACE_BOUND('',#161,.T.);
#208=FACE_BOUND('',#162,.T.);
#209=FACE_BOUND('',#163,.T.);
#210=FACE_BOUND('',#164,.T.);
#211=FACE_BOUND('',#165,.T.);
#212=FACE_BOUND('',#166,.T.);
#213=FACE_BOUND('',#167,.T.);
#214=FACE_BOUND('',#168,.T.);
#215=FACE_BOUND('',#169,.T.);
#216=FACE_BOUND('',#170,.T.);
#217=FACE_BOUND('',#171,.T.);
#218=FACE_BOUND('',#172,.T.);
#219=FACE_BOUND('',#173,.T.);
#220=FACE_BOUND('',#174,.T.);
#221=FACE_BOUND('',#175,.T.);
#222=FACE_BOUND('',#176,.T.);
#223=FACE_BOUND('',#177,.T.);
#224=FACE_BOUND('',#178,.T.);
#225=FACE_BOUND('',#179,.T.);
#226=FACE_BOUND('',#180,.T.);
#227=FACE_BOUND('',#181,.T.);
#228=FACE_BOUND('',#182,.T.);
#229=FACE_BOUND('',#183,.T.);
#230=FACE_BOUND('',#184,.T.);
#231=FACE_BOUND('',#185,.T.);
#232=FACE_BOUND('',#186,.T.);
#233=FACE_BOUND('',#187,.T.);
#234=FACE_BOUND('',#188,.T.);
#235=FACE_BOUND('',#189,.T.);
#236=FACE_BOUND('',#190,.T.);
#237=FACE_BOUND('',#191,.T.);
#238=FACE_BOUND('',#192,.T.);
#239=FACE_BOUND('',#193,.T.);
#240=FACE_BOUND('',#194,.T.);
#241=FACE_BOUND('',#195,.T.);
#242=FACE_BOUND('',#196,.T.);
#243=FACE_BOUND('',#197,.T.);
#244=PLANE('',#286);
#245=PLANE('',#297);
#246=PLANE('',#307);
#247=PLANE('',#311);
#248=PLANE('',#317);
#249=PLANE('',#323);
#250=ADVANCED_FACE('',(#198,#199),#244,.F.);
#251=ADVANCED_FACE('',(#200,#201),#29,.T.);
#252=ADVANCED_FACE('',(#202,#203),#20,.T.);
#253=ADVANCED_FACE('',(#204,#205),#30,.T.);
#254=ADVANCED_FACE('',(#206,#207),#21,.T.);
#255=ADVANCED_FACE('',(#208,#209),#245,.F.);
#256=ADVANCED_FACE('',(#210,#211),#22,.T.);
#257=ADVANCED_FACE('',(#212,#213),#31,.T.);
#258=ADVANCED_FACE('',(#214,#215),#23,.T.);
#259=ADVANCED_FACE('',(#216,#217),#32,.T.);
#260=ADVANCED_FACE('',(#218,#219),#246,.F.);
#261=ADVANCED_FACE('',(#220,#221),#24,.T.);
#262=ADVANCED_FACE('',(#222,#223),#247,.F.);
#263=ADVANCED_FACE('',(#224,#225),#25,.T.);
#264=ADVANCED_FACE('',(#226,#227),#33,.T.);
#265=ADVANCED_FACE('',(#228,#229),#248,.F.);
#266=ADVANCED_FACE('',(#230,#231),#26,.T.);
#267=ADVANCED_FACE('',(#232,#233),#34,.T.);
#268=ADVANCED_FACE('',(#234,#235),#249,.F.);
#269=ADVANCED_FACE('',(#236,#237),#27,.F.);
#270=ADVANCED_FACE('',(#238,#239),#35,.F.);
#271=ADVANCED_FACE('',(#240,#241),#28,.F.);
#272=ADVANCED_FACE('',(#242,#243),#36,.F.);
#273=CLOSED_SHELL('',(#250,#251,#252,#253,#254,#255,#256,#257,#258,#259,
#260,#261,#262,#263,#264,#265,#266,#267,#268,#269,#270,#271,#272));
#274=STYLED_ITEM('',(#275),#282);
#275=PRESENTATION_STYLE_ASSIGNMENT((#276));
#276=SURFACE_STYLE_USAGE(.BOTH.,#277);
#277=SURFACE_SIDE_STYLE('',(#278));
#278=SURFACE_STYLE_FILL_AREA(#279);
#279=FILL_AREA_STYLE('',(#280));
#280=FILL_AREA_STYLE_COLOUR('',#281);
#281=COLOUR_RGB('',0.689999997615814,0.689999997615814,0.689999997615814);
#282=MANIFOLD_SOLID_BREP('578311 NPQH-D-S12-Q8-P10',#273);
#283=SHAPE_DEFINITION_REPRESENTATION(#502,#284);
#284=SHAPE_REPRESENTATION('578311 NPQH-D-S12-Q8-P10',(#285),#497);
#285=AXIS2_PLACEMENT_3D('',#426,#332,#333);
#286=AXIS2_PLACEMENT_3D('',#427,#334,#335);
#287=AXIS2_PLACEMENT_3D('',#428,#336,#337);
#288=AXIS2_PLACEMENT_3D('',#430,#338,#339);
#289=AXIS2_PLACEMENT_3D('',#432,#340,#341);
#290=AXIS2_PLACEMENT_3D('',#433,#342,#343);
#291=AXIS2_PLACEMENT_3D('',#435,#344,#345);
#292=AXIS2_PLACEMENT_3D('',#436,#346,#347);
#293=AXIS2_PLACEMENT_3D('',#438,#348,#349);
#294=AXIS2_PLACEMENT_3D('',#439,#350,#351);
#295=AXIS2_PLACEMENT_3D('',#441,#352,#353);
#296=AXIS2_PLACEMENT_3D('',#442,#354,#355);
#297=AXIS2_PLACEMENT_3D('',#444,#356,#357);
#298=AXIS2_PLACEMENT_3D('',#445,#358,#359);
#299=AXIS2_PLACEMENT_3D('',#447,#360,#361);
#300=AXIS2_PLACEMENT_3D('',#448,#362,#363);
#301=AXIS2_PLACEMENT_3D('',#450,#364,#365);
#302=AXIS2_PLACEMENT_3D('',#451,#366,#367);
#303=AXIS2_PLACEMENT_3D('',#453,#368,#369);
#304=AXIS2_PLACEMENT_3D('',#454,#370,#371);
#305=AXIS2_PLACEMENT_3D('',#456,#372,#373);
#306=AXIS2_PLACEMENT_3D('',#457,#374,#375);
#307=AXIS2_PLACEMENT_3D('',#459,#376,#377);
#308=AXIS2_PLACEMENT_3D('',#460,#378,#379);
#309=AXIS2_PLACEMENT_3D('',#462,#380,#381);
#310=AXIS2_PLACEMENT_3D('',#463,#382,#383);
#311=AXIS2_PLACEMENT_3D('',#465,#384,#385);
#312=AXIS2_PLACEMENT_3D('',#466,#386,#387);
#313=AXIS2_PLACEMENT_3D('',#468,#388,#389);
#314=AXIS2_PLACEMENT_3D('',#469,#390,#391);
#315=AXIS2_PLACEMENT_3D('',#471,#392,#393);
#316=AXIS2_PLACEMENT_3D('',#472,#394,#395);
#317=AXIS2_PLACEMENT_3D('',#474,#396,#397);
#318=AXIS2_PLACEMENT_3D('',#475,#398,#399);
#319=AXIS2_PLACEMENT_3D('',#477,#400,#401);
#320=AXIS2_PLACEMENT_3D('',#478,#402,#403);
#321=AXIS2_PLACEMENT_3D('',#480,#404,#405);
#322=AXIS2_PLACEMENT_3D('',#481,#406,#407);
#323=AXIS2_PLACEMENT_3D('',#483,#408,#409);
#324=AXIS2_PLACEMENT_3D('',#484,#410,#411);
#325=AXIS2_PLACEMENT_3D('',#486,#412,#413);
#326=AXIS2_PLACEMENT_3D('',#487,#414,#415);
#327=AXIS2_PLACEMENT_3D('',#489,#416,#417);
#328=AXIS2_PLACEMENT_3D('',#490,#418,#419);
#329=AXIS2_PLACEMENT_3D('',#492,#420,#421);
#330=AXIS2_PLACEMENT_3D('',#493,#422,#423);
#331=AXIS2_PLACEMENT_3D('',#495,#424,#425);
#332=DIRECTION('',(0.,0.,1.));
#333=DIRECTION('',(1.,0.,0.));
#334=DIRECTION('',(0.,0.,-1.));
#335=DIRECTION('',(-1.,0.,0.));
#336=DIRECTION('',(0.,0.,-1.));
#337=DIRECTION('',(-1.,0.,0.));
#338=DIRECTION('',(0.,0.,-1.));
#339=DIRECTION('',(-1.,0.,0.));
#340=DIRECTION('',(0.,0.,-1.));
#341=DIRECTION('',(-1.,0.,0.));
#342=DIRECTION('',(0.,0.,-1.));
#343=DIRECTION('',(-1.,0.,0.));
#344=DIRECTION('',(0.,0.,-1.));
#345=DIRECTION('',(-1.,0.,0.));
#346=DIRECTION('',(0.,0.,-1.));
#347=DIRECTION('',(-1.,0.,0.));
#348=DIRECTION('',(0.,0.,1.));
#349=DIRECTION('',(1.,0.,0.));
#350=DIRECTION('',(0.,0.,-1.));
#351=DIRECTION('',(-1.,0.,0.));
#352=DIRECTION('',(0.,0.,-1.));
#353=DIRECTION('',(-1.,0.,0.));
#354=DIRECTION('',(0.,0.,-1.));
#355=DIRECTION('',(-1.,0.,0.));
#356=DIRECTION('',(0.,0.,-1.));
#357=DIRECTION('',(-1.,0.,0.));
#358=DIRECTION('',(0.,0.,-1.));
#359=DIRECTION('',(-1.,0.,0.));
#360=DIRECTION('',(0.,0.,-1.));
#361=DIRECTION('',(-1.,0.,0.));
#362=DIRECTION('',(0.,0.,-1.));
#363=DIRECTION('',(-1.,0.,0.));
#364=DIRECTION('',(0.,0.,-1.));
#365=DIRECTION('',(-1.,0.,0.));
#366=DIRECTION('',(0.,0.,-1.));
#367=DIRECTION('',(-1.,0.,0.));
#368=DIRECTION('',(0.,0.,-1.));
#369=DIRECTION('',(-1.,0.,0.));
#370=DIRECTION('',(0.,0.,-1.));
#371=DIRECTION('',(-1.,0.,0.));
#372=DIRECTION('',(0.,0.,1.));
#373=DIRECTION('',(1.,0.,0.));
#374=DIRECTION('',(0.,0.,-1.));
#375=DIRECTION('',(-1.,0.,0.));
#376=DIRECTION('',(0.,0.,1.));
#377=DIRECTION('',(1.,0.,0.));
#378=DIRECTION('',(0.,0.,-1.));
#379=DIRECTION('',(-1.,0.,0.));
#380=DIRECTION('',(0.,0.,-1.));
#381=DIRECTION('',(-1.,0.,0.));
#382=DIRECTION('',(0.,0.,-1.));
#383=DIRECTION('',(-1.,0.,0.));
#384=DIRECTION('',(0.,0.,1.));
#385=DIRECTION('',(1.,0.,0.));
#386=DIRECTION('',(0.,0.,-1.));
#387=DIRECTION('',(-1.,0.,0.));
#388=DIRECTION('',(0.,0.,-1.));
#389=DIRECTION('',(-1.,0.,0.));
#390=DIRECTION('',(0.,0.,-1.));
#391=DIRECTION('',(-1.,0.,0.));
#392=DIRECTION('',(0.,0.,-1.));
#393=DIRECTION('',(-1.,0.,0.));
#394=DIRECTION('',(0.,0.,-1.));
#395=DIRECTION('',(-1.,0.,0.));
#396=DIRECTION('',(0.,0.,-1.));
#397=DIRECTION('',(-1.,0.,0.));
#398=DIRECTION('',(0.,0.,-1.));
#399=DIRECTION('',(-1.,0.,0.));
#400=DIRECTION('',(0.,0.,-1.));
#401=DIRECTION('',(-1.,0.,0.));
#402=DIRECTION('',(0.,0.,-1.));
#403=DIRECTION('',(-1.,0.,0.));
#404=DIRECTION('',(0.,0.,1.));
#405=DIRECTION('',(1.,0.,0.));
#406=DIRECTION('',(0.,0.,-1.));
#407=DIRECTION('',(-1.,0.,0.));
#408=DIRECTION('',(0.,0.,1.));
#409=DIRECTION('',(1.,0.,0.));
#410=DIRECTION('',(0.,0.,-1.));
#411=DIRECTION('',(-1.,0.,0.));
#412=DIRECTION('',(0.,0.,-1.));
#413=DIRECTION('',(-1.,0.,0.));
#414=DIRECTION('',(0.,0.,-1.));
#415=DIRECTION('',(-1.,0.,0.));
#416=DIRECTION('',(0.,0.,-1.));
#417=DIRECTION('',(-1.,0.,0.));
#418=DIRECTION('',(0.,0.,-1.));
#419=DIRECTION('',(-1.,0.,0.));
#420=DIRECTION('',(0.,0.,-1.));
#421=DIRECTION('',(-1.,0.,0.));
#422=DIRECTION('',(0.,0.,-1.));
#423=DIRECTION('',(-1.,0.,0.));
#424=DIRECTION('',(0.,0.,-1.));
#425=DIRECTION('',(-1.,0.,0.));
#426=CARTESIAN_POINT('',(0.,0.,0.));
#427=CARTESIAN_POINT('',(0.,0.,0.));
#428=CARTESIAN_POINT('',(0.,0.,0.));
#429=CARTESIAN_POINT('',(-5.7,0.,0.));
#430=CARTESIAN_POINT('',(0.,0.,0.));
#431=CARTESIAN_POINT('',(-3.5,0.,0.));
#432=CARTESIAN_POINT('',(0.,0.,0.));
#433=CARTESIAN_POINT('',(0.,0.,-0.300000000000002));
#434=CARTESIAN_POINT('',(-6.,0.,-0.300000000000002));
#435=CARTESIAN_POINT('',(0.,0.,-39.));
#436=CARTESIAN_POINT('',(0.,0.,-8.));
#437=CARTESIAN_POINT('',(-6.,0.,-8.));
#438=CARTESIAN_POINT('',(0.,0.,-8.));
#439=CARTESIAN_POINT('',(0.,0.,-8.186523063262));
#440=CARTESIAN_POINT('',(-5.6,0.,-8.186523063262));
#441=CARTESIAN_POINT('',(0.,0.,-39.));
#442=CARTESIAN_POINT('',(0.,0.,-9.986523063262));
#443=CARTESIAN_POINT('',(-5.6,0.,-9.986523063262));
#444=CARTESIAN_POINT('',(0.,5.6,-9.986523063262));
#445=CARTESIAN_POINT('',(0.,0.,-9.986523063262));
#446=CARTESIAN_POINT('',(-6.,0.,-9.986523063262));
#447=CARTESIAN_POINT('',(0.,0.,-39.));
#448=CARTESIAN_POINT('',(0.,0.,-27.5));
#449=CARTESIAN_POINT('',(-6.,0.,-27.5));
#450=CARTESIAN_POINT('',(0.,0.,-27.5));
#451=CARTESIAN_POINT('',(0.,0.,-28.5));
#452=CARTESIAN_POINT('',(-7.,0.,-28.5));
#453=CARTESIAN_POINT('',(0.,0.,-39.));
#454=CARTESIAN_POINT('',(0.,0.,-36.287867965644));
#455=CARTESIAN_POINT('',(-7.,0.,-36.287867965644));
#456=CARTESIAN_POINT('',(0.,0.,-36.287867965644));
#457=CARTESIAN_POINT('',(0.,0.,-36.5));
#458=CARTESIAN_POINT('',(-6.78786796564404,0.,-36.5));
#459=CARTESIAN_POINT('',(0.,6.78786796564404,-36.5));
#460=CARTESIAN_POINT('',(0.,0.,-36.5));
#461=CARTESIAN_POINT('',(-4.9,0.,-36.5));
#462=CARTESIAN_POINT('',(0.,0.,-39.));
#463=CARTESIAN_POINT('',(0.,0.,-36.7));
#464=CARTESIAN_POINT('',(-4.9,0.,-36.7));
#465=CARTESIAN_POINT('',(0.,4.9,-36.7));
#466=CARTESIAN_POINT('',(0.,0.,-36.7));
#467=CARTESIAN_POINT('',(-4.5,0.,-36.7));
#468=CARTESIAN_POINT('',(0.,0.,-39.));
#469=CARTESIAN_POINT('',(0.,0.,-37.3));
#470=CARTESIAN_POINT('',(-4.5,0.,-37.3));
#471=CARTESIAN_POINT('',(0.,0.,-37.3));
#472=CARTESIAN_POINT('',(0.,0.,-37.5));
#473=CARTESIAN_POINT('',(-4.7,0.,-37.5));
#474=CARTESIAN_POINT('',(0.,4.7,-37.5));
#475=CARTESIAN_POINT('',(0.,0.,-37.5));
#476=CARTESIAN_POINT('',(-6.4,0.,-37.5));
#477=CARTESIAN_POINT('',(0.,0.,-39.));
#478=CARTESIAN_POINT('',(0.,0.,-38.8));
#479=CARTESIAN_POINT('',(-6.4,0.,-38.8));
#480=CARTESIAN_POINT('',(0.,0.,-38.8));
#481=CARTESIAN_POINT('',(0.,0.,-39.));
#482=CARTESIAN_POINT('',(-6.2,0.,-39.));
#483=CARTESIAN_POINT('',(0.,6.2,-39.));
#484=CARTESIAN_POINT('',(0.,0.,-39.));
#485=CARTESIAN_POINT('',(-4.21213203435596,0.,-39.));
#486=CARTESIAN_POINT('',(0.,0.,-39.));
#487=CARTESIAN_POINT('',(0.,0.,-22.5));
#488=CARTESIAN_POINT('',(-3.5,0.,-22.5));
#489=CARTESIAN_POINT('',(0.,0.,-22.5));
#490=CARTESIAN_POINT('',(0.,0.,-23.));
#491=CARTESIAN_POINT('',(-4.,0.,-23.));
#492=CARTESIAN_POINT('',(0.,0.,-39.));
#493=CARTESIAN_POINT('',(0.,0.,-38.787867965644));
#494=CARTESIAN_POINT('',(-4.,0.,-38.787867965644));
#495=CARTESIAN_POINT('',(0.,0.,-38.787867965644));
#496=MECHANICAL_DESIGN_GEOMETRIC_PRESENTATION_REPRESENTATION('',(#274),
#497);
#497=(
GEOMETRIC_REPRESENTATION_CONTEXT(3)
GLOBAL_UNCERTAINTY_ASSIGNED_CONTEXT((#498))
GLOBAL_UNIT_ASSIGNED_CONTEXT((#501,#500,#499))
REPRESENTATION_CONTEXT('578311 NPQH-D-S12-Q8-P10',
'TOP_LEVEL_ASSEMBLY_PART')
);
#498=UNCERTAINTY_MEASURE_WITH_UNIT(LENGTH_MEASURE(0.005),#501,
'DISTANCE_ACCURACY_VALUE','Maximum Tolerance applied to model');
#499=(
NAMED_UNIT(*)
SI_UNIT($,.STERADIAN.)
SOLID_ANGLE_UNIT()
);
#500=(
NAMED_UNIT(*)
PLANE_ANGLE_UNIT()
SI_UNIT($,.RADIAN.)
);
#501=(
LENGTH_UNIT()
NAMED_UNIT(*)
SI_UNIT(.MILLI.,.METRE.)
);
#502=PRODUCT_DEFINITION_SHAPE('','',#503);
#503=PRODUCT_DEFINITION('','',#505,#504);
#504=PRODUCT_DEFINITION_CONTEXT('',#511,'design');
#505=PRODUCT_DEFINITION_FORMATION_WITH_SPECIFIED_SOURCE('','',#507,
 .NOT_KNOWN.);
#506=PRODUCT_RELATED_PRODUCT_CATEGORY('','',(#507));
#507=PRODUCT('578311 NPQH-D-S12-Q8-P10','578311 NPQH-D-S12-Q8-P10',
'578311 NPQH-D-S12-Q8-P10',(#509));
#508=PRODUCT_CATEGORY('','');
#509=PRODUCT_CONTEXT('',#511,'mechanical');
#510=APPLICATION_PROTOCOL_DEFINITION('international standard',
'automotive_design',2010,#511);
#511=APPLICATION_CONTEXT(
'core data for automotive mechanical design processes');
ENDSEC;
END-ISO-10303-21;
