ISO-10303-21;
HEADER;
/* Generated by software containing ST-Developer
 * from STEP Tools, Inc. (www.steptools.com) 
 */
/* OPTION: using custom renumber hook */

FILE_DESCRIPTION(
/* description */ ('STEP AP214'),
/* implementation_level */ '2;1');

FILE_NAME(
/* name */ '6216_CV-PK-9-B',
/* time_stamp */ '2024-08-09T16:09:39+02:00',
/* author */ ('License CC BY-ND 4.0'),
/* organization */ ('CADENAS'),
/* preprocessor_version */ 'ST-DEVELOPER v19.3',
/* originating_system */ 'PARTsolutions',
/* authorisation */ '  ');

FILE_SCHEMA (('AUTOMOTIVE_DESIGN {1 0 10303 214 3 1 1}'));
ENDSEC;

DATA;
#10=PROPERTY_DEFINITION_REPRESENTATION(#14,#12);
#11=PROPERTY_DEFINITION_REPRESENTATION(#15,#13);
#12=REPRESENTATION('',(#16),#183);
#13=REPRESENTATION('',(#17),#183);
#14=PROPERTY_DEFINITION('pmi validation property','',#188);
#15=PROPERTY_DEFINITION('pmi validation property','',#188);
#16=VALUE_REPRESENTATION_ITEM('number of annotations',COUNT_MEASURE(0.));
#17=VALUE_REPRESENTATION_ITEM('number of views',COUNT_MEASURE(0.));
#18=SHAPE_REPRESENTATION_RELATIONSHIP('','',#110,#19);
#19=ADVANCED_BREP_SHAPE_REPRESENTATION('',(#108),#183);
#20=TOROIDAL_SURFACE('',#122,5.04375088853803,0.600000000000007);
#21=TOROIDAL_SURFACE('',#124,3.7,0.800000000000001);
#22=SPHERICAL_SURFACE('',#121,4.5);
#23=SPHERICAL_SURFACE('',#126,6.50000000000003);
#24=CONICAL_SURFACE('',#119,4.5,0.00872664625997173);
#25=CYLINDRICAL_SURFACE('',#115,5.8);
#26=ORIENTED_EDGE('',*,*,#40,.F.);
#27=ORIENTED_EDGE('',*,*,#41,.T.);
#28=ORIENTED_EDGE('',*,*,#42,.F.);
#29=ORIENTED_EDGE('',*,*,#40,.T.);
#30=ORIENTED_EDGE('',*,*,#43,.F.);
#31=ORIENTED_EDGE('',*,*,#42,.T.);
#32=ORIENTED_EDGE('',*,*,#44,.F.);
#33=ORIENTED_EDGE('',*,*,#43,.T.);
#34=ORIENTED_EDGE('',*,*,#44,.T.);
#35=ORIENTED_EDGE('',*,*,#45,.T.);
#36=ORIENTED_EDGE('',*,*,#41,.F.);
#37=ORIENTED_EDGE('',*,*,#45,.F.);
#38=ORIENTED_EDGE('',*,*,#46,.T.);
#39=ORIENTED_EDGE('',*,*,#46,.F.);
#40=EDGE_CURVE('',#47,#47,#54,.T.);
#41=EDGE_CURVE('',#48,#48,#55,.T.);
#42=EDGE_CURVE('',#49,#49,#56,.T.);
#43=EDGE_CURVE('',#50,#50,#57,.T.);
#44=EDGE_CURVE('',#51,#51,#58,.T.);
#45=EDGE_CURVE('',#52,#52,#59,.T.);
#46=EDGE_CURVE('',#53,#53,#60,.T.);
#47=VERTEX_POINT('',#162);
#48=VERTEX_POINT('',#164);
#49=VERTEX_POINT('',#167);
#50=VERTEX_POINT('',#170);
#51=VERTEX_POINT('',#173);
#52=VERTEX_POINT('',#177);
#53=VERTEX_POINT('',#180);
#54=CIRCLE('',#113,5.8);
#55=CIRCLE('',#114,5.04375088853803);
#56=CIRCLE('',#116,5.8);
#57=CIRCLE('',#118,4.5);
#58=CIRCLE('',#120,4.38651371935419);
#59=CIRCLE('',#123,4.46785765059316);
#60=CIRCLE('',#125,3.2945205479452);
#61=EDGE_LOOP('',(#26));
#62=EDGE_LOOP('',(#27));
#63=EDGE_LOOP('',(#28));
#64=EDGE_LOOP('',(#29));
#65=EDGE_LOOP('',(#30));
#66=EDGE_LOOP('',(#31));
#67=EDGE_LOOP('',(#32));
#68=EDGE_LOOP('',(#33));
#69=EDGE_LOOP('',(#34));
#70=EDGE_LOOP('',(#35));
#71=EDGE_LOOP('',(#36));
#72=EDGE_LOOP('',(#37));
#73=EDGE_LOOP('',(#38));
#74=EDGE_LOOP('',(#39));
#75=FACE_BOUND('',#61,.T.);
#76=FACE_BOUND('',#62,.T.);
#77=FACE_BOUND('',#63,.T.);
#78=FACE_BOUND('',#64,.T.);
#79=FACE_BOUND('',#65,.T.);
#80=FACE_BOUND('',#66,.T.);
#81=FACE_BOUND('',#67,.T.);
#82=FACE_BOUND('',#68,.T.);
#83=FACE_BOUND('',#69,.T.);
#84=FACE_BOUND('',#70,.T.);
#85=FACE_BOUND('',#71,.T.);
#86=FACE_BOUND('',#72,.T.);
#87=FACE_BOUND('',#73,.T.);
#88=FACE_BOUND('',#74,.T.);
#89=PLANE('',#112);
#90=PLANE('',#117);
#91=ADVANCED_FACE('',(#75,#76),#89,.F.);
#92=ADVANCED_FACE('',(#77,#78),#25,.T.);
#93=ADVANCED_FACE('',(#79,#80),#90,.F.);
#94=ADVANCED_FACE('',(#81,#82),#24,.F.);
#95=ADVANCED_FACE('',(#83),#22,.F.);
#96=ADVANCED_FACE('',(#84,#85),#20,.T.);
#97=ADVANCED_FACE('',(#86,#87),#21,.F.);
#98=ADVANCED_FACE('',(#88),#23,.T.);
#99=CLOSED_SHELL('',(#91,#92,#93,#94,#95,#96,#97,#98));
#100=STYLED_ITEM('',(#101),#108);
#101=PRESENTATION_STYLE_ASSIGNMENT((#102));
#102=SURFACE_STYLE_USAGE(.BOTH.,#103);
#103=SURFACE_SIDE_STYLE('',(#104));
#104=SURFACE_STYLE_FILL_AREA(#105);
#105=FILL_AREA_STYLE('',(#106));
#106=FILL_AREA_STYLE_COLOUR('',#107);
#107=DRAUGHTING_PRE_DEFINED_COLOUR('black');
#108=MANIFOLD_SOLID_BREP('6216 CV-PK-9-B',#99);
#109=SHAPE_DEFINITION_REPRESENTATION(#188,#110);
#110=SHAPE_REPRESENTATION('6216 CV-PK-9-B',(#111),#183);
#111=AXIS2_PLACEMENT_3D('',#159,#127,#128);
#112=AXIS2_PLACEMENT_3D('',#160,#129,#130);
#113=AXIS2_PLACEMENT_3D('',#161,#131,#132);
#114=AXIS2_PLACEMENT_3D('',#163,#133,#134);
#115=AXIS2_PLACEMENT_3D('',#165,#135,#136);
#116=AXIS2_PLACEMENT_3D('',#166,#137,#138);
#117=AXIS2_PLACEMENT_3D('',#168,#139,#140);
#118=AXIS2_PLACEMENT_3D('',#169,#141,#142);
#119=AXIS2_PLACEMENT_3D('',#171,#143,#144);
#120=AXIS2_PLACEMENT_3D('',#172,#145,#146);
#121=AXIS2_PLACEMENT_3D('',#174,#147,#148);
#122=AXIS2_PLACEMENT_3D('',#175,#149,#150);
#123=AXIS2_PLACEMENT_3D('',#176,#151,#152);
#124=AXIS2_PLACEMENT_3D('',#178,#153,#154);
#125=AXIS2_PLACEMENT_3D('',#179,#155,#156);
#126=AXIS2_PLACEMENT_3D('',#181,#157,#158);
#127=DIRECTION('',(0.,0.,1.));
#128=DIRECTION('',(1.,0.,0.));
#129=DIRECTION('',(0.,-1.,0.));
#130=DIRECTION('',(0.,0.,-1.));
#131=DIRECTION('',(0.,-1.,0.));
#132=DIRECTION('',(0.,0.,-1.));
#133=DIRECTION('',(0.,-1.,0.));
#134=DIRECTION('',(0.,0.,-1.));
#135=DIRECTION('',(0.,-1.,0.));
#136=DIRECTION('',(0.,0.,-1.));
#137=DIRECTION('',(0.,-1.,0.));
#138=DIRECTION('',(0.,0.,-1.));
#139=DIRECTION('',(0.,1.,0.));
#140=DIRECTION('',(0.,0.,1.));
#141=DIRECTION('',(0.,-1.,0.));
#142=DIRECTION('',(0.,0.,-1.));
#143=DIRECTION('',(0.,-1.,0.));
#144=DIRECTION('',(0.,0.,-1.));
#145=DIRECTION('',(0.,-1.,0.));
#146=DIRECTION('',(0.,0.,-1.));
#147=DIRECTION('',(0.,-1.,0.));
#148=DIRECTION('',(1.,0.,0.));
#149=DIRECTION('',(0.,-1.,0.));
#150=DIRECTION('',(0.,0.,-1.));
#151=DIRECTION('',(0.,-1.,0.));
#152=DIRECTION('',(0.,0.,-1.));
#153=DIRECTION('',(0.,-1.,0.));
#154=DIRECTION('',(0.,0.,-1.));
#155=DIRECTION('',(0.,-1.,0.));
#156=DIRECTION('',(0.,0.,-1.));
#157=DIRECTION('',(0.,-1.,0.));
#158=DIRECTION('',(1.,0.,0.));
#159=CARTESIAN_POINT('',(0.,0.,0.));
#160=CARTESIAN_POINT('',(0.,18.5,0.));
#161=CARTESIAN_POINT('',(0.,18.5,0.));
#162=CARTESIAN_POINT('',(0.,18.5,-5.8));
#163=CARTESIAN_POINT('',(0.,18.5,0.));
#164=CARTESIAN_POINT('',(0.,18.5,-5.04375088853803));
#165=CARTESIAN_POINT('',(0.,0.,0.));
#166=CARTESIAN_POINT('',(0.,0.,0.));
#167=CARTESIAN_POINT('',(0.,0.,-5.8));
#168=CARTESIAN_POINT('',(5.8,0.,0.));
#169=CARTESIAN_POINT('',(0.,0.,0.));
#170=CARTESIAN_POINT('',(0.,0.,-4.5));
#171=CARTESIAN_POINT('',(0.,0.,0.));
#172=CARTESIAN_POINT('',(0.,13.0042397073993,0.));
#173=CARTESIAN_POINT('',(0.,13.0042397073993,-4.38651371935419));
#174=CARTESIAN_POINT('',(8.67361737988404E-16,12.,0.));
#175=CARTESIAN_POINT('',(0.,17.9,0.));
#176=CARTESIAN_POINT('',(0.,18.0683656095804,0.));
#177=CARTESIAN_POINT('',(0.,18.0683656095804,-4.46785765059316));
#178=CARTESIAN_POINT('',(0.,18.2928530890209,0.));
#179=CARTESIAN_POINT('',(0.,17.6032253532378,0.));
#180=CARTESIAN_POINT('',(0.,17.6032253532378,-3.2945205479452));
#181=CARTESIAN_POINT('',(-4.77048955893622E-15,12.,0.));
#182=MECHANICAL_DESIGN_GEOMETRIC_PRESENTATION_REPRESENTATION('',(#100),
#183);
#183=(
GEOMETRIC_REPRESENTATION_CONTEXT(3)
GLOBAL_UNCERTAINTY_ASSIGNED_CONTEXT((#184))
GLOBAL_UNIT_ASSIGNED_CONTEXT((#187,#186,#185))
REPRESENTATION_CONTEXT('6216 CV-PK-9-B','TOP_LEVEL_ASSEMBLY_PART')
);
#184=UNCERTAINTY_MEASURE_WITH_UNIT(LENGTH_MEASURE(0.005),#187,
'DISTANCE_ACCURACY_VALUE','Maximum Tolerance applied to model');
#185=(
NAMED_UNIT(*)
SI_UNIT($,.STERADIAN.)
SOLID_ANGLE_UNIT()
);
#186=(
NAMED_UNIT(*)
PLANE_ANGLE_UNIT()
SI_UNIT($,.RADIAN.)
);
#187=(
LENGTH_UNIT()
NAMED_UNIT(*)
SI_UNIT(.MILLI.,.METRE.)
);
#188=PRODUCT_DEFINITION_SHAPE('','',#189);
#189=PRODUCT_DEFINITION('','',#191,#190);
#190=PRODUCT_DEFINITION_CONTEXT('',#197,'design');
#191=PRODUCT_DEFINITION_FORMATION_WITH_SPECIFIED_SOURCE('','',#193,
 .NOT_KNOWN.);
#192=PRODUCT_RELATED_PRODUCT_CATEGORY('','',(#193));
#193=PRODUCT('6216 CV-PK-9-B','6216 CV-PK-9-B','6216 CV-PK-9-B',(#195));
#194=PRODUCT_CATEGORY('','');
#195=PRODUCT_CONTEXT('',#197,'mechanical');
#196=APPLICATION_PROTOCOL_DEFINITION('international standard',
'automotive_design',2010,#197);
#197=APPLICATION_CONTEXT(
'core data for automotive mechanical design processes');
ENDSEC;
END-ISO-10303-21;
