ISO-10303-21;
HEADER;
/* Generated by software containing ST-Developer
 * from STEP Tools, Inc. (www.steptools.com) 
 */
/* OPTION: using custom renumber hook */

FILE_DESCRIPTION(
/* description */ ('STEP AP214'),
/* implementation_level */ '2;1');

FILE_NAME(
/* name */ '6682_OS-1_4-B',
/* time_stamp */ '2024-09-13T11:15:16+02:00',
/* author */ ('License CC BY-ND 4.0'),
/* organization */ ('CADENAS'),
/* preprocessor_version */ 'ST-DEVELOPER v19.3',
/* originating_system */ 'PARTsolutions',
/* authorisation */ '  ');

FILE_SCHEMA (('AUTOMOTIVE_DESIGN {1 0 10303 214 3 1 1}'));
ENDSEC;

DATA;
#10=PROPERTY_DEFINITION_REPRESENTATION(#14,#12);
#11=PROPERTY_DEFINITION_REPRESENTATION(#15,#13);
#12=REPRESENTATION('',(#16),#445);
#13=REPRESENTATION('',(#17),#445);
#14=PROPERTY_DEFINITION('pmi validation property','',#450);
#15=PROPERTY_DEFINITION('pmi validation property','',#450);
#16=VALUE_REPRESENTATION_ITEM('number of annotations',COUNT_MEASURE(0.));
#17=VALUE_REPRESENTATION_ITEM('number of views',COUNT_MEASURE(0.));
#18=SHAPE_REPRESENTATION_RELATIONSHIP('','',#271,#19);
#19=ADVANCED_BREP_SHAPE_REPRESENTATION('',(#269),#445);
#20=VERTEX_LOOP('',#150);
#21=VERTEX_LOOP('',#152);
#22=VERTEX_LOOP('',#155);
#23=CONICAL_SURFACE('',#288,6.5785,0.78539816339745);
#24=CONICAL_SURFACE('',#292,5.7225,1.0471975511966);
#25=CONICAL_SURFACE('',#293,0.,1.0471975511966);
#26=CONICAL_SURFACE('',#297,5.72249999999999,0.785398163397451);
#27=CONICAL_SURFACE('',#298,0.,1.0471975511966);
#28=CONICAL_SURFACE('',#302,5.72249999999999,0.785398163397449);
#29=CYLINDRICAL_SURFACE('',#279,3.3);
#30=CYLINDRICAL_SURFACE('',#282,3.3);
#31=CYLINDRICAL_SURFACE('',#290,5.7225);
#32=CYLINDRICAL_SURFACE('',#295,5.72249999999999);
#33=CYLINDRICAL_SURFACE('',#300,5.72249999999999);
#34=LINE('',#381,#46);
#35=LINE('',#384,#47);
#36=LINE('',#386,#48);
#37=LINE('',#388,#49);
#38=LINE('',#390,#50);
#39=LINE('',#392,#51);
#40=LINE('',#394,#52);
#41=LINE('',#400,#53);
#42=LINE('',#402,#54);
#43=LINE('',#404,#55);
#44=LINE('',#416,#56);
#45=LINE('',#417,#57);
#46=VECTOR('',#309,1000.);
#47=VECTOR('',#310,1000.);
#48=VECTOR('',#311,1000.);
#49=VECTOR('',#312,1000.);
#50=VECTOR('',#315,1000.);
#51=VECTOR('',#316,1000.);
#52=VECTOR('',#317,1000.);
#53=VECTOR('',#324,1000.);
#54=VECTOR('',#325,1000.);
#55=VECTOR('',#326,1000.);
#56=VECTOR('',#341,1000.);
#57=VECTOR('',#342,1000.);
#58=ORIENTED_EDGE('',*,*,#108,.T.);
#59=ORIENTED_EDGE('',*,*,#109,.T.);
#60=ORIENTED_EDGE('',*,*,#110,.F.);
#61=ORIENTED_EDGE('',*,*,#111,.F.);
#62=ORIENTED_EDGE('',*,*,#112,.T.);
#63=ORIENTED_EDGE('',*,*,#113,.T.);
#64=ORIENTED_EDGE('',*,*,#114,.F.);
#65=ORIENTED_EDGE('',*,*,#115,.F.);
#66=ORIENTED_EDGE('',*,*,#110,.T.);
#67=ORIENTED_EDGE('',*,*,#116,.F.);
#68=ORIENTED_EDGE('',*,*,#117,.F.);
#69=ORIENTED_EDGE('',*,*,#118,.T.);
#70=ORIENTED_EDGE('',*,*,#119,.F.);
#71=ORIENTED_EDGE('',*,*,#120,.F.);
#72=ORIENTED_EDGE('',*,*,#114,.T.);
#73=ORIENTED_EDGE('',*,*,#121,.T.);
#74=ORIENTED_EDGE('',*,*,#122,.F.);
#75=ORIENTED_EDGE('',*,*,#123,.T.);
#76=ORIENTED_EDGE('',*,*,#124,.F.);
#77=ORIENTED_EDGE('',*,*,#125,.T.);
#78=ORIENTED_EDGE('',*,*,#112,.F.);
#79=ORIENTED_EDGE('',*,*,#126,.F.);
#80=ORIENTED_EDGE('',*,*,#119,.T.);
#81=ORIENTED_EDGE('',*,*,#123,.F.);
#82=ORIENTED_EDGE('',*,*,#121,.F.);
#83=ORIENTED_EDGE('',*,*,#111,.T.);
#84=ORIENTED_EDGE('',*,*,#115,.T.);
#85=ORIENTED_EDGE('',*,*,#120,.T.);
#86=ORIENTED_EDGE('',*,*,#126,.T.);
#87=ORIENTED_EDGE('',*,*,#124,.T.);
#88=ORIENTED_EDGE('',*,*,#122,.T.);
#89=ORIENTED_EDGE('',*,*,#109,.F.);
#90=ORIENTED_EDGE('',*,*,#125,.F.);
#91=ORIENTED_EDGE('',*,*,#118,.F.);
#92=ORIENTED_EDGE('',*,*,#113,.F.);
#93=ORIENTED_EDGE('',*,*,#127,.T.);
#94=ORIENTED_EDGE('',*,*,#108,.F.);
#95=ORIENTED_EDGE('',*,*,#128,.T.);
#96=ORIENTED_EDGE('',*,*,#127,.F.);
#97=ORIENTED_EDGE('',*,*,#128,.F.);
#98=ORIENTED_EDGE('',*,*,#129,.T.);
#99=ORIENTED_EDGE('',*,*,#130,.T.);
#100=ORIENTED_EDGE('',*,*,#129,.F.);
#101=ORIENTED_EDGE('',*,*,#117,.T.);
#102=ORIENTED_EDGE('',*,*,#130,.F.);
#103=ORIENTED_EDGE('',*,*,#131,.T.);
#104=ORIENTED_EDGE('',*,*,#132,.T.);
#105=ORIENTED_EDGE('',*,*,#131,.F.);
#106=ORIENTED_EDGE('',*,*,#116,.T.);
#107=ORIENTED_EDGE('',*,*,#132,.F.);
#108=EDGE_CURVE('',#133,#133,#157,.T.);
#109=EDGE_CURVE('',#134,#135,#34,.T.);
#110=EDGE_CURVE('',#136,#135,#35,.T.);
#111=EDGE_CURVE('',#137,#136,#36,.T.);
#112=EDGE_CURVE('',#137,#134,#37,.T.);
#113=EDGE_CURVE('',#135,#138,#38,.T.);
#114=EDGE_CURVE('',#139,#138,#39,.T.);
#115=EDGE_CURVE('',#136,#139,#40,.T.);
#116=EDGE_CURVE('',#140,#140,#158,.T.);
#117=EDGE_CURVE('',#141,#141,#159,.T.);
#118=EDGE_CURVE('',#138,#142,#41,.T.);
#119=EDGE_CURVE('',#143,#142,#42,.T.);
#120=EDGE_CURVE('',#139,#143,#43,.T.);
#121=EDGE_CURVE('',#144,#144,#160,.T.);
#122=EDGE_CURVE('',#145,#145,#161,.T.);
#123=EDGE_CURVE('',#146,#146,#162,.T.);
#124=EDGE_CURVE('',#147,#147,#163,.T.);
#125=EDGE_CURVE('',#142,#134,#44,.T.);
#126=EDGE_CURVE('',#143,#137,#45,.T.);
#127=EDGE_CURVE('',#148,#148,#164,.T.);
#128=EDGE_CURVE('',#149,#149,#165,.T.);
#129=EDGE_CURVE('',#151,#151,#166,.T.);
#130=EDGE_CURVE('',#153,#153,#167,.T.);
#131=EDGE_CURVE('',#154,#154,#168,.T.);
#132=EDGE_CURVE('',#156,#156,#169,.T.);
#133=VERTEX_POINT('',#380);
#134=VERTEX_POINT('',#382);
#135=VERTEX_POINT('',#383);
#136=VERTEX_POINT('',#385);
#137=VERTEX_POINT('',#387);
#138=VERTEX_POINT('',#391);
#139=VERTEX_POINT('',#393);
#140=VERTEX_POINT('',#397);
#141=VERTEX_POINT('',#399);
#142=VERTEX_POINT('',#401);
#143=VERTEX_POINT('',#403);
#144=VERTEX_POINT('',#407);
#145=VERTEX_POINT('',#409);
#146=VERTEX_POINT('',#412);
#147=VERTEX_POINT('',#414);
#148=VERTEX_POINT('',#422);
#149=VERTEX_POINT('',#425);
#150=VERTEX_POINT('',#427);
#151=VERTEX_POINT('',#430);
#152=VERTEX_POINT('',#431);
#153=VERTEX_POINT('',#434);
#154=VERTEX_POINT('',#438);
#155=VERTEX_POINT('',#439);
#156=VERTEX_POINT('',#442);
#157=CIRCLE('',#274,6.5785);
#158=CIRCLE('',#277,6.5785);
#159=CIRCLE('',#278,6.5785);
#160=CIRCLE('',#280,3.3);
#161=CIRCLE('',#281,3.3);
#162=CIRCLE('',#283,3.3);
#163=CIRCLE('',#284,3.3);
#164=CIRCLE('',#289,5.7225);
#165=CIRCLE('',#291,5.7225);
#166=CIRCLE('',#294,5.72249999999999);
#167=CIRCLE('',#296,5.72249999999999);
#168=CIRCLE('',#299,5.72249999999999);
#169=CIRCLE('',#301,5.72249999999999);
#170=EDGE_LOOP('',(#58));
#171=EDGE_LOOP('',(#59,#60,#61,#62));
#172=EDGE_LOOP('',(#63,#64,#65,#66));
#173=EDGE_LOOP('',(#67));
#174=EDGE_LOOP('',(#68));
#175=EDGE_LOOP('',(#69,#70,#71,#72));
#176=EDGE_LOOP('',(#73));
#177=EDGE_LOOP('',(#74));
#178=EDGE_LOOP('',(#75));
#179=EDGE_LOOP('',(#76));
#180=EDGE_LOOP('',(#77,#78,#79,#80));
#181=EDGE_LOOP('',(#81));
#182=EDGE_LOOP('',(#82));
#183=EDGE_LOOP('',(#83,#84,#85,#86));
#184=EDGE_LOOP('',(#87));
#185=EDGE_LOOP('',(#88));
#186=EDGE_LOOP('',(#89,#90,#91,#92));
#187=EDGE_LOOP('',(#93));
#188=EDGE_LOOP('',(#94));
#189=EDGE_LOOP('',(#95));
#190=EDGE_LOOP('',(#96));
#191=EDGE_LOOP('',(#97));
#192=EDGE_LOOP('',(#98));
#193=EDGE_LOOP('',(#99));
#194=EDGE_LOOP('',(#100));
#195=EDGE_LOOP('',(#101));
#196=EDGE_LOOP('',(#102));
#197=EDGE_LOOP('',(#103));
#198=EDGE_LOOP('',(#104));
#199=EDGE_LOOP('',(#105));
#200=EDGE_LOOP('',(#106));
#201=EDGE_LOOP('',(#107));
#202=FACE_BOUND('',#170,.T.);
#203=FACE_BOUND('',#171,.T.);
#204=FACE_BOUND('',#172,.T.);
#205=FACE_BOUND('',#173,.T.);
#206=FACE_BOUND('',#174,.T.);
#207=FACE_BOUND('',#175,.T.);
#208=FACE_BOUND('',#176,.T.);
#209=FACE_BOUND('',#177,.T.);
#210=FACE_BOUND('',#178,.T.);
#211=FACE_BOUND('',#179,.T.);
#212=FACE_BOUND('',#180,.T.);
#213=FACE_BOUND('',#181,.T.);
#214=FACE_BOUND('',#182,.T.);
#215=FACE_BOUND('',#183,.T.);
#216=FACE_BOUND('',#184,.T.);
#217=FACE_BOUND('',#185,.T.);
#218=FACE_BOUND('',#186,.T.);
#219=FACE_BOUND('',#187,.T.);
#220=FACE_BOUND('',#188,.T.);
#221=FACE_BOUND('',#189,.T.);
#222=FACE_BOUND('',#190,.T.);
#223=FACE_BOUND('',#20,.T.);
#224=FACE_BOUND('',#191,.T.);
#225=FACE_BOUND('',#192,.T.);
#226=FACE_BOUND('',#21,.T.);
#227=FACE_BOUND('',#193,.T.);
#228=FACE_BOUND('',#194,.T.);
#229=FACE_BOUND('',#195,.T.);
#230=FACE_BOUND('',#196,.T.);
#231=FACE_BOUND('',#197,.T.);
#232=FACE_BOUND('',#22,.T.);
#233=FACE_BOUND('',#198,.T.);
#234=FACE_BOUND('',#199,.T.);
#235=FACE_BOUND('',#200,.T.);
#236=FACE_BOUND('',#201,.T.);
#237=PLANE('',#273);
#238=PLANE('',#275);
#239=PLANE('',#276);
#240=PLANE('',#285);
#241=PLANE('',#286);
#242=PLANE('',#287);
#243=ADVANCED_FACE('',(#202,#203),#237,.F.);
#244=ADVANCED_FACE('',(#204),#238,.F.);
#245=ADVANCED_FACE('',(#205,#206,#207),#239,.F.);
#246=ADVANCED_FACE('',(#208,#209),#29,.F.);
#247=ADVANCED_FACE('',(#210,#211),#30,.F.);
#248=ADVANCED_FACE('',(#212),#240,.F.);
#249=ADVANCED_FACE('',(#213,#214,#215),#241,.T.);
#250=ADVANCED_FACE('',(#216,#217,#218),#242,.F.);
#251=ADVANCED_FACE('',(#219,#220),#23,.F.);
#252=ADVANCED_FACE('',(#221,#222),#31,.F.);
#253=ADVANCED_FACE('',(#223,#224),#24,.F.);
#254=ADVANCED_FACE('',(#225,#226),#25,.F.);
#255=ADVANCED_FACE('',(#227,#228),#32,.F.);
#256=ADVANCED_FACE('',(#229,#230),#26,.F.);
#257=ADVANCED_FACE('',(#231,#232),#27,.F.);
#258=ADVANCED_FACE('',(#233,#234),#33,.F.);
#259=ADVANCED_FACE('',(#235,#236),#28,.F.);
#260=CLOSED_SHELL('',(#243,#244,#245,#246,#247,#248,#249,#250,#251,#252,
#253,#254,#255,#256,#257,#258,#259));
#261=STYLED_ITEM('',(#262),#269);
#262=PRESENTATION_STYLE_ASSIGNMENT((#263));
#263=SURFACE_STYLE_USAGE(.BOTH.,#264);
#264=SURFACE_SIDE_STYLE('',(#265));
#265=SURFACE_STYLE_FILL_AREA(#266);
#266=FILL_AREA_STYLE('',(#267));
#267=FILL_AREA_STYLE_COLOUR('',#268);
#268=COLOUR_RGB('',0.75,0.75,0.75);
#269=MANIFOLD_SOLID_BREP('6682 OS-1/4-B',#260);
#270=SHAPE_DEFINITION_REPRESENTATION(#450,#271);
#271=SHAPE_REPRESENTATION('6682 OS-1/4-B',(#272),#445);
#272=AXIS2_PLACEMENT_3D('',#377,#303,#304);
#273=AXIS2_PLACEMENT_3D('',#378,#305,#306);
#274=AXIS2_PLACEMENT_3D('',#379,#307,#308);
#275=AXIS2_PLACEMENT_3D('',#389,#313,#314);
#276=AXIS2_PLACEMENT_3D('',#395,#318,#319);
#277=AXIS2_PLACEMENT_3D('',#396,#320,#321);
#278=AXIS2_PLACEMENT_3D('',#398,#322,#323);
#279=AXIS2_PLACEMENT_3D('',#405,#327,#328);
#280=AXIS2_PLACEMENT_3D('',#406,#329,#330);
#281=AXIS2_PLACEMENT_3D('',#408,#331,#332);
#282=AXIS2_PLACEMENT_3D('',#410,#333,#334);
#283=AXIS2_PLACEMENT_3D('',#411,#335,#336);
#284=AXIS2_PLACEMENT_3D('',#413,#337,#338);
#285=AXIS2_PLACEMENT_3D('',#415,#339,#340);
#286=AXIS2_PLACEMENT_3D('',#418,#343,#344);
#287=AXIS2_PLACEMENT_3D('',#419,#345,#346);
#288=AXIS2_PLACEMENT_3D('',#420,#347,#348);
#289=AXIS2_PLACEMENT_3D('',#421,#349,#350);
#290=AXIS2_PLACEMENT_3D('',#423,#351,#352);
#291=AXIS2_PLACEMENT_3D('',#424,#353,#354);
#292=AXIS2_PLACEMENT_3D('',#426,#355,#356);
#293=AXIS2_PLACEMENT_3D('',#428,#357,#358);
#294=AXIS2_PLACEMENT_3D('',#429,#359,#360);
#295=AXIS2_PLACEMENT_3D('',#432,#361,#362);
#296=AXIS2_PLACEMENT_3D('',#433,#363,#364);
#297=AXIS2_PLACEMENT_3D('',#435,#365,#366);
#298=AXIS2_PLACEMENT_3D('',#436,#367,#368);
#299=AXIS2_PLACEMENT_3D('',#437,#369,#370);
#300=AXIS2_PLACEMENT_3D('',#440,#371,#372);
#301=AXIS2_PLACEMENT_3D('',#441,#373,#374);
#302=AXIS2_PLACEMENT_3D('',#443,#375,#376);
#303=DIRECTION('',(0.,0.,1.));
#304=DIRECTION('',(1.,0.,0.));
#305=DIRECTION('',(0.,-1.,0.));
#306=DIRECTION('',(0.,0.,-1.));
#307=DIRECTION('',(0.,-1.,0.));
#308=DIRECTION('',(0.,0.,-1.));
#309=DIRECTION('',(-1.,0.,0.));
#310=DIRECTION('',(0.,0.,-1.));
#311=DIRECTION('',(-1.,0.,0.));
#312=DIRECTION('',(0.,0.,-1.));
#313=DIRECTION('',(1.,0.,0.));
#314=DIRECTION('',(0.,0.,-1.));
#315=DIRECTION('',(0.,-1.,0.));
#316=DIRECTION('',(0.,0.,-1.));
#317=DIRECTION('',(0.,-1.,0.));
#318=DIRECTION('',(0.,1.,0.));
#319=DIRECTION('',(0.,0.,1.));
#320=DIRECTION('',(0.,-1.,0.));
#321=DIRECTION('',(0.,0.,-1.));
#322=DIRECTION('',(0.,-1.,0.));
#323=DIRECTION('',(0.,0.,-1.));
#324=DIRECTION('',(1.,0.,0.));
#325=DIRECTION('',(0.,0.,-1.));
#326=DIRECTION('',(1.,0.,0.));
#327=DIRECTION('',(0.,0.,-1.));
#328=DIRECTION('',(-1.,0.,0.));
#329=DIRECTION('',(0.,0.,1.));
#330=DIRECTION('',(1.,0.,0.));
#331=DIRECTION('',(0.,0.,1.));
#332=DIRECTION('',(1.,0.,0.));
#333=DIRECTION('',(0.,0.,-1.));
#334=DIRECTION('',(-1.,0.,0.));
#335=DIRECTION('',(0.,0.,1.));
#336=DIRECTION('',(1.,0.,0.));
#337=DIRECTION('',(0.,0.,1.));
#338=DIRECTION('',(1.,0.,0.));
#339=DIRECTION('',(-1.,0.,0.));
#340=DIRECTION('',(0.,0.,1.));
#341=DIRECTION('',(0.,1.,0.));
#342=DIRECTION('',(0.,1.,0.));
#343=DIRECTION('',(0.,0.,1.));
#344=DIRECTION('',(1.,0.,0.));
#345=DIRECTION('',(0.,0.,1.));
#346=DIRECTION('',(1.,0.,0.));
#347=DIRECTION('',(0.,1.,0.));
#348=DIRECTION('',(0.,0.,1.));
#349=DIRECTION('',(0.,-1.,0.));
#350=DIRECTION('',(0.,0.,-1.));
#351=DIRECTION('',(0.,-1.,0.));
#352=DIRECTION('',(0.,0.,-1.));
#353=DIRECTION('',(0.,-1.,0.));
#354=DIRECTION('',(0.,0.,-1.));
#355=DIRECTION('',(0.,1.,0.));
#356=DIRECTION('',(0.,0.,1.));
#357=DIRECTION('',(0.,-1.,0.));
#358=DIRECTION('',(0.,0.,-1.));
#359=DIRECTION('',(0.,-1.,0.));
#360=DIRECTION('',(0.,0.,-1.));
#361=DIRECTION('',(0.,-1.,0.));
#362=DIRECTION('',(0.,0.,-1.));
#363=DIRECTION('',(0.,-1.,0.));
#364=DIRECTION('',(0.,0.,-1.));
#365=DIRECTION('',(0.,-1.,0.));
#366=DIRECTION('',(0.,0.,-1.));
#367=DIRECTION('',(0.,-1.,0.));
#368=DIRECTION('',(0.,0.,-1.));
#369=DIRECTION('',(0.,-1.,0.));
#370=DIRECTION('',(0.,0.,-1.));
#371=DIRECTION('',(0.,-1.,0.));
#372=DIRECTION('',(0.,0.,-1.));
#373=DIRECTION('',(0.,-1.,0.));
#374=DIRECTION('',(0.,0.,-1.));
#375=DIRECTION('',(0.,-1.,0.));
#376=DIRECTION('',(0.,0.,-1.));
#377=CARTESIAN_POINT('',(0.,0.,0.));
#378=CARTESIAN_POINT('',(27.5,45.,10.));
#379=CARTESIAN_POINT('',(0.,45.,0.));
#380=CARTESIAN_POINT('',(0.,45.,-6.5785));
#381=CARTESIAN_POINT('',(27.5,45.,-10.));
#382=CARTESIAN_POINT('',(27.5,45.,-10.));
#383=CARTESIAN_POINT('',(-27.5,45.,-10.));
#384=CARTESIAN_POINT('',(-27.5,45.,10.));
#385=CARTESIAN_POINT('',(-27.5,45.,10.));
#386=CARTESIAN_POINT('',(27.5,45.,10.));
#387=CARTESIAN_POINT('',(27.5,45.,10.));
#388=CARTESIAN_POINT('',(27.5,45.,10.));
#389=CARTESIAN_POINT('',(-27.5,45.,10.));
#390=CARTESIAN_POINT('',(-27.5,45.,-10.));
#391=CARTESIAN_POINT('',(-27.5,6.93889390390723E-15,-10.));
#392=CARTESIAN_POINT('',(-27.5,6.93889390390723E-15,10.));
#393=CARTESIAN_POINT('',(-27.5,6.93889390390723E-15,10.));
#394=CARTESIAN_POINT('',(-27.5,45.,10.));
#395=CARTESIAN_POINT('',(-27.5,0.,10.));
#396=CARTESIAN_POINT('',(-17.5,0.,0.));
#397=CARTESIAN_POINT('',(-17.5,0.,-6.5785));
#398=CARTESIAN_POINT('',(17.5,0.,0.));
#399=CARTESIAN_POINT('',(17.5,0.,-6.5785));
#400=CARTESIAN_POINT('',(-27.5,0.,-10.));
#401=CARTESIAN_POINT('',(27.5,0.,-10.));
#402=CARTESIAN_POINT('',(27.5,0.,10.));
#403=CARTESIAN_POINT('',(27.5,0.,10.));
#404=CARTESIAN_POINT('',(-27.5,0.,10.));
#405=CARTESIAN_POINT('',(17.5,37.,10.));
#406=CARTESIAN_POINT('',(17.5,37.,10.));
#407=CARTESIAN_POINT('',(20.8,37.,10.));
#408=CARTESIAN_POINT('',(17.5,37.,-10.));
#409=CARTESIAN_POINT('',(20.8,37.,-10.));
#410=CARTESIAN_POINT('',(-17.5,37.,10.));
#411=CARTESIAN_POINT('',(-17.5,37.,10.));
#412=CARTESIAN_POINT('',(-14.2,37.,10.));
#413=CARTESIAN_POINT('',(-17.5,37.,-10.));
#414=CARTESIAN_POINT('',(-14.2,37.,-10.));
#415=CARTESIAN_POINT('',(27.5,0.,10.));
#416=CARTESIAN_POINT('',(27.5,0.,-10.));
#417=CARTESIAN_POINT('',(27.5,0.,10.));
#418=CARTESIAN_POINT('',(0.,0.,10.));
#419=CARTESIAN_POINT('',(0.,0.,-10.));
#420=CARTESIAN_POINT('',(0.,45.,0.));
#421=CARTESIAN_POINT('',(0.,44.144,0.));
#422=CARTESIAN_POINT('',(0.,44.144,-5.7225));
#423=CARTESIAN_POINT('',(0.,25.6961130845624,0.));
#424=CARTESIAN_POINT('',(0.,29.,0.));
#425=CARTESIAN_POINT('',(0.,29.,-5.7225));
#426=CARTESIAN_POINT('',(0.,29.,0.));
#427=CARTESIAN_POINT('',(8.67361737988404E-16,25.6961130845624,0.));
#428=CARTESIAN_POINT('',(17.5,19.3038869154376,0.));
#429=CARTESIAN_POINT('',(17.5,16.,0.));
#430=CARTESIAN_POINT('',(17.5,16.,-5.72249999999999));
#431=CARTESIAN_POINT('',(17.5,19.3038869154376,0.));
#432=CARTESIAN_POINT('',(17.5,0.,0.));
#433=CARTESIAN_POINT('',(17.5,0.856000000000001,0.));
#434=CARTESIAN_POINT('',(17.5,0.856000000000001,-5.72249999999999));
#435=CARTESIAN_POINT('',(17.5,0.856000000000001,0.));
#436=CARTESIAN_POINT('',(-17.5,19.3038869154376,0.));
#437=CARTESIAN_POINT('',(-17.5,16.,0.));
#438=CARTESIAN_POINT('',(-17.5,16.,-5.72249999999999));
#439=CARTESIAN_POINT('',(-17.5,19.3038869154376,0.));
#440=CARTESIAN_POINT('',(-17.5,0.,0.));
#441=CARTESIAN_POINT('',(-17.5,0.856000000000001,0.));
#442=CARTESIAN_POINT('',(-17.5,0.856000000000001,-5.72249999999999));
#443=CARTESIAN_POINT('',(-17.5,0.856000000000001,0.));
#444=MECHANICAL_DESIGN_GEOMETRIC_PRESENTATION_REPRESENTATION('',(#261),
#445);
#445=(
GEOMETRIC_REPRESENTATION_CONTEXT(3)
GLOBAL_UNCERTAINTY_ASSIGNED_CONTEXT((#446))
GLOBAL_UNIT_ASSIGNED_CONTEXT((#449,#448,#447))
REPRESENTATION_CONTEXT('6682 OS-1/4-B','TOP_LEVEL_ASSEMBLY_PART')
);
#446=UNCERTAINTY_MEASURE_WITH_UNIT(LENGTH_MEASURE(0.005),#449,
'DISTANCE_ACCURACY_VALUE','Maximum Tolerance applied to model');
#447=(
NAMED_UNIT(*)
SI_UNIT($,.STERADIAN.)
SOLID_ANGLE_UNIT()
);
#448=(
NAMED_UNIT(*)
PLANE_ANGLE_UNIT()
SI_UNIT($,.RADIAN.)
);
#449=(
LENGTH_UNIT()
NAMED_UNIT(*)
SI_UNIT(.MILLI.,.METRE.)
);
#450=PRODUCT_DEFINITION_SHAPE('','',#451);
#451=PRODUCT_DEFINITION('','',#453,#452);
#452=PRODUCT_DEFINITION_CONTEXT('',#459,'design');
#453=PRODUCT_DEFINITION_FORMATION_WITH_SPECIFIED_SOURCE('','',#455,
 .NOT_KNOWN.);
#454=PRODUCT_RELATED_PRODUCT_CATEGORY('','',(#455));
#455=PRODUCT('6682 OS-1/4-B','6682 OS-1/4-B','6682 OS-1/4-B',(#457));
#456=PRODUCT_CATEGORY('','');
#457=PRODUCT_CONTEXT('',#459,'mechanical');
#458=APPLICATION_PROTOCOL_DEFINITION('international standard',
'automotive_design',2010,#459);
#459=APPLICATION_CONTEXT(
'core data for automotive mechanical design processes');
ENDSEC;
END-ISO-10303-21;
