ISO-10303-21;
HEADER;
/* Generated by software containing ST-Developer
 * from STEP Tools, Inc. (www.steptools.com) 
 */
/* OPTION: using custom renumber hook */

FILE_DESCRIPTION(
/* description */ ('STEP AP214'),
/* implementation_level */ '2;1');

FILE_NAME(
/* name */ '7169_MA-63-025',
/* time_stamp */ '2024-09-05T03:46:00+02:00',
/* author */ ('License CC BY-ND 4.0'),
/* organization */ ('CADENAS'),
/* preprocessor_version */ 'ST-DEVELOPER v19.3',
/* originating_system */ 'PARTsolutions',
/* authorisation */ '  ');

FILE_SCHEMA (('AUTOMOTIVE_DESIGN {1 0 10303 214 3 1 1}'));
ENDSEC;

DATA;
#10=PROPERTY_DEFINITION_REPRESENTATION(#14,#12);
#11=PROPERTY_DEFINITION_REPRESENTATION(#15,#13);
#12=REPRESENTATION('',(#16),#465);
#13=REPRESENTATION('',(#17),#465);
#14=PROPERTY_DEFINITION('pmi validation property','',#470);
#15=PROPERTY_DEFINITION('pmi validation property','',#470);
#16=VALUE_REPRESENTATION_ITEM('number of annotations',COUNT_MEASURE(0.));
#17=VALUE_REPRESENTATION_ITEM('number of views',COUNT_MEASURE(0.));
#18=SHAPE_REPRESENTATION_RELATIONSHIP('','',#277,#19);
#19=ADVANCED_BREP_SHAPE_REPRESENTATION('',(#275),#465);
#20=CONICAL_SURFACE('',#302,6.5785,0.785398163397449);
#21=LINE('',#415,#33);
#22=LINE('',#418,#34);
#23=LINE('',#420,#35);
#24=LINE('',#422,#36);
#25=LINE('',#424,#37);
#26=LINE('',#427,#38);
#27=LINE('',#428,#39);
#28=LINE('',#430,#40);
#29=LINE('',#432,#41);
#30=LINE('',#434,#42);
#31=LINE('',#436,#43);
#32=LINE('',#438,#44);
#33=VECTOR('',#341,1000.);
#34=VECTOR('',#342,1000.);
#35=VECTOR('',#343,1000.);
#36=VECTOR('',#344,1000.);
#37=VECTOR('',#347,1000.);
#38=VECTOR('',#348,1000.);
#39=VECTOR('',#349,1000.);
#40=VECTOR('',#352,1000.);
#41=VECTOR('',#353,1000.);
#42=VECTOR('',#356,1000.);
#43=VECTOR('',#357,1000.);
#44=VECTOR('',#360,1000.);
#45=CYLINDRICAL_SURFACE('',#283,31.5);
#46=CYLINDRICAL_SURFACE('',#287,31.);
#47=CYLINDRICAL_SURFACE('',#300,6.5785);
#48=CYLINDRICAL_SURFACE('',#306,4.75);
#49=CYLINDRICAL_SURFACE('',#310,2.5);
#50=TOROIDAL_SURFACE('',#281,29.5,2.00000000000001);
#51=TOROIDAL_SURFACE('',#289,29.,1.99999999999999);
#52=TOROIDAL_SURFACE('',#298,7.03675756949559,1.1);
#53=ORIENTED_EDGE('',*,*,#105,.F.);
#54=ORIENTED_EDGE('',*,*,#105,.T.);
#55=ORIENTED_EDGE('',*,*,#106,.F.);
#56=ORIENTED_EDGE('',*,*,#107,.F.);
#57=ORIENTED_EDGE('',*,*,#106,.T.);
#58=ORIENTED_EDGE('',*,*,#108,.F.);
#59=ORIENTED_EDGE('',*,*,#107,.T.);
#60=ORIENTED_EDGE('',*,*,#109,.F.);
#61=ORIENTED_EDGE('',*,*,#108,.T.);
#62=ORIENTED_EDGE('',*,*,#109,.T.);
#63=ORIENTED_EDGE('',*,*,#110,.F.);
#64=ORIENTED_EDGE('',*,*,#111,.T.);
#65=ORIENTED_EDGE('',*,*,#112,.F.);
#66=ORIENTED_EDGE('',*,*,#113,.F.);
#67=ORIENTED_EDGE('',*,*,#114,.F.);
#68=ORIENTED_EDGE('',*,*,#110,.T.);
#69=ORIENTED_EDGE('',*,*,#115,.F.);
#70=ORIENTED_EDGE('',*,*,#116,.F.);
#71=ORIENTED_EDGE('',*,*,#114,.T.);
#72=ORIENTED_EDGE('',*,*,#117,.T.);
#73=ORIENTED_EDGE('',*,*,#118,.F.);
#74=ORIENTED_EDGE('',*,*,#117,.F.);
#75=ORIENTED_EDGE('',*,*,#113,.T.);
#76=ORIENTED_EDGE('',*,*,#119,.T.);
#77=ORIENTED_EDGE('',*,*,#120,.F.);
#78=ORIENTED_EDGE('',*,*,#119,.F.);
#79=ORIENTED_EDGE('',*,*,#112,.T.);
#80=ORIENTED_EDGE('',*,*,#121,.T.);
#81=ORIENTED_EDGE('',*,*,#122,.F.);
#82=ORIENTED_EDGE('',*,*,#121,.F.);
#83=ORIENTED_EDGE('',*,*,#111,.F.);
#84=ORIENTED_EDGE('',*,*,#116,.T.);
#85=ORIENTED_EDGE('',*,*,#123,.F.);
#86=ORIENTED_EDGE('',*,*,#115,.T.);
#87=ORIENTED_EDGE('',*,*,#118,.T.);
#88=ORIENTED_EDGE('',*,*,#120,.T.);
#89=ORIENTED_EDGE('',*,*,#122,.T.);
#90=ORIENTED_EDGE('',*,*,#124,.F.);
#91=ORIENTED_EDGE('',*,*,#123,.T.);
#92=ORIENTED_EDGE('',*,*,#125,.F.);
#93=ORIENTED_EDGE('',*,*,#124,.T.);
#94=ORIENTED_EDGE('',*,*,#126,.F.);
#95=ORIENTED_EDGE('',*,*,#125,.T.);
#96=ORIENTED_EDGE('',*,*,#127,.F.);
#97=ORIENTED_EDGE('',*,*,#126,.T.);
#98=ORIENTED_EDGE('',*,*,#128,.F.);
#99=ORIENTED_EDGE('',*,*,#127,.T.);
#100=ORIENTED_EDGE('',*,*,#129,.F.);
#101=ORIENTED_EDGE('',*,*,#128,.T.);
#102=ORIENTED_EDGE('',*,*,#130,.F.);
#103=ORIENTED_EDGE('',*,*,#129,.T.);
#104=ORIENTED_EDGE('',*,*,#130,.T.);
#105=EDGE_CURVE('',#131,#131,#153,.T.);
#106=EDGE_CURVE('',#132,#132,#154,.T.);
#107=EDGE_CURVE('',#133,#133,#155,.T.);
#108=EDGE_CURVE('',#134,#134,#156,.T.);
#109=EDGE_CURVE('',#135,#135,#157,.T.);
#110=EDGE_CURVE('',#136,#136,#158,.T.);
#111=EDGE_CURVE('',#137,#138,#21,.T.);
#112=EDGE_CURVE('',#139,#138,#22,.T.);
#113=EDGE_CURVE('',#140,#139,#23,.T.);
#114=EDGE_CURVE('',#137,#140,#24,.T.);
#115=EDGE_CURVE('',#141,#142,#25,.T.);
#116=EDGE_CURVE('',#137,#141,#26,.T.);
#117=EDGE_CURVE('',#140,#142,#27,.T.);
#118=EDGE_CURVE('',#142,#143,#28,.T.);
#119=EDGE_CURVE('',#139,#143,#29,.T.);
#120=EDGE_CURVE('',#143,#144,#30,.T.);
#121=EDGE_CURVE('',#138,#144,#31,.T.);
#122=EDGE_CURVE('',#144,#141,#32,.T.);
#123=EDGE_CURVE('',#145,#145,#159,.T.);
#124=EDGE_CURVE('',#146,#146,#160,.T.);
#125=EDGE_CURVE('',#147,#147,#161,.T.);
#126=EDGE_CURVE('',#148,#148,#162,.T.);
#127=EDGE_CURVE('',#149,#149,#163,.T.);
#128=EDGE_CURVE('',#150,#150,#164,.T.);
#129=EDGE_CURVE('',#151,#151,#165,.T.);
#130=EDGE_CURVE('',#152,#152,#166,.T.);
#131=VERTEX_POINT('',#398);
#132=VERTEX_POINT('',#401);
#133=VERTEX_POINT('',#404);
#134=VERTEX_POINT('',#407);
#135=VERTEX_POINT('',#410);
#136=VERTEX_POINT('',#413);
#137=VERTEX_POINT('',#416);
#138=VERTEX_POINT('',#417);
#139=VERTEX_POINT('',#419);
#140=VERTEX_POINT('',#421);
#141=VERTEX_POINT('',#425);
#142=VERTEX_POINT('',#426);
#143=VERTEX_POINT('',#431);
#144=VERTEX_POINT('',#435);
#145=VERTEX_POINT('',#441);
#146=VERTEX_POINT('',#444);
#147=VERTEX_POINT('',#447);
#148=VERTEX_POINT('',#450);
#149=VERTEX_POINT('',#453);
#150=VERTEX_POINT('',#456);
#151=VERTEX_POINT('',#459);
#152=VERTEX_POINT('',#462);
#153=CIRCLE('',#280,29.5);
#154=CIRCLE('',#282,31.5);
#155=CIRCLE('',#284,31.5);
#156=CIRCLE('',#286,31.);
#157=CIRCLE('',#288,31.);
#158=CIRCLE('',#290,29.);
#159=CIRCLE('',#297,6.5785);
#160=CIRCLE('',#299,6.5785);
#161=CIRCLE('',#301,6.5785);
#162=CIRCLE('',#303,5.7225);
#163=CIRCLE('',#305,4.75);
#164=CIRCLE('',#307,4.75);
#165=CIRCLE('',#309,2.5);
#166=CIRCLE('',#311,2.5);
#167=EDGE_LOOP('',(#53));
#168=EDGE_LOOP('',(#54));
#169=EDGE_LOOP('',(#55));
#170=EDGE_LOOP('',(#56));
#171=EDGE_LOOP('',(#57));
#172=EDGE_LOOP('',(#58));
#173=EDGE_LOOP('',(#59));
#174=EDGE_LOOP('',(#60));
#175=EDGE_LOOP('',(#61));
#176=EDGE_LOOP('',(#62));
#177=EDGE_LOOP('',(#63));
#178=EDGE_LOOP('',(#64,#65,#66,#67));
#179=EDGE_LOOP('',(#68));
#180=EDGE_LOOP('',(#69,#70,#71,#72));
#181=EDGE_LOOP('',(#73,#74,#75,#76));
#182=EDGE_LOOP('',(#77,#78,#79,#80));
#183=EDGE_LOOP('',(#81,#82,#83,#84));
#184=EDGE_LOOP('',(#85));
#185=EDGE_LOOP('',(#86,#87,#88,#89));
#186=EDGE_LOOP('',(#90));
#187=EDGE_LOOP('',(#91));
#188=EDGE_LOOP('',(#92));
#189=EDGE_LOOP('',(#93));
#190=EDGE_LOOP('',(#94));
#191=EDGE_LOOP('',(#95));
#192=EDGE_LOOP('',(#96));
#193=EDGE_LOOP('',(#97));
#194=EDGE_LOOP('',(#98));
#195=EDGE_LOOP('',(#99));
#196=EDGE_LOOP('',(#100));
#197=EDGE_LOOP('',(#101));
#198=EDGE_LOOP('',(#102));
#199=EDGE_LOOP('',(#103));
#200=EDGE_LOOP('',(#104));
#201=FACE_BOUND('',#167,.T.);
#202=FACE_BOUND('',#168,.T.);
#203=FACE_BOUND('',#169,.T.);
#204=FACE_BOUND('',#170,.T.);
#205=FACE_BOUND('',#171,.T.);
#206=FACE_BOUND('',#172,.T.);
#207=FACE_BOUND('',#173,.T.);
#208=FACE_BOUND('',#174,.T.);
#209=FACE_BOUND('',#175,.T.);
#210=FACE_BOUND('',#176,.T.);
#211=FACE_BOUND('',#177,.T.);
#212=FACE_BOUND('',#178,.T.);
#213=FACE_BOUND('',#179,.T.);
#214=FACE_BOUND('',#180,.T.);
#215=FACE_BOUND('',#181,.T.);
#216=FACE_BOUND('',#182,.T.);
#217=FACE_BOUND('',#183,.T.);
#218=FACE_BOUND('',#184,.T.);
#219=FACE_BOUND('',#185,.T.);
#220=FACE_BOUND('',#186,.T.);
#221=FACE_BOUND('',#187,.T.);
#222=FACE_BOUND('',#188,.T.);
#223=FACE_BOUND('',#189,.T.);
#224=FACE_BOUND('',#190,.T.);
#225=FACE_BOUND('',#191,.T.);
#226=FACE_BOUND('',#192,.T.);
#227=FACE_BOUND('',#193,.T.);
#228=FACE_BOUND('',#194,.T.);
#229=FACE_BOUND('',#195,.T.);
#230=FACE_BOUND('',#196,.T.);
#231=FACE_BOUND('',#197,.T.);
#232=FACE_BOUND('',#198,.T.);
#233=FACE_BOUND('',#199,.T.);
#234=FACE_BOUND('',#200,.T.);
#235=PLANE('',#279);
#236=PLANE('',#285);
#237=PLANE('',#291);
#238=PLANE('',#292);
#239=PLANE('',#293);
#240=PLANE('',#294);
#241=PLANE('',#295);
#242=PLANE('',#296);
#243=PLANE('',#304);
#244=PLANE('',#308);
#245=PLANE('',#312);
#246=ADVANCED_FACE('',(#201),#235,.F.);
#247=ADVANCED_FACE('',(#202,#203),#50,.T.);
#248=ADVANCED_FACE('',(#204,#205),#45,.T.);
#249=ADVANCED_FACE('',(#206,#207),#236,.F.);
#250=ADVANCED_FACE('',(#208,#209),#46,.T.);
#251=ADVANCED_FACE('',(#210,#211),#51,.T.);
#252=ADVANCED_FACE('',(#212,#213),#237,.F.);
#253=ADVANCED_FACE('',(#214),#238,.T.);
#254=ADVANCED_FACE('',(#215),#239,.T.);
#255=ADVANCED_FACE('',(#216),#240,.T.);
#256=ADVANCED_FACE('',(#217),#241,.T.);
#257=ADVANCED_FACE('',(#218,#219),#242,.T.);
#258=ADVANCED_FACE('',(#220,#221),#52,.F.);
#259=ADVANCED_FACE('',(#222,#223),#47,.T.);
#260=ADVANCED_FACE('',(#224,#225),#20,.T.);
#261=ADVANCED_FACE('',(#226,#227),#243,.F.);
#262=ADVANCED_FACE('',(#228,#229),#48,.T.);
#263=ADVANCED_FACE('',(#230,#231),#244,.F.);
#264=ADVANCED_FACE('',(#232,#233),#49,.T.);
#265=ADVANCED_FACE('',(#234),#245,.F.);
#266=CLOSED_SHELL('',(#246,#247,#248,#249,#250,#251,#252,#253,#254,#255,
#256,#257,#258,#259,#260,#261,#262,#263,#264,#265));
#267=STYLED_ITEM('',(#268),#275);
#268=PRESENTATION_STYLE_ASSIGNMENT((#269));
#269=SURFACE_STYLE_USAGE(.BOTH.,#270);
#270=SURFACE_SIDE_STYLE('',(#271));
#271=SURFACE_STYLE_FILL_AREA(#272);
#272=FILL_AREA_STYLE('',(#273));
#273=FILL_AREA_STYLE_COLOUR('',#274);
#274=COLOUR_RGB('',0.689999997615814,0.689999997615814,0.689999997615814);
#275=MANIFOLD_SOLID_BREP('7169 MA-63-0,25',#266);
#276=SHAPE_DEFINITION_REPRESENTATION(#470,#277);
#277=SHAPE_REPRESENTATION('7169 MA-63-0,25',(#278),#465);
#278=AXIS2_PLACEMENT_3D('',#395,#313,#314);
#279=AXIS2_PLACEMENT_3D('',#396,#315,#316);
#280=AXIS2_PLACEMENT_3D('',#397,#317,#318);
#281=AXIS2_PLACEMENT_3D('',#399,#319,#320);
#282=AXIS2_PLACEMENT_3D('',#400,#321,#322);
#283=AXIS2_PLACEMENT_3D('',#402,#323,#324);
#284=AXIS2_PLACEMENT_3D('',#403,#325,#326);
#285=AXIS2_PLACEMENT_3D('',#405,#327,#328);
#286=AXIS2_PLACEMENT_3D('',#406,#329,#330);
#287=AXIS2_PLACEMENT_3D('',#408,#331,#332);
#288=AXIS2_PLACEMENT_3D('',#409,#333,#334);
#289=AXIS2_PLACEMENT_3D('',#411,#335,#336);
#290=AXIS2_PLACEMENT_3D('',#412,#337,#338);
#291=AXIS2_PLACEMENT_3D('',#414,#339,#340);
#292=AXIS2_PLACEMENT_3D('',#423,#345,#346);
#293=AXIS2_PLACEMENT_3D('',#429,#350,#351);
#294=AXIS2_PLACEMENT_3D('',#433,#354,#355);
#295=AXIS2_PLACEMENT_3D('',#437,#358,#359);
#296=AXIS2_PLACEMENT_3D('',#439,#361,#362);
#297=AXIS2_PLACEMENT_3D('',#440,#363,#364);
#298=AXIS2_PLACEMENT_3D('',#442,#365,#366);
#299=AXIS2_PLACEMENT_3D('',#443,#367,#368);
#300=AXIS2_PLACEMENT_3D('',#445,#369,#370);
#301=AXIS2_PLACEMENT_3D('',#446,#371,#372);
#302=AXIS2_PLACEMENT_3D('',#448,#373,#374);
#303=AXIS2_PLACEMENT_3D('',#449,#375,#376);
#304=AXIS2_PLACEMENT_3D('',#451,#377,#378);
#305=AXIS2_PLACEMENT_3D('',#452,#379,#380);
#306=AXIS2_PLACEMENT_3D('',#454,#381,#382);
#307=AXIS2_PLACEMENT_3D('',#455,#383,#384);
#308=AXIS2_PLACEMENT_3D('',#457,#385,#386);
#309=AXIS2_PLACEMENT_3D('',#458,#387,#388);
#310=AXIS2_PLACEMENT_3D('',#460,#389,#390);
#311=AXIS2_PLACEMENT_3D('',#461,#391,#392);
#312=AXIS2_PLACEMENT_3D('',#463,#393,#394);
#313=DIRECTION('',(0.,0.,1.));
#314=DIRECTION('',(1.,0.,0.));
#315=DIRECTION('',(1.,0.,0.));
#316=DIRECTION('',(0.,0.,-1.));
#317=DIRECTION('',(1.,0.,0.));
#318=DIRECTION('',(0.,0.,-1.));
#319=DIRECTION('',(1.,0.,0.));
#320=DIRECTION('',(0.,0.,-1.));
#321=DIRECTION('',(1.,0.,0.));
#322=DIRECTION('',(0.,0.,-1.));
#323=DIRECTION('',(1.,0.,0.));
#324=DIRECTION('',(0.,0.,-1.));
#325=DIRECTION('',(1.,0.,0.));
#326=DIRECTION('',(0.,0.,-1.));
#327=DIRECTION('',(-1.,0.,0.));
#328=DIRECTION('',(0.,0.,1.));
#329=DIRECTION('',(1.,0.,0.));
#330=DIRECTION('',(0.,0.,-1.));
#331=DIRECTION('',(1.,0.,0.));
#332=DIRECTION('',(0.,0.,-1.));
#333=DIRECTION('',(1.,0.,0.));
#334=DIRECTION('',(0.,0.,-1.));
#335=DIRECTION('',(1.,0.,0.));
#336=DIRECTION('',(0.,0.,-1.));
#337=DIRECTION('',(1.,0.,0.));
#338=DIRECTION('',(0.,0.,-1.));
#339=DIRECTION('',(-1.,0.,0.));
#340=DIRECTION('',(0.,0.,1.));
#341=DIRECTION('',(0.,0.,-1.));
#342=DIRECTION('',(0.,1.,0.));
#343=DIRECTION('',(0.,0.,-1.));
#344=DIRECTION('',(0.,-1.,0.));
#345=DIRECTION('',(0.,0.,1.));
#346=DIRECTION('',(1.,0.,0.));
#347=DIRECTION('',(0.,-1.,0.));
#348=DIRECTION('',(1.,0.,0.));
#349=DIRECTION('',(1.,0.,0.));
#350=DIRECTION('',(0.,-1.,0.));
#351=DIRECTION('',(0.,0.,-1.));
#352=DIRECTION('',(0.,0.,-1.));
#353=DIRECTION('',(1.,0.,0.));
#354=DIRECTION('',(0.,0.,-1.));
#355=DIRECTION('',(-1.,0.,0.));
#356=DIRECTION('',(0.,1.,0.));
#357=DIRECTION('',(1.,0.,0.));
#358=DIRECTION('',(0.,1.,0.));
#359=DIRECTION('',(0.,0.,1.));
#360=DIRECTION('',(0.,0.,1.));
#361=DIRECTION('',(1.,0.,0.));
#362=DIRECTION('',(0.,0.,-1.));
#363=DIRECTION('',(1.,0.,0.));
#364=DIRECTION('',(0.,0.,-1.));
#365=DIRECTION('',(1.,0.,0.));
#366=DIRECTION('',(0.,0.,-1.));
#367=DIRECTION('',(1.,0.,0.));
#368=DIRECTION('',(0.,0.,-1.));
#369=DIRECTION('',(1.,0.,0.));
#370=DIRECTION('',(0.,0.,-1.));
#371=DIRECTION('',(1.,0.,0.));
#372=DIRECTION('',(0.,0.,-1.));
#373=DIRECTION('',(-1.,0.,0.));
#374=DIRECTION('',(0.,0.,1.));
#375=DIRECTION('',(1.,0.,0.));
#376=DIRECTION('',(0.,0.,-1.));
#377=DIRECTION('',(-1.,0.,0.));
#378=DIRECTION('',(0.,0.,1.));
#379=DIRECTION('',(1.,0.,0.));
#380=DIRECTION('',(0.,0.,-1.));
#381=DIRECTION('',(1.,0.,0.));
#382=DIRECTION('',(0.,0.,-1.));
#383=DIRECTION('',(1.,0.,0.));
#384=DIRECTION('',(0.,0.,-1.));
#385=DIRECTION('',(-1.,0.,0.));
#386=DIRECTION('',(0.,0.,1.));
#387=DIRECTION('',(1.,0.,0.));
#388=DIRECTION('',(0.,0.,-1.));
#389=DIRECTION('',(1.,0.,0.));
#390=DIRECTION('',(0.,0.,-1.));
#391=DIRECTION('',(1.,0.,0.));
#392=DIRECTION('',(0.,0.,-1.));
#393=DIRECTION('',(-1.,0.,0.));
#394=DIRECTION('',(0.,0.,1.));
#395=CARTESIAN_POINT('',(0.,0.,0.));
#396=CARTESIAN_POINT('',(-41.5,0.,0.));
#397=CARTESIAN_POINT('',(-41.5,0.,0.));
#398=CARTESIAN_POINT('',(-41.5,0.,-29.5));
#399=CARTESIAN_POINT('',(-39.5,0.,0.));
#400=CARTESIAN_POINT('',(-39.5,0.,0.));
#401=CARTESIAN_POINT('',(-39.5,0.,-31.5));
#402=CARTESIAN_POINT('',(-7.,0.,0.));
#403=CARTESIAN_POINT('',(-13.966,0.,0.));
#404=CARTESIAN_POINT('',(-13.966,0.,-31.5));
#405=CARTESIAN_POINT('',(-13.966,31.5,0.));
#406=CARTESIAN_POINT('',(-13.966,0.,0.));
#407=CARTESIAN_POINT('',(-13.966,0.,-31.));
#408=CARTESIAN_POINT('',(-7.,0.,0.));
#409=CARTESIAN_POINT('',(-9.,0.,0.));
#410=CARTESIAN_POINT('',(-9.,0.,-31.));
#411=CARTESIAN_POINT('',(-9.,0.,0.));
#412=CARTESIAN_POINT('',(-7.,0.,0.));
#413=CARTESIAN_POINT('',(-7.,0.,-29.));
#414=CARTESIAN_POINT('',(-7.,29.,0.));
#415=CARTESIAN_POINT('',(-7.,7.,0.));
#416=CARTESIAN_POINT('',(-7.,7.,7.));
#417=CARTESIAN_POINT('',(-7.,7.,-7.));
#418=CARTESIAN_POINT('',(-7.,-7.,-7.));
#419=CARTESIAN_POINT('',(-7.,-7.,-7.));
#420=CARTESIAN_POINT('',(-7.,-7.,7.));
#421=CARTESIAN_POINT('',(-7.,-7.,7.));
#422=CARTESIAN_POINT('',(-7.,7.,7.));
#423=CARTESIAN_POINT('',(-7.,7.,7.));
#424=CARTESIAN_POINT('',(0.,7.,7.));
#425=CARTESIAN_POINT('',(0.,7.,7.));
#426=CARTESIAN_POINT('',(0.,-7.,7.));
#427=CARTESIAN_POINT('',(-7.,7.,7.));
#428=CARTESIAN_POINT('',(-7.,-7.,7.));
#429=CARTESIAN_POINT('',(-7.,-7.,7.));
#430=CARTESIAN_POINT('',(0.,-7.,7.));
#431=CARTESIAN_POINT('',(0.,-7.,-7.));
#432=CARTESIAN_POINT('',(-7.,-7.,-7.));
#433=CARTESIAN_POINT('',(-7.,-7.,-7.));
#434=CARTESIAN_POINT('',(0.,-7.,-7.));
#435=CARTESIAN_POINT('',(0.,7.,-7.));
#436=CARTESIAN_POINT('',(-7.,7.,-7.));
#437=CARTESIAN_POINT('',(-7.,7.,-7.));
#438=CARTESIAN_POINT('',(0.,7.,-7.));
#439=CARTESIAN_POINT('',(0.,0.,0.));
#440=CARTESIAN_POINT('',(0.,0.,0.));
#441=CARTESIAN_POINT('',(0.,0.,-6.5785));
#442=CARTESIAN_POINT('',(1.,0.,0.));
#443=CARTESIAN_POINT('',(2.,0.,0.));
#444=CARTESIAN_POINT('',(2.,0.,-6.5785));
#445=CARTESIAN_POINT('',(15.,0.,0.));
#446=CARTESIAN_POINT('',(10.144,0.,0.));
#447=CARTESIAN_POINT('',(10.144,0.,-6.5785));
#448=CARTESIAN_POINT('',(10.144,0.,0.));
#449=CARTESIAN_POINT('',(11.,0.,0.));
#450=CARTESIAN_POINT('',(11.,0.,-5.7225));
#451=CARTESIAN_POINT('',(11.,5.7225,0.));
#452=CARTESIAN_POINT('',(11.,0.,0.));
#453=CARTESIAN_POINT('',(11.,0.,-4.75));
#454=CARTESIAN_POINT('',(15.,0.,0.));
#455=CARTESIAN_POINT('',(13.,0.,0.));
#456=CARTESIAN_POINT('',(13.,0.,-4.75));
#457=CARTESIAN_POINT('',(13.,4.75,0.));
#458=CARTESIAN_POINT('',(13.,0.,0.));
#459=CARTESIAN_POINT('',(13.,0.,-2.5));
#460=CARTESIAN_POINT('',(15.,0.,0.));
#461=CARTESIAN_POINT('',(15.,0.,0.));
#462=CARTESIAN_POINT('',(15.,0.,-2.5));
#463=CARTESIAN_POINT('',(15.,2.5,0.));
#464=MECHANICAL_DESIGN_GEOMETRIC_PRESENTATION_REPRESENTATION('',(#267),
#465);
#465=(
GEOMETRIC_REPRESENTATION_CONTEXT(3)
GLOBAL_UNCERTAINTY_ASSIGNED_CONTEXT((#466))
GLOBAL_UNIT_ASSIGNED_CONTEXT((#469,#468,#467))
REPRESENTATION_CONTEXT('7169 MA-63-0,25','TOP_LEVEL_ASSEMBLY_PART')
);
#466=UNCERTAINTY_MEASURE_WITH_UNIT(LENGTH_MEASURE(0.005),#469,
'DISTANCE_ACCURACY_VALUE','Maximum Tolerance applied to model');
#467=(
NAMED_UNIT(*)
SI_UNIT($,.STERADIAN.)
SOLID_ANGLE_UNIT()
);
#468=(
NAMED_UNIT(*)
PLANE_ANGLE_UNIT()
SI_UNIT($,.RADIAN.)
);
#469=(
LENGTH_UNIT()
NAMED_UNIT(*)
SI_UNIT(.MILLI.,.METRE.)
);
#470=PRODUCT_DEFINITION_SHAPE('','',#471);
#471=PRODUCT_DEFINITION('','',#473,#472);
#472=PRODUCT_DEFINITION_CONTEXT('',#479,'design');
#473=PRODUCT_DEFINITION_FORMATION_WITH_SPECIFIED_SOURCE('','',#475,
 .NOT_KNOWN.);
#474=PRODUCT_RELATED_PRODUCT_CATEGORY('','',(#475));
#475=PRODUCT('7169 MA-63-0,25','7169 MA-63-0,25','7169 MA-63-0,25',(#477));
#476=PRODUCT_CATEGORY('','');
#477=PRODUCT_CONTEXT('',#479,'mechanical');
#478=APPLICATION_PROTOCOL_DEFINITION('international standard',
'automotive_design',2010,#479);
#479=APPLICATION_CONTEXT(
'core data for automotive mechanical design processes');
ENDSEC;
END-ISO-10303-21;
