ISO-10303-21;
HEADER;
/* Generated by software containing ST-Developer
 * from STEP Tools, Inc. (www.steptools.com) 
 */
/* OPTION: using custom renumber hook */

FILE_DESCRIPTION(
/* description */ ('STEP AP214'),
/* implementation_level */ '2;1');

FILE_NAME(
/* name */ '7215_KSV-PK-3',
/* time_stamp */ '2024-08-29T18:53:19+02:00',
/* author */ ('License CC BY-ND 4.0'),
/* organization */ ('CADENAS'),
/* preprocessor_version */ 'ST-DEVELOPER v19.3',
/* originating_system */ 'PARTsolutions',
/* authorisation */ '  ');

FILE_SCHEMA (('AUTOMOTIVE_DESIGN {1 0 10303 214 3 1 1}'));
ENDSEC;

DATA;
#10=PROPERTY_DEFINITION_REPRESENTATION(#14,#12);
#11=PROPERTY_DEFINITION_REPRESENTATION(#15,#13);
#12=REPRESENTATION('',(#16),#637);
#13=REPRESENTATION('',(#17),#637);
#14=PROPERTY_DEFINITION('pmi validation property','',#642);
#15=PROPERTY_DEFINITION('pmi validation property','',#642);
#16=VALUE_REPRESENTATION_ITEM('number of annotations',COUNT_MEASURE(0.));
#17=VALUE_REPRESENTATION_ITEM('number of views',COUNT_MEASURE(0.));
#18=SHAPE_REPRESENTATION_RELATIONSHIP('','',#361,#19);
#19=ADVANCED_BREP_SHAPE_REPRESENTATION('',(#359),#637);
#20=TOROIDAL_SURFACE('',#378,2.,0.200000000000001);
#21=TOROIDAL_SURFACE('',#384,1.7,0.199999999999999);
#22=TOROIDAL_SURFACE('',#390,1.68728150418579,0.1);
#23=TOROIDAL_SURFACE('',#394,1.35469149439893,0.2);
#24=TOROIDAL_SURFACE('',#406,2.9,0.199999999999999);
#25=TOROIDAL_SURFACE('',#410,2.42500000000001,0.200000000000004);
#26=TOROIDAL_SURFACE('',#414,2.425,0.200000000000001);
#27=TOROIDAL_SURFACE('',#418,2.90000000000001,0.199999999999993);
#28=CONICAL_SURFACE('',#374,3.,0.523598775598299);
#29=CONICAL_SURFACE('',#382,1.8,0.785398163397449);
#30=CONICAL_SURFACE('',#392,1.7823871558153,0.314159265358979);
#31=CONICAL_SURFACE('',#402,2.8856406460551,0.26179938779915);
#32=CONICAL_SURFACE('',#408,2.91046719124859,1.51843644923507);
#33=CONICAL_SURFACE('',#416,2.41453280875141,1.51843644923507);
#34=PLANE('',#366);
#35=PLANE('',#370);
#36=PLANE('',#376);
#37=PLANE('',#388);
#38=PLANE('',#396);
#39=PLANE('',#400);
#40=PLANE('',#422);
#41=ORIENTED_EDGE('',*,*,#101,.T.);
#42=ORIENTED_EDGE('',*,*,#102,.F.);
#43=ORIENTED_EDGE('',*,*,#103,.T.);
#44=ORIENTED_EDGE('',*,*,#101,.F.);
#45=ORIENTED_EDGE('',*,*,#104,.T.);
#46=ORIENTED_EDGE('',*,*,#103,.F.);
#47=ORIENTED_EDGE('',*,*,#105,.T.);
#48=ORIENTED_EDGE('',*,*,#104,.F.);
#49=ORIENTED_EDGE('',*,*,#106,.T.);
#50=ORIENTED_EDGE('',*,*,#105,.F.);
#51=ORIENTED_EDGE('',*,*,#107,.T.);
#52=ORIENTED_EDGE('',*,*,#106,.F.);
#53=ORIENTED_EDGE('',*,*,#108,.T.);
#54=ORIENTED_EDGE('',*,*,#107,.F.);
#55=ORIENTED_EDGE('',*,*,#108,.F.);
#56=ORIENTED_EDGE('',*,*,#109,.T.);
#57=ORIENTED_EDGE('',*,*,#110,.T.);
#58=ORIENTED_EDGE('',*,*,#109,.F.);
#59=ORIENTED_EDGE('',*,*,#111,.T.);
#60=ORIENTED_EDGE('',*,*,#110,.F.);
#61=ORIENTED_EDGE('',*,*,#111,.F.);
#62=ORIENTED_EDGE('',*,*,#112,.T.);
#63=ORIENTED_EDGE('',*,*,#113,.T.);
#64=ORIENTED_EDGE('',*,*,#112,.F.);
#65=ORIENTED_EDGE('',*,*,#114,.T.);
#66=ORIENTED_EDGE('',*,*,#113,.F.);
#67=ORIENTED_EDGE('',*,*,#115,.T.);
#68=ORIENTED_EDGE('',*,*,#114,.F.);
#69=ORIENTED_EDGE('',*,*,#116,.T.);
#70=ORIENTED_EDGE('',*,*,#115,.F.);
#71=ORIENTED_EDGE('',*,*,#117,.T.);
#72=ORIENTED_EDGE('',*,*,#116,.F.);
#73=ORIENTED_EDGE('',*,*,#118,.T.);
#74=ORIENTED_EDGE('',*,*,#117,.F.);
#75=ORIENTED_EDGE('',*,*,#119,.T.);
#76=ORIENTED_EDGE('',*,*,#118,.F.);
#77=ORIENTED_EDGE('',*,*,#120,.T.);
#78=ORIENTED_EDGE('',*,*,#119,.F.);
#79=ORIENTED_EDGE('',*,*,#121,.T.);
#80=ORIENTED_EDGE('',*,*,#120,.F.);
#81=ORIENTED_EDGE('',*,*,#122,.T.);
#82=ORIENTED_EDGE('',*,*,#121,.F.);
#83=ORIENTED_EDGE('',*,*,#123,.T.);
#84=ORIENTED_EDGE('',*,*,#122,.F.);
#85=ORIENTED_EDGE('',*,*,#124,.T.);
#86=ORIENTED_EDGE('',*,*,#123,.F.);
#87=ORIENTED_EDGE('',*,*,#124,.F.);
#88=ORIENTED_EDGE('',*,*,#125,.T.);
#89=ORIENTED_EDGE('',*,*,#126,.T.);
#90=ORIENTED_EDGE('',*,*,#125,.F.);
#91=ORIENTED_EDGE('',*,*,#126,.F.);
#92=ORIENTED_EDGE('',*,*,#127,.T.);
#93=ORIENTED_EDGE('',*,*,#128,.T.);
#94=ORIENTED_EDGE('',*,*,#127,.F.);
#95=ORIENTED_EDGE('',*,*,#129,.T.);
#96=ORIENTED_EDGE('',*,*,#128,.F.);
#97=ORIENTED_EDGE('',*,*,#130,.T.);
#98=ORIENTED_EDGE('',*,*,#129,.F.);
#99=ORIENTED_EDGE('',*,*,#102,.T.);
#100=ORIENTED_EDGE('',*,*,#130,.F.);
#101=EDGE_CURVE('',#131,#131,#161,.T.);
#102=EDGE_CURVE('',#132,#132,#162,.T.);
#103=EDGE_CURVE('',#133,#133,#163,.T.);
#104=EDGE_CURVE('',#134,#134,#164,.T.);
#105=EDGE_CURVE('',#135,#135,#165,.T.);
#106=EDGE_CURVE('',#136,#136,#166,.T.);
#107=EDGE_CURVE('',#137,#137,#167,.T.);
#108=EDGE_CURVE('',#138,#138,#168,.T.);
#109=EDGE_CURVE('',#139,#139,#169,.T.);
#110=EDGE_CURVE('',#140,#140,#170,.T.);
#111=EDGE_CURVE('',#141,#141,#171,.T.);
#112=EDGE_CURVE('',#142,#142,#172,.T.);
#113=EDGE_CURVE('',#143,#143,#173,.T.);
#114=EDGE_CURVE('',#144,#144,#174,.T.);
#115=EDGE_CURVE('',#145,#145,#175,.T.);
#116=EDGE_CURVE('',#146,#146,#176,.T.);
#117=EDGE_CURVE('',#147,#147,#177,.T.);
#118=EDGE_CURVE('',#148,#148,#178,.T.);
#119=EDGE_CURVE('',#149,#149,#179,.T.);
#120=EDGE_CURVE('',#150,#150,#180,.T.);
#121=EDGE_CURVE('',#151,#151,#181,.T.);
#122=EDGE_CURVE('',#152,#152,#182,.T.);
#123=EDGE_CURVE('',#153,#153,#183,.T.);
#124=EDGE_CURVE('',#154,#154,#184,.T.);
#125=EDGE_CURVE('',#155,#155,#185,.T.);
#126=EDGE_CURVE('',#156,#156,#186,.T.);
#127=EDGE_CURVE('',#157,#157,#187,.T.);
#128=EDGE_CURVE('',#158,#158,#188,.T.);
#129=EDGE_CURVE('',#159,#159,#189,.T.);
#130=EDGE_CURVE('',#160,#160,#190,.T.);
#131=VERTEX_POINT('',#548);
#132=VERTEX_POINT('',#550);
#133=VERTEX_POINT('',#553);
#134=VERTEX_POINT('',#556);
#135=VERTEX_POINT('',#559);
#136=VERTEX_POINT('',#562);
#137=VERTEX_POINT('',#565);
#138=VERTEX_POINT('',#568);
#139=VERTEX_POINT('',#571);
#140=VERTEX_POINT('',#574);
#141=VERTEX_POINT('',#577);
#142=VERTEX_POINT('',#580);
#143=VERTEX_POINT('',#583);
#144=VERTEX_POINT('',#586);
#145=VERTEX_POINT('',#589);
#146=VERTEX_POINT('',#592);
#147=VERTEX_POINT('',#595);
#148=VERTEX_POINT('',#598);
#149=VERTEX_POINT('',#601);
#150=VERTEX_POINT('',#604);
#151=VERTEX_POINT('',#607);
#152=VERTEX_POINT('',#610);
#153=VERTEX_POINT('',#613);
#154=VERTEX_POINT('',#616);
#155=VERTEX_POINT('',#619);
#156=VERTEX_POINT('',#622);
#157=VERTEX_POINT('',#625);
#158=VERTEX_POINT('',#628);
#159=VERTEX_POINT('',#631);
#160=VERTEX_POINT('',#634);
#161=CIRCLE('',#364,4.);
#162=CIRCLE('',#365,4.);
#163=CIRCLE('',#367,2.75);
#164=CIRCLE('',#369,2.75);
#165=CIRCLE('',#371,3.);
#166=CIRCLE('',#373,3.);
#167=CIRCLE('',#375,2.13397459621556);
#168=CIRCLE('',#377,2.);
#169=CIRCLE('',#379,1.8);
#170=CIRCLE('',#381,1.8);
#171=CIRCLE('',#383,1.55857864376269);
#172=CIRCLE('',#385,1.5);
#173=CIRCLE('',#387,1.5);
#174=CIRCLE('',#389,1.68728150418579);
#175=CIRCLE('',#391,1.7823871558153);
#176=CIRCLE('',#393,1.54490279765796);
#177=CIRCLE('',#395,1.35469149439893);
#178=CIRCLE('',#397,1.25);
#179=CIRCLE('',#399,1.25);
#180=CIRCLE('',#401,2.8856406460551);
#181=CIRCLE('',#403,3.1);
#182=CIRCLE('',#405,3.1);
#183=CIRCLE('',#407,2.91046719124859);
#184=CIRCLE('',#409,2.41453280875141);
#185=CIRCLE('',#411,2.225);
#186=CIRCLE('',#413,2.225);
#187=CIRCLE('',#415,2.41453280875141);
#188=CIRCLE('',#417,2.91046719124859);
#189=CIRCLE('',#419,3.1);
#190=CIRCLE('',#421,3.1);
#191=EDGE_LOOP('',(#41));
#192=EDGE_LOOP('',(#42));
#193=EDGE_LOOP('',(#43));
#194=EDGE_LOOP('',(#44));
#195=EDGE_LOOP('',(#45));
#196=EDGE_LOOP('',(#46));
#197=EDGE_LOOP('',(#47));
#198=EDGE_LOOP('',(#48));
#199=EDGE_LOOP('',(#49));
#200=EDGE_LOOP('',(#50));
#201=EDGE_LOOP('',(#51));
#202=EDGE_LOOP('',(#52));
#203=EDGE_LOOP('',(#53));
#204=EDGE_LOOP('',(#54));
#205=EDGE_LOOP('',(#55));
#206=EDGE_LOOP('',(#56));
#207=EDGE_LOOP('',(#57));
#208=EDGE_LOOP('',(#58));
#209=EDGE_LOOP('',(#59));
#210=EDGE_LOOP('',(#60));
#211=EDGE_LOOP('',(#61));
#212=EDGE_LOOP('',(#62));
#213=EDGE_LOOP('',(#63));
#214=EDGE_LOOP('',(#64));
#215=EDGE_LOOP('',(#65));
#216=EDGE_LOOP('',(#66));
#217=EDGE_LOOP('',(#67));
#218=EDGE_LOOP('',(#68));
#219=EDGE_LOOP('',(#69));
#220=EDGE_LOOP('',(#70));
#221=EDGE_LOOP('',(#71));
#222=EDGE_LOOP('',(#72));
#223=EDGE_LOOP('',(#73));
#224=EDGE_LOOP('',(#74));
#225=EDGE_LOOP('',(#75));
#226=EDGE_LOOP('',(#76));
#227=EDGE_LOOP('',(#77));
#228=EDGE_LOOP('',(#78));
#229=EDGE_LOOP('',(#79));
#230=EDGE_LOOP('',(#80));
#231=EDGE_LOOP('',(#81));
#232=EDGE_LOOP('',(#82));
#233=EDGE_LOOP('',(#83));
#234=EDGE_LOOP('',(#84));
#235=EDGE_LOOP('',(#85));
#236=EDGE_LOOP('',(#86));
#237=EDGE_LOOP('',(#87));
#238=EDGE_LOOP('',(#88));
#239=EDGE_LOOP('',(#89));
#240=EDGE_LOOP('',(#90));
#241=EDGE_LOOP('',(#91));
#242=EDGE_LOOP('',(#92));
#243=EDGE_LOOP('',(#93));
#244=EDGE_LOOP('',(#94));
#245=EDGE_LOOP('',(#95));
#246=EDGE_LOOP('',(#96));
#247=EDGE_LOOP('',(#97));
#248=EDGE_LOOP('',(#98));
#249=EDGE_LOOP('',(#99));
#250=EDGE_LOOP('',(#100));
#251=FACE_BOUND('',#191,.T.);
#252=FACE_BOUND('',#192,.T.);
#253=FACE_BOUND('',#193,.T.);
#254=FACE_BOUND('',#194,.T.);
#255=FACE_BOUND('',#195,.T.);
#256=FACE_BOUND('',#196,.T.);
#257=FACE_BOUND('',#197,.T.);
#258=FACE_BOUND('',#198,.T.);
#259=FACE_BOUND('',#199,.T.);
#260=FACE_BOUND('',#200,.T.);
#261=FACE_BOUND('',#201,.T.);
#262=FACE_BOUND('',#202,.T.);
#263=FACE_BOUND('',#203,.T.);
#264=FACE_BOUND('',#204,.T.);
#265=FACE_BOUND('',#205,.T.);
#266=FACE_BOUND('',#206,.T.);
#267=FACE_BOUND('',#207,.T.);
#268=FACE_BOUND('',#208,.T.);
#269=FACE_BOUND('',#209,.T.);
#270=FACE_BOUND('',#210,.T.);
#271=FACE_BOUND('',#211,.T.);
#272=FACE_BOUND('',#212,.T.);
#273=FACE_BOUND('',#213,.T.);
#274=FACE_BOUND('',#214,.T.);
#275=FACE_BOUND('',#215,.T.);
#276=FACE_BOUND('',#216,.T.);
#277=FACE_BOUND('',#217,.T.);
#278=FACE_BOUND('',#218,.T.);
#279=FACE_BOUND('',#219,.T.);
#280=FACE_BOUND('',#220,.T.);
#281=FACE_BOUND('',#221,.T.);
#282=FACE_BOUND('',#222,.T.);
#283=FACE_BOUND('',#223,.T.);
#284=FACE_BOUND('',#224,.T.);
#285=FACE_BOUND('',#225,.T.);
#286=FACE_BOUND('',#226,.T.);
#287=FACE_BOUND('',#227,.T.);
#288=FACE_BOUND('',#228,.T.);
#289=FACE_BOUND('',#229,.T.);
#290=FACE_BOUND('',#230,.T.);
#291=FACE_BOUND('',#231,.T.);
#292=FACE_BOUND('',#232,.T.);
#293=FACE_BOUND('',#233,.T.);
#294=FACE_BOUND('',#234,.T.);
#295=FACE_BOUND('',#235,.T.);
#296=FACE_BOUND('',#236,.T.);
#297=FACE_BOUND('',#237,.T.);
#298=FACE_BOUND('',#238,.T.);
#299=FACE_BOUND('',#239,.T.);
#300=FACE_BOUND('',#240,.T.);
#301=FACE_BOUND('',#241,.T.);
#302=FACE_BOUND('',#242,.T.);
#303=FACE_BOUND('',#243,.T.);
#304=FACE_BOUND('',#244,.T.);
#305=FACE_BOUND('',#245,.T.);
#306=FACE_BOUND('',#246,.T.);
#307=FACE_BOUND('',#247,.T.);
#308=FACE_BOUND('',#248,.T.);
#309=FACE_BOUND('',#249,.T.);
#310=FACE_BOUND('',#250,.T.);
#311=CYLINDRICAL_SURFACE('',#363,4.);
#312=CYLINDRICAL_SURFACE('',#368,2.75);
#313=CYLINDRICAL_SURFACE('',#372,3.);
#314=CYLINDRICAL_SURFACE('',#380,1.8);
#315=CYLINDRICAL_SURFACE('',#386,1.5);
#316=CYLINDRICAL_SURFACE('',#398,1.25);
#317=CYLINDRICAL_SURFACE('',#404,3.1);
#318=CYLINDRICAL_SURFACE('',#412,2.225);
#319=CYLINDRICAL_SURFACE('',#420,3.1);
#320=ADVANCED_FACE('',(#251,#252),#311,.T.);
#321=ADVANCED_FACE('',(#253,#254),#34,.T.);
#322=ADVANCED_FACE('',(#255,#256),#312,.T.);
#323=ADVANCED_FACE('',(#257,#258),#35,.T.);
#324=ADVANCED_FACE('',(#259,#260),#313,.T.);
#325=ADVANCED_FACE('',(#261,#262),#28,.T.);
#326=ADVANCED_FACE('',(#263,#264),#36,.T.);
#327=ADVANCED_FACE('',(#265,#266),#20,.F.);
#328=ADVANCED_FACE('',(#267,#268),#314,.T.);
#329=ADVANCED_FACE('',(#269,#270),#29,.T.);
#330=ADVANCED_FACE('',(#271,#272),#21,.F.);
#331=ADVANCED_FACE('',(#273,#274),#315,.T.);
#332=ADVANCED_FACE('',(#275,#276),#37,.T.);
#333=ADVANCED_FACE('',(#277,#278),#22,.T.);
#334=ADVANCED_FACE('',(#279,#280),#30,.T.);
#335=ADVANCED_FACE('',(#281,#282),#23,.T.);
#336=ADVANCED_FACE('',(#283,#284),#38,.T.);
#337=ADVANCED_FACE('',(#285,#286),#316,.F.);
#338=ADVANCED_FACE('',(#287,#288),#39,.T.);
#339=ADVANCED_FACE('',(#289,#290),#31,.T.);
#340=ADVANCED_FACE('',(#291,#292),#317,.T.);
#341=ADVANCED_FACE('',(#293,#294),#24,.T.);
#342=ADVANCED_FACE('',(#295,#296),#32,.T.);
#343=ADVANCED_FACE('',(#297,#298),#25,.F.);
#344=ADVANCED_FACE('',(#299,#300),#318,.T.);
#345=ADVANCED_FACE('',(#301,#302),#26,.F.);
#346=ADVANCED_FACE('',(#303,#304),#33,.T.);
#347=ADVANCED_FACE('',(#305,#306),#27,.T.);
#348=ADVANCED_FACE('',(#307,#308),#319,.T.);
#349=ADVANCED_FACE('',(#309,#310),#40,.T.);
#350=CLOSED_SHELL('',(#320,#321,#322,#323,#324,#325,#326,#327,#328,#329,
#330,#331,#332,#333,#334,#335,#336,#337,#338,#339,#340,#341,#342,#343,#344,
#345,#346,#347,#348,#349));
#351=STYLED_ITEM('',(#352),#359);
#352=PRESENTATION_STYLE_ASSIGNMENT((#353));
#353=SURFACE_STYLE_USAGE(.BOTH.,#354);
#354=SURFACE_SIDE_STYLE('',(#355));
#355=SURFACE_STYLE_FILL_AREA(#356);
#356=FILL_AREA_STYLE('',(#357));
#357=FILL_AREA_STYLE_COLOUR('',#358);
#358=COLOUR_RGB('',0.689999997615814,0.689999997615814,0.689999997615814);
#359=MANIFOLD_SOLID_BREP('7215 KSV-PK-3',#350);
#360=SHAPE_DEFINITION_REPRESENTATION(#642,#361);
#361=SHAPE_REPRESENTATION('7215 KSV-PK-3',(#362),#637);
#362=AXIS2_PLACEMENT_3D('',#545,#423,#424);
#363=AXIS2_PLACEMENT_3D('',#546,#425,#426);
#364=AXIS2_PLACEMENT_3D('',#547,#427,#428);
#365=AXIS2_PLACEMENT_3D('',#549,#429,#430);
#366=AXIS2_PLACEMENT_3D('',#551,#431,#432);
#367=AXIS2_PLACEMENT_3D('',#552,#433,#434);
#368=AXIS2_PLACEMENT_3D('',#554,#435,#436);
#369=AXIS2_PLACEMENT_3D('',#555,#437,#438);
#370=AXIS2_PLACEMENT_3D('',#557,#439,#440);
#371=AXIS2_PLACEMENT_3D('',#558,#441,#442);
#372=AXIS2_PLACEMENT_3D('',#560,#443,#444);
#373=AXIS2_PLACEMENT_3D('',#561,#445,#446);
#374=AXIS2_PLACEMENT_3D('',#563,#447,#448);
#375=AXIS2_PLACEMENT_3D('',#564,#449,#450);
#376=AXIS2_PLACEMENT_3D('',#566,#451,#452);
#377=AXIS2_PLACEMENT_3D('',#567,#453,#454);
#378=AXIS2_PLACEMENT_3D('',#569,#455,#456);
#379=AXIS2_PLACEMENT_3D('',#570,#457,#458);
#380=AXIS2_PLACEMENT_3D('',#572,#459,#460);
#381=AXIS2_PLACEMENT_3D('',#573,#461,#462);
#382=AXIS2_PLACEMENT_3D('',#575,#463,#464);
#383=AXIS2_PLACEMENT_3D('',#576,#465,#466);
#384=AXIS2_PLACEMENT_3D('',#578,#467,#468);
#385=AXIS2_PLACEMENT_3D('',#579,#469,#470);
#386=AXIS2_PLACEMENT_3D('',#581,#471,#472);
#387=AXIS2_PLACEMENT_3D('',#582,#473,#474);
#388=AXIS2_PLACEMENT_3D('',#584,#475,#476);
#389=AXIS2_PLACEMENT_3D('',#585,#477,#478);
#390=AXIS2_PLACEMENT_3D('',#587,#479,#480);
#391=AXIS2_PLACEMENT_3D('',#588,#481,#482);
#392=AXIS2_PLACEMENT_3D('',#590,#483,#484);
#393=AXIS2_PLACEMENT_3D('',#591,#485,#486);
#394=AXIS2_PLACEMENT_3D('',#593,#487,#488);
#395=AXIS2_PLACEMENT_3D('',#594,#489,#490);
#396=AXIS2_PLACEMENT_3D('',#596,#491,#492);
#397=AXIS2_PLACEMENT_3D('',#597,#493,#494);
#398=AXIS2_PLACEMENT_3D('',#599,#495,#496);
#399=AXIS2_PLACEMENT_3D('',#600,#497,#498);
#400=AXIS2_PLACEMENT_3D('',#602,#499,#500);
#401=AXIS2_PLACEMENT_3D('',#603,#501,#502);
#402=AXIS2_PLACEMENT_3D('',#605,#503,#504);
#403=AXIS2_PLACEMENT_3D('',#606,#505,#506);
#404=AXIS2_PLACEMENT_3D('',#608,#507,#508);
#405=AXIS2_PLACEMENT_3D('',#609,#509,#510);
#406=AXIS2_PLACEMENT_3D('',#611,#511,#512);
#407=AXIS2_PLACEMENT_3D('',#612,#513,#514);
#408=AXIS2_PLACEMENT_3D('',#614,#515,#516);
#409=AXIS2_PLACEMENT_3D('',#615,#517,#518);
#410=AXIS2_PLACEMENT_3D('',#617,#519,#520);
#411=AXIS2_PLACEMENT_3D('',#618,#521,#522);
#412=AXIS2_PLACEMENT_3D('',#620,#523,#524);
#413=AXIS2_PLACEMENT_3D('',#621,#525,#526);
#414=AXIS2_PLACEMENT_3D('',#623,#527,#528);
#415=AXIS2_PLACEMENT_3D('',#624,#529,#530);
#416=AXIS2_PLACEMENT_3D('',#626,#531,#532);
#417=AXIS2_PLACEMENT_3D('',#627,#533,#534);
#418=AXIS2_PLACEMENT_3D('',#629,#535,#536);
#419=AXIS2_PLACEMENT_3D('',#630,#537,#538);
#420=AXIS2_PLACEMENT_3D('',#632,#539,#540);
#421=AXIS2_PLACEMENT_3D('',#633,#541,#542);
#422=AXIS2_PLACEMENT_3D('',#635,#543,#544);
#423=DIRECTION('',(0.,0.,1.));
#424=DIRECTION('',(1.,0.,0.));
#425=DIRECTION('',(6.12323399573677E-17,1.,0.));
#426=DIRECTION('',(-1.,6.12323399573677E-17,0.));
#427=DIRECTION('',(6.12323399573677E-17,1.,0.));
#428=DIRECTION('',(-1.,6.12323399573677E-17,0.));
#429=DIRECTION('',(6.12323399573677E-17,1.,0.));
#430=DIRECTION('',(-1.,6.12323399573677E-17,0.));
#431=DIRECTION('',(-6.12323399573677E-17,-1.,0.));
#432=DIRECTION('',(1.,-6.12323399573677E-17,0.));
#433=DIRECTION('',(6.12323399573677E-17,1.,0.));
#434=DIRECTION('',(-1.,6.12323399573677E-17,0.));
#435=DIRECTION('',(6.12323399573677E-17,1.,0.));
#436=DIRECTION('',(-1.,6.12323399573677E-17,0.));
#437=DIRECTION('',(6.12323399573677E-17,1.,0.));
#438=DIRECTION('',(-1.,6.12323399573677E-17,0.));
#439=DIRECTION('',(6.12323399573677E-17,1.,0.));
#440=DIRECTION('',(-1.,6.12323399573677E-17,0.));
#441=DIRECTION('',(6.12323399573677E-17,1.,0.));
#442=DIRECTION('',(-1.,6.12323399573677E-17,0.));
#443=DIRECTION('',(6.12323399573677E-17,1.,0.));
#444=DIRECTION('',(-1.,6.12323399573677E-17,0.));
#445=DIRECTION('',(6.12323399573677E-17,1.,0.));
#446=DIRECTION('',(-1.,6.12323399573677E-17,0.));
#447=DIRECTION('',(6.12323399573677E-17,1.,0.));
#448=DIRECTION('',(-1.,6.12323399573677E-17,0.));
#449=DIRECTION('',(6.12323399573677E-17,1.,0.));
#450=DIRECTION('',(-1.,6.12323399573677E-17,0.));
#451=DIRECTION('',(-6.12323399573677E-17,-1.,0.));
#452=DIRECTION('',(1.,-6.12323399573677E-17,0.));
#453=DIRECTION('',(6.12323399573677E-17,1.,0.));
#454=DIRECTION('',(-1.,6.12323399573677E-17,0.));
#455=DIRECTION('',(6.12323399573677E-17,1.,0.));
#456=DIRECTION('',(-1.,6.12323399573677E-17,0.));
#457=DIRECTION('',(6.12323399573677E-17,1.,0.));
#458=DIRECTION('',(-1.,6.12323399573677E-17,0.));
#459=DIRECTION('',(6.12323399573677E-17,1.,0.));
#460=DIRECTION('',(-1.,6.12323399573677E-17,0.));
#461=DIRECTION('',(6.12323399573677E-17,1.,0.));
#462=DIRECTION('',(-1.,6.12323399573677E-17,0.));
#463=DIRECTION('',(6.12323399573677E-17,1.,0.));
#464=DIRECTION('',(-1.,6.12323399573677E-17,0.));
#465=DIRECTION('',(6.12323399573677E-17,1.,0.));
#466=DIRECTION('',(-1.,6.12323399573677E-17,0.));
#467=DIRECTION('',(6.12323399573677E-17,1.,0.));
#468=DIRECTION('',(-1.,6.12323399573677E-17,0.));
#469=DIRECTION('',(6.12323399573677E-17,1.,0.));
#470=DIRECTION('',(-1.,6.12323399573677E-17,0.));
#471=DIRECTION('',(6.12323399573677E-17,1.,0.));
#472=DIRECTION('',(-1.,6.12323399573677E-17,0.));
#473=DIRECTION('',(6.12323399573677E-17,1.,0.));
#474=DIRECTION('',(-1.,6.12323399573677E-17,0.));
#475=DIRECTION('',(6.12323399573677E-17,1.,0.));
#476=DIRECTION('',(-1.,6.12323399573677E-17,0.));
#477=DIRECTION('',(6.12323399573677E-17,1.,0.));
#478=DIRECTION('',(-1.,6.12323399573677E-17,0.));
#479=DIRECTION('',(6.12323399573677E-17,1.,0.));
#480=DIRECTION('',(-1.,6.12323399573677E-17,0.));
#481=DIRECTION('',(6.12323399573677E-17,1.,0.));
#482=DIRECTION('',(-1.,6.12323399573677E-17,0.));
#483=DIRECTION('',(6.12323399573677E-17,1.,0.));
#484=DIRECTION('',(-1.,6.12323399573677E-17,0.));
#485=DIRECTION('',(6.12323399573677E-17,1.,0.));
#486=DIRECTION('',(-1.,6.12323399573677E-17,0.));
#487=DIRECTION('',(6.12323399573677E-17,1.,0.));
#488=DIRECTION('',(-1.,6.12323399573677E-17,0.));
#489=DIRECTION('',(6.12323399573677E-17,1.,0.));
#490=DIRECTION('',(-1.,6.12323399573677E-17,0.));
#491=DIRECTION('',(-6.12323399573677E-17,-1.,0.));
#492=DIRECTION('',(1.,-6.12323399573677E-17,0.));
#493=DIRECTION('',(6.12323399573677E-17,1.,0.));
#494=DIRECTION('',(-1.,6.12323399573677E-17,0.));
#495=DIRECTION('',(6.12323399573677E-17,1.,0.));
#496=DIRECTION('',(-1.,6.12323399573677E-17,0.));
#497=DIRECTION('',(6.12323399573677E-17,1.,0.));
#498=DIRECTION('',(-1.,6.12323399573677E-17,0.));
#499=DIRECTION('',(6.12323399573677E-17,1.,0.));
#500=DIRECTION('',(-1.,6.12323399573677E-17,0.));
#501=DIRECTION('',(6.12323399573677E-17,1.,0.));
#502=DIRECTION('',(-1.,6.12323399573677E-17,0.));
#503=DIRECTION('',(-6.12323399573677E-17,-1.,0.));
#504=DIRECTION('',(1.,-6.12323399573677E-17,0.));
#505=DIRECTION('',(6.12323399573677E-17,1.,0.));
#506=DIRECTION('',(-1.,6.12323399573677E-17,0.));
#507=DIRECTION('',(6.12323399573677E-17,1.,0.));
#508=DIRECTION('',(-1.,6.12323399573677E-17,0.));
#509=DIRECTION('',(6.12323399573677E-17,1.,0.));
#510=DIRECTION('',(-1.,6.12323399573677E-17,0.));
#511=DIRECTION('',(6.12323399573677E-17,1.,0.));
#512=DIRECTION('',(-1.,6.12323399573677E-17,0.));
#513=DIRECTION('',(6.12323399573677E-17,1.,0.));
#514=DIRECTION('',(-1.,6.12323399573677E-17,0.));
#515=DIRECTION('',(6.12323399573677E-17,1.,0.));
#516=DIRECTION('',(-1.,6.12323399573677E-17,0.));
#517=DIRECTION('',(6.12323399573677E-17,1.,0.));
#518=DIRECTION('',(-1.,6.12323399573677E-17,0.));
#519=DIRECTION('',(6.12323399573677E-17,1.,0.));
#520=DIRECTION('',(-1.,6.12323399573677E-17,0.));
#521=DIRECTION('',(6.12323399573677E-17,1.,0.));
#522=DIRECTION('',(-1.,6.12323399573677E-17,0.));
#523=DIRECTION('',(6.12323399573677E-17,1.,0.));
#524=DIRECTION('',(-1.,6.12323399573677E-17,0.));
#525=DIRECTION('',(6.12323399573677E-17,1.,0.));
#526=DIRECTION('',(-1.,6.12323399573677E-17,0.));
#527=DIRECTION('',(6.12323399573677E-17,1.,0.));
#528=DIRECTION('',(-1.,6.12323399573677E-17,0.));
#529=DIRECTION('',(6.12323399573677E-17,1.,0.));
#530=DIRECTION('',(-1.,6.12323399573677E-17,0.));
#531=DIRECTION('',(-6.12323399573677E-17,-1.,0.));
#532=DIRECTION('',(1.,-6.12323399573677E-17,0.));
#533=DIRECTION('',(6.12323399573677E-17,1.,0.));
#534=DIRECTION('',(-1.,6.12323399573677E-17,0.));
#535=DIRECTION('',(6.12323399573677E-17,1.,0.));
#536=DIRECTION('',(-1.,6.12323399573677E-17,0.));
#537=DIRECTION('',(6.12323399573677E-17,1.,0.));
#538=DIRECTION('',(-1.,6.12323399573677E-17,0.));
#539=DIRECTION('',(6.12323399573677E-17,1.,0.));
#540=DIRECTION('',(-1.,6.12323399573677E-17,0.));
#541=DIRECTION('',(6.12323399573677E-17,1.,0.));
#542=DIRECTION('',(-1.,6.12323399573677E-17,0.));
#543=DIRECTION('',(6.12323399573677E-17,1.,0.));
#544=DIRECTION('',(-1.,6.12323399573677E-17,0.));
#545=CARTESIAN_POINT('',(0.,0.,0.));
#546=CARTESIAN_POINT('',(1.83697019872103E-15,30.,0.));
#547=CARTESIAN_POINT('',(8.69499227394621E-16,14.2,0.));
#548=CARTESIAN_POINT('',(-4.,14.2,0.));
#549=CARTESIAN_POINT('',(1.25526296912604E-15,20.5,0.));
#550=CARTESIAN_POINT('',(-4.,20.5,0.));
#551=CARTESIAN_POINT('',(-4.,14.2,0.));
#552=CARTESIAN_POINT('',(8.69499227394621E-16,14.2,0.));
#553=CARTESIAN_POINT('',(-2.75,14.2,0.));
#554=CARTESIAN_POINT('',(1.83697019872103E-15,30.,0.));
#555=CARTESIAN_POINT('',(7.04171909509728E-16,11.5,0.));
#556=CARTESIAN_POINT('',(-2.75,11.5,0.));
#557=CARTESIAN_POINT('',(-2.75,11.5,0.));
#558=CARTESIAN_POINT('',(7.04171909509728E-16,11.5,0.));
#559=CARTESIAN_POINT('',(-3.,11.5,0.));
#560=CARTESIAN_POINT('',(1.83697019872103E-15,30.,0.));
#561=CARTESIAN_POINT('',(6.12323399573677E-16,10.,0.));
#562=CARTESIAN_POINT('',(-3.,10.,0.));
#563=CARTESIAN_POINT('',(6.12323399573677E-16,10.,0.));
#564=CARTESIAN_POINT('',(5.20474889637625E-16,8.5,0.));
#565=CARTESIAN_POINT('',(-2.13397459621556,8.5,0.));
#566=CARTESIAN_POINT('',(-2.13397459621556,8.5,0.));
#567=CARTESIAN_POINT('',(5.20474889637625E-16,8.5,0.));
#568=CARTESIAN_POINT('',(-2.,8.5,0.));
#569=CARTESIAN_POINT('',(4.33680868994202E-16,8.3,0.));
#570=CARTESIAN_POINT('',(5.08228421646152E-16,8.3,0.));
#571=CARTESIAN_POINT('',(-1.8,8.3,0.));
#572=CARTESIAN_POINT('',(1.83697019872103E-15,30.,0.));
#573=CARTESIAN_POINT('',(3.3983948676339E-16,5.55,0.));
#574=CARTESIAN_POINT('',(-1.8,5.55,0.));
#575=CARTESIAN_POINT('',(3.3983948676339E-16,5.55,0.));
#576=CARTESIAN_POINT('',(3.25056692205299E-16,5.30857864376269,0.));
#577=CARTESIAN_POINT('',(-1.55857864376269,5.30857864376269,0.));
#578=CARTESIAN_POINT('',(2.16840434497101E-16,5.16715728752538,0.));
#579=CARTESIAN_POINT('',(3.16397131642944E-16,5.16715728752538,0.));
#580=CARTESIAN_POINT('',(-1.5,5.16715728752538,0.));
#581=CARTESIAN_POINT('',(1.83697019872103E-15,30.,0.));
#582=CARTESIAN_POINT('',(6.12323399573675E-17,1.,0.));
#583=CARTESIAN_POINT('',(-1.5,1.,0.));
#584=CARTESIAN_POINT('',(-1.5,1.,0.));
#585=CARTESIAN_POINT('',(6.12323399573675E-17,1.,0.));
#586=CARTESIAN_POINT('',(-1.68728150418579,1.,0.));
#587=CARTESIAN_POINT('',(0.,0.9,0.));
#588=CARTESIAN_POINT('',(5.32169225964137E-17,0.869098300562504,0.));
#589=CARTESIAN_POINT('',(-1.7823871558153,0.869098300562504,0.));
#590=CARTESIAN_POINT('',(5.32169225964137E-17,0.869098300562504,0.));
#591=CARTESIAN_POINT('',(8.46210126103931E-18,0.138196601125011,0.));
#592=CARTESIAN_POINT('',(-1.54490279765796,0.138196601125011,0.));
#593=CARTESIAN_POINT('',(0.,0.2,0.));
#594=CARTESIAN_POINT('',(0.,0.,0.));
#595=CARTESIAN_POINT('',(-1.35469149439893,8.29509301223896E-17,0.));
#596=CARTESIAN_POINT('',(-1.35469149439893,1.36343155153676E-16,0.));
#597=CARTESIAN_POINT('',(0.,0.,0.));
#598=CARTESIAN_POINT('',(-1.25,7.65404249467096E-17,0.));
#599=CARTESIAN_POINT('',(1.83697019872103E-15,30.,0.));
#600=CARTESIAN_POINT('',(1.83697019872103E-15,30.,0.));
#601=CARTESIAN_POINT('',(-1.25,30.,0.));
#602=CARTESIAN_POINT('',(-1.25,30.,0.));
#603=CARTESIAN_POINT('',(1.83697019872103E-15,30.,0.));
#604=CARTESIAN_POINT('',(-2.8856406460551,30.,0.));
#605=CARTESIAN_POINT('',(1.83697019872103E-15,30.,0.));
#606=CARTESIAN_POINT('',(1.78798432675514E-15,29.2,0.));
#607=CARTESIAN_POINT('',(-3.1,29.2,0.));
#608=CARTESIAN_POINT('',(1.83697019872103E-15,30.,0.));
#609=CARTESIAN_POINT('',(1.77179754055555E-15,28.9356497202156,0.));
#610=CARTESIAN_POINT('',(-3.1,28.9356497202156,0.));
#611=CARTESIAN_POINT('',(1.73472347597681E-15,28.9356497202156,0.));
#612=CARTESIAN_POINT('',(1.75956785592284E-15,28.7359238132647,0.));
#613=CARTESIAN_POINT('',(-2.91046719124859,28.7359238132647,0.));
#614=CARTESIAN_POINT('',(1.75956785592284E-15,28.7359238132647,0.));
#615=CARTESIAN_POINT('',(1.75797637721785E-15,28.7099329936079,0.));
#616=CARTESIAN_POINT('',(-2.41453280875141,28.7099329936079,0.));
#617=CARTESIAN_POINT('',(1.73472347597681E-15,28.510207086657,0.));
#618=CARTESIAN_POINT('',(1.74574669258514E-15,28.510207086657,0.));
#619=CARTESIAN_POINT('',(-2.225,28.510207086657,0.));
#620=CARTESIAN_POINT('',(1.83697019872103E-15,30.,0.));
#621=CARTESIAN_POINT('',(1.68938757902319E-15,27.589792913343,0.));
#622=CARTESIAN_POINT('',(-2.225,27.589792913343,0.));
#623=CARTESIAN_POINT('',(1.73472347597681E-15,27.589792913343,0.));
#624=CARTESIAN_POINT('',(1.67715789439048E-15,27.3900670063921,0.));
#625=CARTESIAN_POINT('',(-2.41453280875141,27.3900670063921,0.));
#626=CARTESIAN_POINT('',(1.67715789439048E-15,27.3900670063921,0.));
#627=CARTESIAN_POINT('',(1.67556641568548E-15,27.3640761867353,0.));
#628=CARTESIAN_POINT('',(-2.91046719124859,27.3640761867353,0.));
#629=CARTESIAN_POINT('',(1.73472347597681E-15,27.1643502797844,0.));
#630=CARTESIAN_POINT('',(1.66333673105277E-15,27.1643502797844,0.));
#631=CARTESIAN_POINT('',(-3.1,27.1643502797844,0.));
#632=CARTESIAN_POINT('',(1.83697019872103E-15,30.,0.));
#633=CARTESIAN_POINT('',(1.25526296912604E-15,20.5,0.));
#634=CARTESIAN_POINT('',(-3.1,20.5,0.));
#635=CARTESIAN_POINT('',(-3.1,20.5,0.));
#636=MECHANICAL_DESIGN_GEOMETRIC_PRESENTATION_REPRESENTATION('',(#351),
#637);
#637=(
GEOMETRIC_REPRESENTATION_CONTEXT(3)
GLOBAL_UNCERTAINTY_ASSIGNED_CONTEXT((#638))
GLOBAL_UNIT_ASSIGNED_CONTEXT((#641,#640,#639))
REPRESENTATION_CONTEXT('7215 KSV-PK-3','TOP_LEVEL_ASSEMBLY_PART')
);
#638=UNCERTAINTY_MEASURE_WITH_UNIT(LENGTH_MEASURE(0.005),#641,
'DISTANCE_ACCURACY_VALUE','Maximum Tolerance applied to model');
#639=(
NAMED_UNIT(*)
SI_UNIT($,.STERADIAN.)
SOLID_ANGLE_UNIT()
);
#640=(
NAMED_UNIT(*)
PLANE_ANGLE_UNIT()
SI_UNIT($,.RADIAN.)
);
#641=(
LENGTH_UNIT()
NAMED_UNIT(*)
SI_UNIT(.MILLI.,.METRE.)
);
#642=PRODUCT_DEFINITION_SHAPE('','',#643);
#643=PRODUCT_DEFINITION('','',#645,#644);
#644=PRODUCT_DEFINITION_CONTEXT('',#651,'design');
#645=PRODUCT_DEFINITION_FORMATION_WITH_SPECIFIED_SOURCE('','',#647,
 .NOT_KNOWN.);
#646=PRODUCT_RELATED_PRODUCT_CATEGORY('','',(#647));
#647=PRODUCT('7215 KSV-PK-3','7215 KSV-PK-3','7215 KSV-PK-3',(#649));
#648=PRODUCT_CATEGORY('','');
#649=PRODUCT_CONTEXT('',#651,'mechanical');
#650=APPLICATION_PROTOCOL_DEFINITION('international standard',
'automotive_design',2010,#651);
#651=APPLICATION_CONTEXT(
'core data for automotive mechanical design processes');
ENDSEC;
END-ISO-10303-21;
