ISO-10303-21;
HEADER;
/* Generated by software containing ST-Developer
 * from STEP Tools, Inc. (www.steptools.com) 
 */
/* OPTION: using custom renumber hook */

FILE_DESCRIPTION(
/* description */ ('STEP AP214'),
/* implementation_level */ '2;1');

FILE_NAME(
/* name */ '7216_KSV-PK-4',
/* time_stamp */ '2024-08-21T10:16:21+02:00',
/* author */ ('License CC BY-ND 4.0'),
/* organization */ ('CADENAS'),
/* preprocessor_version */ 'ST-DEVELOPER v19.3',
/* originating_system */ 'PARTsolutions',
/* authorisation */ '  ');

FILE_SCHEMA (('AUTOMOTIVE_DESIGN {1 0 10303 214 3 1 1}'));
ENDSEC;

DATA;
#10=PROPERTY_DEFINITION_REPRESENTATION(#14,#12);
#11=PROPERTY_DEFINITION_REPRESENTATION(#15,#13);
#12=REPRESENTATION('',(#16),#597);
#13=REPRESENTATION('',(#17),#597);
#14=PROPERTY_DEFINITION('pmi validation property','',#602);
#15=PROPERTY_DEFINITION('pmi validation property','',#602);
#16=VALUE_REPRESENTATION_ITEM('number of annotations',COUNT_MEASURE(0.));
#17=VALUE_REPRESENTATION_ITEM('number of views',COUNT_MEASURE(0.));
#18=SHAPE_REPRESENTATION_RELATIONSHIP('','',#339,#19);
#19=ADVANCED_BREP_SHAPE_REPRESENTATION('',(#337),#597);
#20=TOROIDAL_SURFACE('',#358,2.20000000000001,0.200000000000007);
#21=TOROIDAL_SURFACE('',#364,2.30933910044325,0.0999999999999998);
#22=TOROIDAL_SURFACE('',#368,1.8725859478385,0.2);
#23=TOROIDAL_SURFACE('',#380,2.9,0.199999999999999);
#24=TOROIDAL_SURFACE('',#384,2.425,0.200000000000004);
#25=TOROIDAL_SURFACE('',#388,2.425,0.199999999999998);
#26=TOROIDAL_SURFACE('',#392,2.90000000000001,0.199999999999993);
#27=CONICAL_SURFACE('',#352,3.,0.523598775598299);
#28=CONICAL_SURFACE('',#356,2.4,0.785398163397449);
#29=CONICAL_SURFACE('',#366,2.39996987914691,0.436332312998584);
#30=CONICAL_SURFACE('',#376,2.8856406460551,0.26179938779915);
#31=CONICAL_SURFACE('',#382,2.91046719124859,1.51843644923507);
#32=CONICAL_SURFACE('',#390,2.41453280875141,1.51843644923507);
#33=PLANE('',#344);
#34=PLANE('',#348);
#35=PLANE('',#362);
#36=PLANE('',#370);
#37=PLANE('',#374);
#38=PLANE('',#396);
#39=ORIENTED_EDGE('',*,*,#95,.T.);
#40=ORIENTED_EDGE('',*,*,#96,.F.);
#41=ORIENTED_EDGE('',*,*,#97,.T.);
#42=ORIENTED_EDGE('',*,*,#95,.F.);
#43=ORIENTED_EDGE('',*,*,#98,.T.);
#44=ORIENTED_EDGE('',*,*,#97,.F.);
#45=ORIENTED_EDGE('',*,*,#99,.T.);
#46=ORIENTED_EDGE('',*,*,#98,.F.);
#47=ORIENTED_EDGE('',*,*,#100,.T.);
#48=ORIENTED_EDGE('',*,*,#99,.F.);
#49=ORIENTED_EDGE('',*,*,#101,.T.);
#50=ORIENTED_EDGE('',*,*,#100,.F.);
#51=ORIENTED_EDGE('',*,*,#102,.T.);
#52=ORIENTED_EDGE('',*,*,#101,.F.);
#53=ORIENTED_EDGE('',*,*,#103,.T.);
#54=ORIENTED_EDGE('',*,*,#102,.F.);
#55=ORIENTED_EDGE('',*,*,#103,.F.);
#56=ORIENTED_EDGE('',*,*,#104,.T.);
#57=ORIENTED_EDGE('',*,*,#105,.T.);
#58=ORIENTED_EDGE('',*,*,#104,.F.);
#59=ORIENTED_EDGE('',*,*,#106,.T.);
#60=ORIENTED_EDGE('',*,*,#105,.F.);
#61=ORIENTED_EDGE('',*,*,#107,.T.);
#62=ORIENTED_EDGE('',*,*,#106,.F.);
#63=ORIENTED_EDGE('',*,*,#108,.T.);
#64=ORIENTED_EDGE('',*,*,#107,.F.);
#65=ORIENTED_EDGE('',*,*,#109,.T.);
#66=ORIENTED_EDGE('',*,*,#108,.F.);
#67=ORIENTED_EDGE('',*,*,#110,.T.);
#68=ORIENTED_EDGE('',*,*,#109,.F.);
#69=ORIENTED_EDGE('',*,*,#111,.T.);
#70=ORIENTED_EDGE('',*,*,#110,.F.);
#71=ORIENTED_EDGE('',*,*,#112,.T.);
#72=ORIENTED_EDGE('',*,*,#111,.F.);
#73=ORIENTED_EDGE('',*,*,#113,.T.);
#74=ORIENTED_EDGE('',*,*,#112,.F.);
#75=ORIENTED_EDGE('',*,*,#114,.T.);
#76=ORIENTED_EDGE('',*,*,#113,.F.);
#77=ORIENTED_EDGE('',*,*,#115,.T.);
#78=ORIENTED_EDGE('',*,*,#114,.F.);
#79=ORIENTED_EDGE('',*,*,#116,.T.);
#80=ORIENTED_EDGE('',*,*,#115,.F.);
#81=ORIENTED_EDGE('',*,*,#116,.F.);
#82=ORIENTED_EDGE('',*,*,#117,.T.);
#83=ORIENTED_EDGE('',*,*,#118,.T.);
#84=ORIENTED_EDGE('',*,*,#117,.F.);
#85=ORIENTED_EDGE('',*,*,#118,.F.);
#86=ORIENTED_EDGE('',*,*,#119,.T.);
#87=ORIENTED_EDGE('',*,*,#120,.T.);
#88=ORIENTED_EDGE('',*,*,#119,.F.);
#89=ORIENTED_EDGE('',*,*,#121,.T.);
#90=ORIENTED_EDGE('',*,*,#120,.F.);
#91=ORIENTED_EDGE('',*,*,#122,.T.);
#92=ORIENTED_EDGE('',*,*,#121,.F.);
#93=ORIENTED_EDGE('',*,*,#96,.T.);
#94=ORIENTED_EDGE('',*,*,#122,.F.);
#95=EDGE_CURVE('',#123,#123,#151,.T.);
#96=EDGE_CURVE('',#124,#124,#152,.T.);
#97=EDGE_CURVE('',#125,#125,#153,.T.);
#98=EDGE_CURVE('',#126,#126,#154,.T.);
#99=EDGE_CURVE('',#127,#127,#155,.T.);
#100=EDGE_CURVE('',#128,#128,#156,.T.);
#101=EDGE_CURVE('',#129,#129,#157,.T.);
#102=EDGE_CURVE('',#130,#130,#158,.T.);
#103=EDGE_CURVE('',#131,#131,#159,.T.);
#104=EDGE_CURVE('',#132,#132,#160,.T.);
#105=EDGE_CURVE('',#133,#133,#161,.T.);
#106=EDGE_CURVE('',#134,#134,#162,.T.);
#107=EDGE_CURVE('',#135,#135,#163,.T.);
#108=EDGE_CURVE('',#136,#136,#164,.T.);
#109=EDGE_CURVE('',#137,#137,#165,.T.);
#110=EDGE_CURVE('',#138,#138,#166,.T.);
#111=EDGE_CURVE('',#139,#139,#167,.T.);
#112=EDGE_CURVE('',#140,#140,#168,.T.);
#113=EDGE_CURVE('',#141,#141,#169,.T.);
#114=EDGE_CURVE('',#142,#142,#170,.T.);
#115=EDGE_CURVE('',#143,#143,#171,.T.);
#116=EDGE_CURVE('',#144,#144,#172,.T.);
#117=EDGE_CURVE('',#145,#145,#173,.T.);
#118=EDGE_CURVE('',#146,#146,#174,.T.);
#119=EDGE_CURVE('',#147,#147,#175,.T.);
#120=EDGE_CURVE('',#148,#148,#176,.T.);
#121=EDGE_CURVE('',#149,#149,#177,.T.);
#122=EDGE_CURVE('',#150,#150,#178,.T.);
#123=VERTEX_POINT('',#514);
#124=VERTEX_POINT('',#516);
#125=VERTEX_POINT('',#519);
#126=VERTEX_POINT('',#522);
#127=VERTEX_POINT('',#525);
#128=VERTEX_POINT('',#528);
#129=VERTEX_POINT('',#531);
#130=VERTEX_POINT('',#534);
#131=VERTEX_POINT('',#537);
#132=VERTEX_POINT('',#540);
#133=VERTEX_POINT('',#543);
#134=VERTEX_POINT('',#546);
#135=VERTEX_POINT('',#549);
#136=VERTEX_POINT('',#552);
#137=VERTEX_POINT('',#555);
#138=VERTEX_POINT('',#558);
#139=VERTEX_POINT('',#561);
#140=VERTEX_POINT('',#564);
#141=VERTEX_POINT('',#567);
#142=VERTEX_POINT('',#570);
#143=VERTEX_POINT('',#573);
#144=VERTEX_POINT('',#576);
#145=VERTEX_POINT('',#579);
#146=VERTEX_POINT('',#582);
#147=VERTEX_POINT('',#585);
#148=VERTEX_POINT('',#588);
#149=VERTEX_POINT('',#591);
#150=VERTEX_POINT('',#594);
#151=CIRCLE('',#342,4.);
#152=CIRCLE('',#343,4.);
#153=CIRCLE('',#345,2.75);
#154=CIRCLE('',#347,2.75);
#155=CIRCLE('',#349,3.);
#156=CIRCLE('',#351,3.);
#157=CIRCLE('',#353,2.4);
#158=CIRCLE('',#355,2.4);
#159=CIRCLE('',#357,2.05857864376269);
#160=CIRCLE('',#359,2.);
#161=CIRCLE('',#361,2.);
#162=CIRCLE('',#363,2.30933910044325);
#163=CIRCLE('',#365,2.39996987914691);
#164=CIRCLE('',#367,2.05384750524583);
#165=CIRCLE('',#369,1.8725859478385);
#166=CIRCLE('',#371,1.7);
#167=CIRCLE('',#373,1.7);
#168=CIRCLE('',#375,2.8856406460551);
#169=CIRCLE('',#377,3.1);
#170=CIRCLE('',#379,3.1);
#171=CIRCLE('',#381,2.91046719124859);
#172=CIRCLE('',#383,2.41453280875141);
#173=CIRCLE('',#385,2.225);
#174=CIRCLE('',#387,2.225);
#175=CIRCLE('',#389,2.41453280875141);
#176=CIRCLE('',#391,2.91046719124859);
#177=CIRCLE('',#393,3.1);
#178=CIRCLE('',#395,3.1);
#179=EDGE_LOOP('',(#39));
#180=EDGE_LOOP('',(#40));
#181=EDGE_LOOP('',(#41));
#182=EDGE_LOOP('',(#42));
#183=EDGE_LOOP('',(#43));
#184=EDGE_LOOP('',(#44));
#185=EDGE_LOOP('',(#45));
#186=EDGE_LOOP('',(#46));
#187=EDGE_LOOP('',(#47));
#188=EDGE_LOOP('',(#48));
#189=EDGE_LOOP('',(#49));
#190=EDGE_LOOP('',(#50));
#191=EDGE_LOOP('',(#51));
#192=EDGE_LOOP('',(#52));
#193=EDGE_LOOP('',(#53));
#194=EDGE_LOOP('',(#54));
#195=EDGE_LOOP('',(#55));
#196=EDGE_LOOP('',(#56));
#197=EDGE_LOOP('',(#57));
#198=EDGE_LOOP('',(#58));
#199=EDGE_LOOP('',(#59));
#200=EDGE_LOOP('',(#60));
#201=EDGE_LOOP('',(#61));
#202=EDGE_LOOP('',(#62));
#203=EDGE_LOOP('',(#63));
#204=EDGE_LOOP('',(#64));
#205=EDGE_LOOP('',(#65));
#206=EDGE_LOOP('',(#66));
#207=EDGE_LOOP('',(#67));
#208=EDGE_LOOP('',(#68));
#209=EDGE_LOOP('',(#69));
#210=EDGE_LOOP('',(#70));
#211=EDGE_LOOP('',(#71));
#212=EDGE_LOOP('',(#72));
#213=EDGE_LOOP('',(#73));
#214=EDGE_LOOP('',(#74));
#215=EDGE_LOOP('',(#75));
#216=EDGE_LOOP('',(#76));
#217=EDGE_LOOP('',(#77));
#218=EDGE_LOOP('',(#78));
#219=EDGE_LOOP('',(#79));
#220=EDGE_LOOP('',(#80));
#221=EDGE_LOOP('',(#81));
#222=EDGE_LOOP('',(#82));
#223=EDGE_LOOP('',(#83));
#224=EDGE_LOOP('',(#84));
#225=EDGE_LOOP('',(#85));
#226=EDGE_LOOP('',(#86));
#227=EDGE_LOOP('',(#87));
#228=EDGE_LOOP('',(#88));
#229=EDGE_LOOP('',(#89));
#230=EDGE_LOOP('',(#90));
#231=EDGE_LOOP('',(#91));
#232=EDGE_LOOP('',(#92));
#233=EDGE_LOOP('',(#93));
#234=EDGE_LOOP('',(#94));
#235=FACE_BOUND('',#179,.T.);
#236=FACE_BOUND('',#180,.T.);
#237=FACE_BOUND('',#181,.T.);
#238=FACE_BOUND('',#182,.T.);
#239=FACE_BOUND('',#183,.T.);
#240=FACE_BOUND('',#184,.T.);
#241=FACE_BOUND('',#185,.T.);
#242=FACE_BOUND('',#186,.T.);
#243=FACE_BOUND('',#187,.T.);
#244=FACE_BOUND('',#188,.T.);
#245=FACE_BOUND('',#189,.T.);
#246=FACE_BOUND('',#190,.T.);
#247=FACE_BOUND('',#191,.T.);
#248=FACE_BOUND('',#192,.T.);
#249=FACE_BOUND('',#193,.T.);
#250=FACE_BOUND('',#194,.T.);
#251=FACE_BOUND('',#195,.T.);
#252=FACE_BOUND('',#196,.T.);
#253=FACE_BOUND('',#197,.T.);
#254=FACE_BOUND('',#198,.T.);
#255=FACE_BOUND('',#199,.T.);
#256=FACE_BOUND('',#200,.T.);
#257=FACE_BOUND('',#201,.T.);
#258=FACE_BOUND('',#202,.T.);
#259=FACE_BOUND('',#203,.T.);
#260=FACE_BOUND('',#204,.T.);
#261=FACE_BOUND('',#205,.T.);
#262=FACE_BOUND('',#206,.T.);
#263=FACE_BOUND('',#207,.T.);
#264=FACE_BOUND('',#208,.T.);
#265=FACE_BOUND('',#209,.T.);
#266=FACE_BOUND('',#210,.T.);
#267=FACE_BOUND('',#211,.T.);
#268=FACE_BOUND('',#212,.T.);
#269=FACE_BOUND('',#213,.T.);
#270=FACE_BOUND('',#214,.T.);
#271=FACE_BOUND('',#215,.T.);
#272=FACE_BOUND('',#216,.T.);
#273=FACE_BOUND('',#217,.T.);
#274=FACE_BOUND('',#218,.T.);
#275=FACE_BOUND('',#219,.T.);
#276=FACE_BOUND('',#220,.T.);
#277=FACE_BOUND('',#221,.T.);
#278=FACE_BOUND('',#222,.T.);
#279=FACE_BOUND('',#223,.T.);
#280=FACE_BOUND('',#224,.T.);
#281=FACE_BOUND('',#225,.T.);
#282=FACE_BOUND('',#226,.T.);
#283=FACE_BOUND('',#227,.T.);
#284=FACE_BOUND('',#228,.T.);
#285=FACE_BOUND('',#229,.T.);
#286=FACE_BOUND('',#230,.T.);
#287=FACE_BOUND('',#231,.T.);
#288=FACE_BOUND('',#232,.T.);
#289=FACE_BOUND('',#233,.T.);
#290=FACE_BOUND('',#234,.T.);
#291=CYLINDRICAL_SURFACE('',#341,4.);
#292=CYLINDRICAL_SURFACE('',#346,2.75);
#293=CYLINDRICAL_SURFACE('',#350,3.);
#294=CYLINDRICAL_SURFACE('',#354,2.4);
#295=CYLINDRICAL_SURFACE('',#360,2.);
#296=CYLINDRICAL_SURFACE('',#372,1.7);
#297=CYLINDRICAL_SURFACE('',#378,3.1);
#298=CYLINDRICAL_SURFACE('',#386,2.225);
#299=CYLINDRICAL_SURFACE('',#394,3.1);
#300=ADVANCED_FACE('',(#235,#236),#291,.T.);
#301=ADVANCED_FACE('',(#237,#238),#33,.T.);
#302=ADVANCED_FACE('',(#239,#240),#292,.T.);
#303=ADVANCED_FACE('',(#241,#242),#34,.T.);
#304=ADVANCED_FACE('',(#243,#244),#293,.T.);
#305=ADVANCED_FACE('',(#245,#246),#27,.T.);
#306=ADVANCED_FACE('',(#247,#248),#294,.T.);
#307=ADVANCED_FACE('',(#249,#250),#28,.T.);
#308=ADVANCED_FACE('',(#251,#252),#20,.F.);
#309=ADVANCED_FACE('',(#253,#254),#295,.T.);
#310=ADVANCED_FACE('',(#255,#256),#35,.T.);
#311=ADVANCED_FACE('',(#257,#258),#21,.T.);
#312=ADVANCED_FACE('',(#259,#260),#29,.T.);
#313=ADVANCED_FACE('',(#261,#262),#22,.T.);
#314=ADVANCED_FACE('',(#263,#264),#36,.T.);
#315=ADVANCED_FACE('',(#265,#266),#296,.F.);
#316=ADVANCED_FACE('',(#267,#268),#37,.T.);
#317=ADVANCED_FACE('',(#269,#270),#30,.T.);
#318=ADVANCED_FACE('',(#271,#272),#297,.T.);
#319=ADVANCED_FACE('',(#273,#274),#23,.T.);
#320=ADVANCED_FACE('',(#275,#276),#31,.T.);
#321=ADVANCED_FACE('',(#277,#278),#24,.F.);
#322=ADVANCED_FACE('',(#279,#280),#298,.T.);
#323=ADVANCED_FACE('',(#281,#282),#25,.F.);
#324=ADVANCED_FACE('',(#283,#284),#32,.T.);
#325=ADVANCED_FACE('',(#285,#286),#26,.T.);
#326=ADVANCED_FACE('',(#287,#288),#299,.T.);
#327=ADVANCED_FACE('',(#289,#290),#38,.T.);
#328=CLOSED_SHELL('',(#300,#301,#302,#303,#304,#305,#306,#307,#308,#309,
#310,#311,#312,#313,#314,#315,#316,#317,#318,#319,#320,#321,#322,#323,#324,
#325,#326,#327));
#329=STYLED_ITEM('',(#330),#337);
#330=PRESENTATION_STYLE_ASSIGNMENT((#331));
#331=SURFACE_STYLE_USAGE(.BOTH.,#332);
#332=SURFACE_SIDE_STYLE('',(#333));
#333=SURFACE_STYLE_FILL_AREA(#334);
#334=FILL_AREA_STYLE('',(#335));
#335=FILL_AREA_STYLE_COLOUR('',#336);
#336=COLOUR_RGB('',0.689999997615814,0.689999997615814,0.689999997615814);
#337=MANIFOLD_SOLID_BREP('7216 KSV-PK-4',#328);
#338=SHAPE_DEFINITION_REPRESENTATION(#602,#339);
#339=SHAPE_REPRESENTATION('7216 KSV-PK-4',(#340),#597);
#340=AXIS2_PLACEMENT_3D('',#511,#397,#398);
#341=AXIS2_PLACEMENT_3D('',#512,#399,#400);
#342=AXIS2_PLACEMENT_3D('',#513,#401,#402);
#343=AXIS2_PLACEMENT_3D('',#515,#403,#404);
#344=AXIS2_PLACEMENT_3D('',#517,#405,#406);
#345=AXIS2_PLACEMENT_3D('',#518,#407,#408);
#346=AXIS2_PLACEMENT_3D('',#520,#409,#410);
#347=AXIS2_PLACEMENT_3D('',#521,#411,#412);
#348=AXIS2_PLACEMENT_3D('',#523,#413,#414);
#349=AXIS2_PLACEMENT_3D('',#524,#415,#416);
#350=AXIS2_PLACEMENT_3D('',#526,#417,#418);
#351=AXIS2_PLACEMENT_3D('',#527,#419,#420);
#352=AXIS2_PLACEMENT_3D('',#529,#421,#422);
#353=AXIS2_PLACEMENT_3D('',#530,#423,#424);
#354=AXIS2_PLACEMENT_3D('',#532,#425,#426);
#355=AXIS2_PLACEMENT_3D('',#533,#427,#428);
#356=AXIS2_PLACEMENT_3D('',#535,#429,#430);
#357=AXIS2_PLACEMENT_3D('',#536,#431,#432);
#358=AXIS2_PLACEMENT_3D('',#538,#433,#434);
#359=AXIS2_PLACEMENT_3D('',#539,#435,#436);
#360=AXIS2_PLACEMENT_3D('',#541,#437,#438);
#361=AXIS2_PLACEMENT_3D('',#542,#439,#440);
#362=AXIS2_PLACEMENT_3D('',#544,#441,#442);
#363=AXIS2_PLACEMENT_3D('',#545,#443,#444);
#364=AXIS2_PLACEMENT_3D('',#547,#445,#446);
#365=AXIS2_PLACEMENT_3D('',#548,#447,#448);
#366=AXIS2_PLACEMENT_3D('',#550,#449,#450);
#367=AXIS2_PLACEMENT_3D('',#551,#451,#452);
#368=AXIS2_PLACEMENT_3D('',#553,#453,#454);
#369=AXIS2_PLACEMENT_3D('',#554,#455,#456);
#370=AXIS2_PLACEMENT_3D('',#556,#457,#458);
#371=AXIS2_PLACEMENT_3D('',#557,#459,#460);
#372=AXIS2_PLACEMENT_3D('',#559,#461,#462);
#373=AXIS2_PLACEMENT_3D('',#560,#463,#464);
#374=AXIS2_PLACEMENT_3D('',#562,#465,#466);
#375=AXIS2_PLACEMENT_3D('',#563,#467,#468);
#376=AXIS2_PLACEMENT_3D('',#565,#469,#470);
#377=AXIS2_PLACEMENT_3D('',#566,#471,#472);
#378=AXIS2_PLACEMENT_3D('',#568,#473,#474);
#379=AXIS2_PLACEMENT_3D('',#569,#475,#476);
#380=AXIS2_PLACEMENT_3D('',#571,#477,#478);
#381=AXIS2_PLACEMENT_3D('',#572,#479,#480);
#382=AXIS2_PLACEMENT_3D('',#574,#481,#482);
#383=AXIS2_PLACEMENT_3D('',#575,#483,#484);
#384=AXIS2_PLACEMENT_3D('',#577,#485,#486);
#385=AXIS2_PLACEMENT_3D('',#578,#487,#488);
#386=AXIS2_PLACEMENT_3D('',#580,#489,#490);
#387=AXIS2_PLACEMENT_3D('',#581,#491,#492);
#388=AXIS2_PLACEMENT_3D('',#583,#493,#494);
#389=AXIS2_PLACEMENT_3D('',#584,#495,#496);
#390=AXIS2_PLACEMENT_3D('',#586,#497,#498);
#391=AXIS2_PLACEMENT_3D('',#587,#499,#500);
#392=AXIS2_PLACEMENT_3D('',#589,#501,#502);
#393=AXIS2_PLACEMENT_3D('',#590,#503,#504);
#394=AXIS2_PLACEMENT_3D('',#592,#505,#506);
#395=AXIS2_PLACEMENT_3D('',#593,#507,#508);
#396=AXIS2_PLACEMENT_3D('',#595,#509,#510);
#397=DIRECTION('',(0.,0.,1.));
#398=DIRECTION('',(1.,0.,0.));
#399=DIRECTION('',(6.12323399573677E-17,1.,0.));
#400=DIRECTION('',(-1.,6.12323399573677E-17,0.));
#401=DIRECTION('',(6.12323399573677E-17,1.,0.));
#402=DIRECTION('',(-1.,6.12323399573677E-17,0.));
#403=DIRECTION('',(6.12323399573677E-17,1.,0.));
#404=DIRECTION('',(-1.,6.12323399573677E-17,0.));
#405=DIRECTION('',(-6.12323399573677E-17,-1.,0.));
#406=DIRECTION('',(1.,-6.12323399573677E-17,0.));
#407=DIRECTION('',(6.12323399573677E-17,1.,0.));
#408=DIRECTION('',(-1.,6.12323399573677E-17,0.));
#409=DIRECTION('',(6.12323399573677E-17,1.,0.));
#410=DIRECTION('',(-1.,6.12323399573677E-17,0.));
#411=DIRECTION('',(6.12323399573677E-17,1.,0.));
#412=DIRECTION('',(-1.,6.12323399573677E-17,0.));
#413=DIRECTION('',(6.12323399573677E-17,1.,0.));
#414=DIRECTION('',(-1.,6.12323399573677E-17,0.));
#415=DIRECTION('',(6.12323399573677E-17,1.,0.));
#416=DIRECTION('',(-1.,6.12323399573677E-17,0.));
#417=DIRECTION('',(6.12323399573677E-17,1.,0.));
#418=DIRECTION('',(-1.,6.12323399573677E-17,0.));
#419=DIRECTION('',(6.12323399573677E-17,1.,0.));
#420=DIRECTION('',(-1.,6.12323399573677E-17,0.));
#421=DIRECTION('',(6.12323399573677E-17,1.,0.));
#422=DIRECTION('',(-1.,6.12323399573677E-17,0.));
#423=DIRECTION('',(6.12323399573677E-17,1.,0.));
#424=DIRECTION('',(-1.,6.12323399573677E-17,0.));
#425=DIRECTION('',(6.12323399573677E-17,1.,0.));
#426=DIRECTION('',(-1.,6.12323399573677E-17,0.));
#427=DIRECTION('',(6.12323399573677E-17,1.,0.));
#428=DIRECTION('',(-1.,6.12323399573677E-17,0.));
#429=DIRECTION('',(6.12323399573677E-17,1.,0.));
#430=DIRECTION('',(-1.,6.12323399573677E-17,0.));
#431=DIRECTION('',(6.12323399573677E-17,1.,0.));
#432=DIRECTION('',(-1.,6.12323399573677E-17,0.));
#433=DIRECTION('',(6.12323399573677E-17,1.,0.));
#434=DIRECTION('',(-1.,6.12323399573677E-17,0.));
#435=DIRECTION('',(6.12323399573677E-17,1.,0.));
#436=DIRECTION('',(-1.,6.12323399573677E-17,0.));
#437=DIRECTION('',(6.12323399573677E-17,1.,0.));
#438=DIRECTION('',(-1.,6.12323399573677E-17,0.));
#439=DIRECTION('',(6.12323399573677E-17,1.,0.));
#440=DIRECTION('',(-1.,6.12323399573677E-17,0.));
#441=DIRECTION('',(6.12323399573677E-17,1.,0.));
#442=DIRECTION('',(-1.,6.12323399573677E-17,0.));
#443=DIRECTION('',(6.12323399573677E-17,1.,0.));
#444=DIRECTION('',(-1.,6.12323399573677E-17,0.));
#445=DIRECTION('',(6.12323399573677E-17,1.,0.));
#446=DIRECTION('',(-1.,6.12323399573677E-17,0.));
#447=DIRECTION('',(6.12323399573677E-17,1.,0.));
#448=DIRECTION('',(-1.,6.12323399573677E-17,0.));
#449=DIRECTION('',(6.12323399573677E-17,1.,0.));
#450=DIRECTION('',(-1.,6.12323399573677E-17,0.));
#451=DIRECTION('',(6.12323399573677E-17,1.,0.));
#452=DIRECTION('',(-1.,6.12323399573677E-17,0.));
#453=DIRECTION('',(6.12323399573677E-17,1.,0.));
#454=DIRECTION('',(-1.,6.12323399573677E-17,0.));
#455=DIRECTION('',(6.12323399573677E-17,1.,0.));
#456=DIRECTION('',(-1.,6.12323399573677E-17,0.));
#457=DIRECTION('',(-6.12323399573677E-17,-1.,0.));
#458=DIRECTION('',(1.,-6.12323399573677E-17,0.));
#459=DIRECTION('',(6.12323399573677E-17,1.,0.));
#460=DIRECTION('',(-1.,6.12323399573677E-17,0.));
#461=DIRECTION('',(6.12323399573677E-17,1.,0.));
#462=DIRECTION('',(-1.,6.12323399573677E-17,0.));
#463=DIRECTION('',(6.12323399573677E-17,1.,0.));
#464=DIRECTION('',(-1.,6.12323399573677E-17,0.));
#465=DIRECTION('',(6.12323399573677E-17,1.,0.));
#466=DIRECTION('',(-1.,6.12323399573677E-17,0.));
#467=DIRECTION('',(6.12323399573677E-17,1.,0.));
#468=DIRECTION('',(-1.,6.12323399573677E-17,0.));
#469=DIRECTION('',(-6.12323399573677E-17,-1.,0.));
#470=DIRECTION('',(1.,-6.12323399573677E-17,0.));
#471=DIRECTION('',(6.12323399573677E-17,1.,0.));
#472=DIRECTION('',(-1.,6.12323399573677E-17,0.));
#473=DIRECTION('',(6.12323399573677E-17,1.,0.));
#474=DIRECTION('',(-1.,6.12323399573677E-17,0.));
#475=DIRECTION('',(6.12323399573677E-17,1.,0.));
#476=DIRECTION('',(-1.,6.12323399573677E-17,0.));
#477=DIRECTION('',(6.12323399573677E-17,1.,0.));
#478=DIRECTION('',(-1.,6.12323399573677E-17,0.));
#479=DIRECTION('',(6.12323399573677E-17,1.,0.));
#480=DIRECTION('',(-1.,6.12323399573677E-17,0.));
#481=DIRECTION('',(6.12323399573677E-17,1.,0.));
#482=DIRECTION('',(-1.,6.12323399573677E-17,0.));
#483=DIRECTION('',(6.12323399573677E-17,1.,0.));
#484=DIRECTION('',(-1.,6.12323399573677E-17,0.));
#485=DIRECTION('',(6.12323399573677E-17,1.,0.));
#486=DIRECTION('',(-1.,6.12323399573677E-17,0.));
#487=DIRECTION('',(6.12323399573677E-17,1.,0.));
#488=DIRECTION('',(-1.,6.12323399573677E-17,0.));
#489=DIRECTION('',(6.12323399573677E-17,1.,0.));
#490=DIRECTION('',(-1.,6.12323399573677E-17,0.));
#491=DIRECTION('',(6.12323399573677E-17,1.,0.));
#492=DIRECTION('',(-1.,6.12323399573677E-17,0.));
#493=DIRECTION('',(6.12323399573677E-17,1.,0.));
#494=DIRECTION('',(-1.,6.12323399573677E-17,0.));
#495=DIRECTION('',(6.12323399573677E-17,1.,0.));
#496=DIRECTION('',(-1.,6.12323399573677E-17,0.));
#497=DIRECTION('',(-6.12323399573677E-17,-1.,0.));
#498=DIRECTION('',(1.,-6.12323399573677E-17,0.));
#499=DIRECTION('',(6.12323399573677E-17,1.,0.));
#500=DIRECTION('',(-1.,6.12323399573677E-17,0.));
#501=DIRECTION('',(6.12323399573677E-17,1.,0.));
#502=DIRECTION('',(-1.,6.12323399573677E-17,0.));
#503=DIRECTION('',(6.12323399573677E-17,1.,0.));
#504=DIRECTION('',(-1.,6.12323399573677E-17,0.));
#505=DIRECTION('',(6.12323399573677E-17,1.,0.));
#506=DIRECTION('',(-1.,6.12323399573677E-17,0.));
#507=DIRECTION('',(6.12323399573677E-17,1.,0.));
#508=DIRECTION('',(-1.,6.12323399573677E-17,0.));
#509=DIRECTION('',(6.12323399573677E-17,1.,0.));
#510=DIRECTION('',(-1.,6.12323399573677E-17,0.));
#511=CARTESIAN_POINT('',(0.,0.,0.));
#512=CARTESIAN_POINT('',(1.86758636869971E-15,30.5,0.));
#513=CARTESIAN_POINT('',(9.00115397373305E-16,14.7,0.));
#514=CARTESIAN_POINT('',(-4.,14.7,0.));
#515=CARTESIAN_POINT('',(1.28587913910472E-15,21.,0.));
#516=CARTESIAN_POINT('',(-4.,21.,0.));
#517=CARTESIAN_POINT('',(-4.,14.7,0.));
#518=CARTESIAN_POINT('',(9.00115397373305E-16,14.7,0.));
#519=CARTESIAN_POINT('',(-2.75,14.7,0.));
#520=CARTESIAN_POINT('',(1.86758636869971E-15,30.5,0.));
#521=CARTESIAN_POINT('',(7.34788079488412E-16,12.,0.));
#522=CARTESIAN_POINT('',(-2.75,12.,0.));
#523=CARTESIAN_POINT('',(-2.75,12.,0.));
#524=CARTESIAN_POINT('',(7.34788079488412E-16,12.,0.));
#525=CARTESIAN_POINT('',(-3.,12.,0.));
#526=CARTESIAN_POINT('',(1.86758636869971E-15,30.5,0.));
#527=CARTESIAN_POINT('',(7.04171909509728E-16,11.5,0.));
#528=CARTESIAN_POINT('',(-3.,11.5,0.));
#529=CARTESIAN_POINT('',(7.04171909509728E-16,11.5,0.));
#530=CARTESIAN_POINT('',(6.40537395186234E-16,10.4607695154587,0.));
#531=CARTESIAN_POINT('',(-2.4,10.4607695154587,0.));
#532=CARTESIAN_POINT('',(1.86758636869971E-15,30.5,0.));
#533=CARTESIAN_POINT('',(3.61270805748469E-16,5.9,0.));
#534=CARTESIAN_POINT('',(-2.4,5.9,0.));
#535=CARTESIAN_POINT('',(3.61270805748469E-16,5.9,0.));
#536=CARTESIAN_POINT('',(3.40364777194641E-16,5.55857864376269,0.));
#537=CARTESIAN_POINT('',(-2.05857864376269,5.55857864376269,0.));
#538=CARTESIAN_POINT('',(0.,5.41715728752538,0.));
#539=CARTESIAN_POINT('',(3.31705216632286E-16,5.41715728752538,0.));
#540=CARTESIAN_POINT('',(-2.,5.41715728752538,0.));
#541=CARTESIAN_POINT('',(1.86758636869971E-15,30.5,0.));
#542=CARTESIAN_POINT('',(6.12323399573675E-17,1.,0.));
#543=CARTESIAN_POINT('',(-2.,1.,0.));
#544=CARTESIAN_POINT('',(-2.,1.,0.));
#545=CARTESIAN_POINT('',(6.12323399573675E-17,1.,0.));
#546=CARTESIAN_POINT('',(-2.30933910044325,1.,0.));
#547=CARTESIAN_POINT('',(0.,0.9,0.));
#548=CARTESIAN_POINT('',(5.25213154541208E-17,0.85773817382593,0.));
#549=CARTESIAN_POINT('',(-2.39996987914691,0.85773817382593,0.));
#550=CARTESIAN_POINT('',(5.25213154541208E-17,0.85773817382593,0.));
#551=CARTESIAN_POINT('',(7.07088697645382E-18,0.115476347651862,0.));
#552=CARTESIAN_POINT('',(-2.05384750524583,0.115476347651862,0.));
#553=CARTESIAN_POINT('',(0.,0.2,0.));
#554=CARTESIAN_POINT('',(-3.85185988877447E-31,0.,0.));
#555=CARTESIAN_POINT('',(-1.8725859478385,1.14662819357437E-16,0.));
#556=CARTESIAN_POINT('',(-1.8725859478385,-5.10888075698321E-17,0.));
#557=CARTESIAN_POINT('',(-3.85185988877447E-31,0.,0.));
#558=CARTESIAN_POINT('',(-1.7,1.04094977927525E-16,0.));
#559=CARTESIAN_POINT('',(1.86758636869971E-15,30.5,0.));
#560=CARTESIAN_POINT('',(1.86758636869971E-15,30.5,0.));
#561=CARTESIAN_POINT('',(-1.7,30.5,0.));
#562=CARTESIAN_POINT('',(-1.7,30.5,0.));
#563=CARTESIAN_POINT('',(1.86758636869971E-15,30.5,0.));
#564=CARTESIAN_POINT('',(-2.8856406460551,30.5,0.));
#565=CARTESIAN_POINT('',(1.86758636869971E-15,30.5,0.));
#566=CARTESIAN_POINT('',(1.81860049673382E-15,29.7,0.));
#567=CARTESIAN_POINT('',(-3.1,29.7,0.));
#568=CARTESIAN_POINT('',(1.86758636869971E-15,30.5,0.));
#569=CARTESIAN_POINT('',(1.80241371053424E-15,29.4356497202156,0.));
#570=CARTESIAN_POINT('',(-3.1,29.4356497202156,0.));
#571=CARTESIAN_POINT('',(1.73472347597681E-15,29.4356497202156,0.));
#572=CARTESIAN_POINT('',(1.79018402590153E-15,29.2359238132647,0.));
#573=CARTESIAN_POINT('',(-2.91046719124859,29.2359238132647,0.));
#574=CARTESIAN_POINT('',(1.79018402590153E-15,29.2359238132647,0.));
#575=CARTESIAN_POINT('',(1.78859254719653E-15,29.2099329936079,0.));
#576=CARTESIAN_POINT('',(-2.41453280875141,29.2099329936079,0.));
#577=CARTESIAN_POINT('',(1.73472347597681E-15,29.010207086657,0.));
#578=CARTESIAN_POINT('',(1.77636286256382E-15,29.010207086657,0.));
#579=CARTESIAN_POINT('',(-2.225,29.010207086657,0.));
#580=CARTESIAN_POINT('',(1.86758636869971E-15,30.5,0.));
#581=CARTESIAN_POINT('',(1.72000374900187E-15,28.089792913343,0.));
#582=CARTESIAN_POINT('',(-2.225,28.089792913343,0.));
#583=CARTESIAN_POINT('',(1.73472347597681E-15,28.089792913343,0.));
#584=CARTESIAN_POINT('',(1.70777406436916E-15,27.8900670063921,0.));
#585=CARTESIAN_POINT('',(-2.41453280875141,27.8900670063921,0.));
#586=CARTESIAN_POINT('',(1.70777406436916E-15,27.8900670063921,0.));
#587=CARTESIAN_POINT('',(1.70618258566417E-15,27.8640761867353,0.));
#588=CARTESIAN_POINT('',(-2.91046719124859,27.8640761867353,0.));
#589=CARTESIAN_POINT('',(1.73472347597681E-15,27.6643502797844,0.));
#590=CARTESIAN_POINT('',(1.69395290103146E-15,27.6643502797844,0.));
#591=CARTESIAN_POINT('',(-3.1,27.6643502797844,0.));
#592=CARTESIAN_POINT('',(1.86758636869971E-15,30.5,0.));
#593=CARTESIAN_POINT('',(1.28587913910472E-15,21.,0.));
#594=CARTESIAN_POINT('',(-3.1,21.,0.));
#595=CARTESIAN_POINT('',(-3.1,21.,0.));
#596=MECHANICAL_DESIGN_GEOMETRIC_PRESENTATION_REPRESENTATION('',(#329),
#597);
#597=(
GEOMETRIC_REPRESENTATION_CONTEXT(3)
GLOBAL_UNCERTAINTY_ASSIGNED_CONTEXT((#598))
GLOBAL_UNIT_ASSIGNED_CONTEXT((#601,#600,#599))
REPRESENTATION_CONTEXT('7216 KSV-PK-4','TOP_LEVEL_ASSEMBLY_PART')
);
#598=UNCERTAINTY_MEASURE_WITH_UNIT(LENGTH_MEASURE(0.005),#601,
'DISTANCE_ACCURACY_VALUE','Maximum Tolerance applied to model');
#599=(
NAMED_UNIT(*)
SI_UNIT($,.STERADIAN.)
SOLID_ANGLE_UNIT()
);
#600=(
NAMED_UNIT(*)
PLANE_ANGLE_UNIT()
SI_UNIT($,.RADIAN.)
);
#601=(
LENGTH_UNIT()
NAMED_UNIT(*)
SI_UNIT(.MILLI.,.METRE.)
);
#602=PRODUCT_DEFINITION_SHAPE('','',#603);
#603=PRODUCT_DEFINITION('','',#605,#604);
#604=PRODUCT_DEFINITION_CONTEXT('',#611,'design');
#605=PRODUCT_DEFINITION_FORMATION_WITH_SPECIFIED_SOURCE('','',#607,
 .NOT_KNOWN.);
#606=PRODUCT_RELATED_PRODUCT_CATEGORY('','',(#607));
#607=PRODUCT('7216 KSV-PK-4','7216 KSV-PK-4','7216 KSV-PK-4',(#609));
#608=PRODUCT_CATEGORY('','');
#609=PRODUCT_CONTEXT('',#611,'mechanical');
#610=APPLICATION_PROTOCOL_DEFINITION('international standard',
'automotive_design',2010,#611);
#611=APPLICATION_CONTEXT(
'core data for automotive mechanical design processes');
ENDSEC;
END-ISO-10303-21;
