ISO-10303-21;
HEADER;
/* Generated by software containing ST-Developer
 * from STEP Tools, Inc. (www.steptools.com) 
 */
/* OPTION: using custom renumber hook */

FILE_DESCRIPTION(
/* description */ ('STEP AP214'),
/* implementation_level */ '2;1');

FILE_NAME(
/* name */ '8028500_ABAN-8-1M4-5-P2',
/* time_stamp */ '2024-07-30T13:16:44+02:00',
/* author */ ('License CC BY-ND 4.0'),
/* organization */ ('CADENAS'),
/* preprocessor_version */ 'ST-DEVELOPER v19.3',
/* originating_system */ 'PARTsolutions',
/* authorisation */ '  ');

FILE_SCHEMA (('AUTOMOTIVE_DESIGN {1 0 10303 214 3 1 1}'));
ENDSEC;

DATA;
#10=PROPERTY_DEFINITION_REPRESENTATION(#14,#12);
#11=PROPERTY_DEFINITION_REPRESENTATION(#15,#13);
#12=REPRESENTATION('',(#16),#465);
#13=REPRESENTATION('',(#17),#465);
#14=PROPERTY_DEFINITION('pmi validation property','',#470);
#15=PROPERTY_DEFINITION('pmi validation property','',#470);
#16=VALUE_REPRESENTATION_ITEM('number of annotations',COUNT_MEASURE(0.));
#17=VALUE_REPRESENTATION_ITEM('number of views',COUNT_MEASURE(0.));
#18=SHAPE_REPRESENTATION_RELATIONSHIP('','',#284,#19);
#19=ADVANCED_BREP_SHAPE_REPRESENTATION('',(#282),#465);
#20=LINE('',#410,#42);
#21=LINE('',#412,#43);
#22=LINE('',#414,#44);
#23=LINE('',#418,#45);
#24=LINE('',#420,#46);
#25=LINE('',#422,#47);
#26=LINE('',#429,#48);
#27=LINE('',#431,#49);
#28=LINE('',#432,#50);
#29=LINE('',#434,#51);
#30=LINE('',#436,#52);
#31=LINE('',#438,#53);
#32=LINE('',#439,#54);
#33=LINE('',#441,#55);
#34=LINE('',#445,#56);
#35=LINE('',#447,#57);
#36=LINE('',#449,#58);
#37=LINE('',#451,#59);
#38=LINE('',#454,#60);
#39=LINE('',#458,#61);
#40=LINE('',#460,#62);
#41=LINE('',#462,#63);
#42=VECTOR('',#337,1000.);
#43=VECTOR('',#338,1000.);
#44=VECTOR('',#339,1000.);
#45=VECTOR('',#342,1000.);
#46=VECTOR('',#343,1000.);
#47=VECTOR('',#344,1000.);
#48=VECTOR('',#353,1000.);
#49=VECTOR('',#354,1000.);
#50=VECTOR('',#355,1000.);
#51=VECTOR('',#356,1000.);
#52=VECTOR('',#359,1000.);
#53=VECTOR('',#360,1000.);
#54=VECTOR('',#361,1000.);
#55=VECTOR('',#362,1000.);
#56=VECTOR('',#367,1000.);
#57=VECTOR('',#368,1000.);
#58=VECTOR('',#371,1000.);
#59=VECTOR('',#374,1000.);
#60=VECTOR('',#379,1000.);
#61=VECTOR('',#384,1000.);
#62=VECTOR('',#385,1000.);
#63=VECTOR('',#388,1000.);
#64=CYLINDRICAL_SURFACE('',#291,1.621);
#65=CYLINDRICAL_SURFACE('',#298,2.55);
#66=CYLINDRICAL_SURFACE('',#305,0.200000000000003);
#67=CYLINDRICAL_SURFACE('',#308,0.200000000000004);
#68=CONICAL_SURFACE('',#289,2.,0.785398163397448);
#69=CONICAL_SURFACE('',#293,1.621,0.785398163397448);
#70=ORIENTED_EDGE('',*,*,#136,.T.);
#71=ORIENTED_EDGE('',*,*,#137,.F.);
#72=ORIENTED_EDGE('',*,*,#138,.T.);
#73=ORIENTED_EDGE('',*,*,#136,.F.);
#74=ORIENTED_EDGE('',*,*,#139,.T.);
#75=ORIENTED_EDGE('',*,*,#138,.F.);
#76=ORIENTED_EDGE('',*,*,#140,.T.);
#77=ORIENTED_EDGE('',*,*,#139,.F.);
#78=ORIENTED_EDGE('',*,*,#140,.F.);
#79=ORIENTED_EDGE('',*,*,#141,.F.);
#80=ORIENTED_EDGE('',*,*,#142,.F.);
#81=ORIENTED_EDGE('',*,*,#143,.F.);
#82=ORIENTED_EDGE('',*,*,#144,.F.);
#83=ORIENTED_EDGE('',*,*,#145,.F.);
#84=ORIENTED_EDGE('',*,*,#146,.F.);
#85=ORIENTED_EDGE('',*,*,#147,.F.);
#86=ORIENTED_EDGE('',*,*,#148,.F.);
#87=ORIENTED_EDGE('',*,*,#137,.T.);
#88=ORIENTED_EDGE('',*,*,#149,.F.);
#89=ORIENTED_EDGE('',*,*,#150,.F.);
#90=ORIENTED_EDGE('',*,*,#146,.T.);
#91=ORIENTED_EDGE('',*,*,#151,.F.);
#92=ORIENTED_EDGE('',*,*,#152,.F.);
#93=ORIENTED_EDGE('',*,*,#153,.F.);
#94=ORIENTED_EDGE('',*,*,#154,.T.);
#95=ORIENTED_EDGE('',*,*,#142,.T.);
#96=ORIENTED_EDGE('',*,*,#155,.F.);
#97=ORIENTED_EDGE('',*,*,#156,.F.);
#98=ORIENTED_EDGE('',*,*,#157,.F.);
#99=ORIENTED_EDGE('',*,*,#158,.T.);
#100=ORIENTED_EDGE('',*,*,#157,.T.);
#101=ORIENTED_EDGE('',*,*,#149,.T.);
#102=ORIENTED_EDGE('',*,*,#152,.T.);
#103=ORIENTED_EDGE('',*,*,#159,.T.);
#104=ORIENTED_EDGE('',*,*,#160,.T.);
#105=ORIENTED_EDGE('',*,*,#161,.T.);
#106=ORIENTED_EDGE('',*,*,#145,.T.);
#107=ORIENTED_EDGE('',*,*,#162,.F.);
#108=ORIENTED_EDGE('',*,*,#159,.F.);
#109=ORIENTED_EDGE('',*,*,#151,.T.);
#110=ORIENTED_EDGE('',*,*,#144,.T.);
#111=ORIENTED_EDGE('',*,*,#163,.F.);
#112=ORIENTED_EDGE('',*,*,#160,.F.);
#113=ORIENTED_EDGE('',*,*,#162,.T.);
#114=ORIENTED_EDGE('',*,*,#143,.T.);
#115=ORIENTED_EDGE('',*,*,#158,.F.);
#116=ORIENTED_EDGE('',*,*,#161,.F.);
#117=ORIENTED_EDGE('',*,*,#163,.T.);
#118=ORIENTED_EDGE('',*,*,#141,.T.);
#119=ORIENTED_EDGE('',*,*,#164,.F.);
#120=ORIENTED_EDGE('',*,*,#165,.F.);
#121=ORIENTED_EDGE('',*,*,#155,.T.);
#122=ORIENTED_EDGE('',*,*,#148,.T.);
#123=ORIENTED_EDGE('',*,*,#166,.F.);
#124=ORIENTED_EDGE('',*,*,#167,.F.);
#125=ORIENTED_EDGE('',*,*,#164,.T.);
#126=ORIENTED_EDGE('',*,*,#147,.T.);
#127=ORIENTED_EDGE('',*,*,#154,.F.);
#128=ORIENTED_EDGE('',*,*,#168,.F.);
#129=ORIENTED_EDGE('',*,*,#166,.T.);
#130=ORIENTED_EDGE('',*,*,#153,.T.);
#131=ORIENTED_EDGE('',*,*,#150,.T.);
#132=ORIENTED_EDGE('',*,*,#156,.T.);
#133=ORIENTED_EDGE('',*,*,#165,.T.);
#134=ORIENTED_EDGE('',*,*,#167,.T.);
#135=ORIENTED_EDGE('',*,*,#168,.T.);
#136=EDGE_CURVE('',#169,#169,#192,.T.);
#137=EDGE_CURVE('',#170,#170,#193,.T.);
#138=EDGE_CURVE('',#171,#171,#194,.T.);
#139=EDGE_CURVE('',#172,#172,#195,.T.);
#140=EDGE_CURVE('',#173,#173,#196,.T.);
#141=EDGE_CURVE('',#174,#175,#197,.T.);
#142=EDGE_CURVE('',#176,#174,#20,.T.);
#143=EDGE_CURVE('',#177,#176,#21,.T.);
#144=EDGE_CURVE('',#178,#177,#22,.T.);
#145=EDGE_CURVE('',#179,#178,#198,.T.);
#146=EDGE_CURVE('',#180,#179,#23,.T.);
#147=EDGE_CURVE('',#181,#180,#24,.T.);
#148=EDGE_CURVE('',#175,#181,#25,.T.);
#149=EDGE_CURVE('',#182,#183,#199,.F.);
#150=EDGE_CURVE('',#183,#182,#200,.F.);
#151=EDGE_CURVE('',#184,#179,#26,.T.);
#152=EDGE_CURVE('',#183,#184,#27,.T.);
#153=EDGE_CURVE('',#185,#183,#28,.T.);
#154=EDGE_CURVE('',#185,#180,#29,.T.);
#155=EDGE_CURVE('',#186,#174,#30,.T.);
#156=EDGE_CURVE('',#182,#186,#31,.T.);
#157=EDGE_CURVE('',#187,#182,#32,.T.);
#158=EDGE_CURVE('',#187,#176,#33,.T.);
#159=EDGE_CURVE('',#184,#188,#201,.T.);
#160=EDGE_CURVE('',#188,#189,#34,.T.);
#161=EDGE_CURVE('',#189,#187,#35,.T.);
#162=EDGE_CURVE('',#188,#178,#36,.T.);
#163=EDGE_CURVE('',#189,#177,#37,.T.);
#164=EDGE_CURVE('',#190,#175,#38,.T.);
#165=EDGE_CURVE('',#186,#190,#202,.T.);
#166=EDGE_CURVE('',#191,#181,#39,.T.);
#167=EDGE_CURVE('',#190,#191,#40,.T.);
#168=EDGE_CURVE('',#191,#185,#41,.T.);
#169=VERTEX_POINT('',#394);
#170=VERTEX_POINT('',#396);
#171=VERTEX_POINT('',#399);
#172=VERTEX_POINT('',#402);
#173=VERTEX_POINT('',#405);
#174=VERTEX_POINT('',#408);
#175=VERTEX_POINT('',#409);
#176=VERTEX_POINT('',#411);
#177=VERTEX_POINT('',#413);
#178=VERTEX_POINT('',#415);
#179=VERTEX_POINT('',#417);
#180=VERTEX_POINT('',#419);
#181=VERTEX_POINT('',#421);
#182=VERTEX_POINT('',#425);
#183=VERTEX_POINT('',#426);
#184=VERTEX_POINT('',#430);
#185=VERTEX_POINT('',#433);
#186=VERTEX_POINT('',#437);
#187=VERTEX_POINT('',#440);
#188=VERTEX_POINT('',#444);
#189=VERTEX_POINT('',#446);
#190=VERTEX_POINT('',#455);
#191=VERTEX_POINT('',#459);
#192=CIRCLE('',#287,2.);
#193=CIRCLE('',#288,2.55);
#194=CIRCLE('',#290,1.621);
#195=CIRCLE('',#292,1.621);
#196=CIRCLE('',#294,2.);
#197=CIRCLE('',#296,0.200000000000004);
#198=CIRCLE('',#297,0.200000000000003);
#199=CIRCLE('',#299,2.55);
#200=CIRCLE('',#300,2.55);
#201=CIRCLE('',#304,0.200000000000003);
#202=CIRCLE('',#309,0.200000000000004);
#203=EDGE_LOOP('',(#70));
#204=EDGE_LOOP('',(#71));
#205=EDGE_LOOP('',(#72));
#206=EDGE_LOOP('',(#73));
#207=EDGE_LOOP('',(#74));
#208=EDGE_LOOP('',(#75));
#209=EDGE_LOOP('',(#76));
#210=EDGE_LOOP('',(#77));
#211=EDGE_LOOP('',(#78));
#212=EDGE_LOOP('',(#79,#80,#81,#82,#83,#84,#85,#86));
#213=EDGE_LOOP('',(#87));
#214=EDGE_LOOP('',(#88,#89));
#215=EDGE_LOOP('',(#90,#91,#92,#93,#94));
#216=EDGE_LOOP('',(#95,#96,#97,#98,#99));
#217=EDGE_LOOP('',(#100,#101,#102,#103,#104,#105));
#218=EDGE_LOOP('',(#106,#107,#108,#109));
#219=EDGE_LOOP('',(#110,#111,#112,#113));
#220=EDGE_LOOP('',(#114,#115,#116,#117));
#221=EDGE_LOOP('',(#118,#119,#120,#121));
#222=EDGE_LOOP('',(#122,#123,#124,#125));
#223=EDGE_LOOP('',(#126,#127,#128,#129));
#224=EDGE_LOOP('',(#130,#131,#132,#133,#134,#135));
#225=FACE_BOUND('',#203,.T.);
#226=FACE_BOUND('',#204,.T.);
#227=FACE_BOUND('',#205,.T.);
#228=FACE_BOUND('',#206,.T.);
#229=FACE_BOUND('',#207,.T.);
#230=FACE_BOUND('',#208,.T.);
#231=FACE_BOUND('',#209,.T.);
#232=FACE_BOUND('',#210,.T.);
#233=FACE_BOUND('',#211,.T.);
#234=FACE_BOUND('',#212,.T.);
#235=FACE_BOUND('',#213,.T.);
#236=FACE_BOUND('',#214,.T.);
#237=FACE_BOUND('',#215,.T.);
#238=FACE_BOUND('',#216,.T.);
#239=FACE_BOUND('',#217,.T.);
#240=FACE_BOUND('',#218,.T.);
#241=FACE_BOUND('',#219,.T.);
#242=FACE_BOUND('',#220,.T.);
#243=FACE_BOUND('',#221,.T.);
#244=FACE_BOUND('',#222,.T.);
#245=FACE_BOUND('',#223,.T.);
#246=FACE_BOUND('',#224,.T.);
#247=PLANE('',#286);
#248=PLANE('',#295);
#249=PLANE('',#301);
#250=PLANE('',#302);
#251=PLANE('',#303);
#252=PLANE('',#306);
#253=PLANE('',#307);
#254=PLANE('',#310);
#255=PLANE('',#311);
#256=PLANE('',#312);
#257=ADVANCED_FACE('',(#225,#226),#247,.T.);
#258=ADVANCED_FACE('',(#227,#228),#68,.F.);
#259=ADVANCED_FACE('',(#229,#230),#64,.F.);
#260=ADVANCED_FACE('',(#231,#232),#69,.F.);
#261=ADVANCED_FACE('',(#233,#234),#248,.T.);
#262=ADVANCED_FACE('',(#235,#236),#65,.T.);
#263=ADVANCED_FACE('',(#237),#249,.F.);
#264=ADVANCED_FACE('',(#238),#250,.F.);
#265=ADVANCED_FACE('',(#239),#251,.T.);
#266=ADVANCED_FACE('',(#240),#66,.T.);
#267=ADVANCED_FACE('',(#241),#252,.F.);
#268=ADVANCED_FACE('',(#242),#253,.F.);
#269=ADVANCED_FACE('',(#243),#67,.T.);
#270=ADVANCED_FACE('',(#244),#254,.F.);
#271=ADVANCED_FACE('',(#245),#255,.F.);
#272=ADVANCED_FACE('',(#246),#256,.T.);
#273=CLOSED_SHELL('',(#257,#258,#259,#260,#261,#262,#263,#264,#265,#266,
#267,#268,#269,#270,#271,#272));
#274=STYLED_ITEM('',(#275),#282);
#275=PRESENTATION_STYLE_ASSIGNMENT((#276));
#276=SURFACE_STYLE_USAGE(.BOTH.,#277);
#277=SURFACE_SIDE_STYLE('',(#278));
#278=SURFACE_STYLE_FILL_AREA(#279);
#279=FILL_AREA_STYLE('',(#280));
#280=FILL_AREA_STYLE_COLOUR('',#281);
#281=COLOUR_RGB('',0.689999997615814,0.689999997615814,0.689999997615814);
#282=MANIFOLD_SOLID_BREP('8028500 ABAN-8-1M4-5-P2',#273);
#283=SHAPE_DEFINITION_REPRESENTATION(#470,#284);
#284=SHAPE_REPRESENTATION('8028500 ABAN-8-1M4-5-P2',(#285),#465);
#285=AXIS2_PLACEMENT_3D('',#391,#313,#314);
#286=AXIS2_PLACEMENT_3D('',#392,#315,#316);
#287=AXIS2_PLACEMENT_3D('',#393,#317,#318);
#288=AXIS2_PLACEMENT_3D('',#395,#319,#320);
#289=AXIS2_PLACEMENT_3D('',#397,#321,#322);
#290=AXIS2_PLACEMENT_3D('',#398,#323,#324);
#291=AXIS2_PLACEMENT_3D('',#400,#325,#326);
#292=AXIS2_PLACEMENT_3D('',#401,#327,#328);
#293=AXIS2_PLACEMENT_3D('',#403,#329,#330);
#294=AXIS2_PLACEMENT_3D('',#404,#331,#332);
#295=AXIS2_PLACEMENT_3D('',#406,#333,#334);
#296=AXIS2_PLACEMENT_3D('',#407,#335,#336);
#297=AXIS2_PLACEMENT_3D('',#416,#340,#341);
#298=AXIS2_PLACEMENT_3D('',#423,#345,#346);
#299=AXIS2_PLACEMENT_3D('',#424,#347,#348);
#300=AXIS2_PLACEMENT_3D('',#427,#349,#350);
#301=AXIS2_PLACEMENT_3D('',#428,#351,#352);
#302=AXIS2_PLACEMENT_3D('',#435,#357,#358);
#303=AXIS2_PLACEMENT_3D('',#442,#363,#364);
#304=AXIS2_PLACEMENT_3D('',#443,#365,#366);
#305=AXIS2_PLACEMENT_3D('',#448,#369,#370);
#306=AXIS2_PLACEMENT_3D('',#450,#372,#373);
#307=AXIS2_PLACEMENT_3D('',#452,#375,#376);
#308=AXIS2_PLACEMENT_3D('',#453,#377,#378);
#309=AXIS2_PLACEMENT_3D('',#456,#380,#381);
#310=AXIS2_PLACEMENT_3D('',#457,#382,#383);
#311=AXIS2_PLACEMENT_3D('',#461,#386,#387);
#312=AXIS2_PLACEMENT_3D('',#463,#389,#390);
#313=DIRECTION('',(0.,0.,1.));
#314=DIRECTION('',(1.,0.,0.));
#315=DIRECTION('',(0.,0.,1.));
#316=DIRECTION('',(1.,0.,0.));
#317=DIRECTION('',(0.,0.,-1.));
#318=DIRECTION('',(-1.,0.,0.));
#319=DIRECTION('',(0.,0.,-1.));
#320=DIRECTION('',(-1.,0.,0.));
#321=DIRECTION('',(0.,0.,1.));
#322=DIRECTION('',(1.,0.,0.));
#323=DIRECTION('',(0.,0.,-1.));
#324=DIRECTION('',(-1.,0.,0.));
#325=DIRECTION('',(0.,0.,-1.));
#326=DIRECTION('',(-1.,0.,0.));
#327=DIRECTION('',(0.,0.,-1.));
#328=DIRECTION('',(-1.,0.,0.));
#329=DIRECTION('',(0.,0.,-1.));
#330=DIRECTION('',(-1.,0.,0.));
#331=DIRECTION('',(0.,0.,-1.));
#332=DIRECTION('',(-1.,0.,0.));
#333=DIRECTION('',(0.,0.,-1.));
#334=DIRECTION('',(-1.,0.,0.));
#335=DIRECTION('',(0.,0.,1.));
#336=DIRECTION('',(1.,0.,0.));
#337=DIRECTION('',(0.,1.,0.));
#338=DIRECTION('',(0.961261695938318,0.275637355817004,0.));
#339=DIRECTION('',(0.707106781186547,-0.707106781186548,0.));
#340=DIRECTION('',(0.,0.,1.));
#341=DIRECTION('',(1.,0.,0.));
#342=DIRECTION('',(0.,-1.,0.));
#343=DIRECTION('',(-0.961261695938318,-0.275637355817004,0.));
#344=DIRECTION('',(-0.707106781186547,0.707106781186548,0.));
#345=DIRECTION('',(0.,0.,-1.));
#346=DIRECTION('',(-1.,0.,0.));
#347=DIRECTION('',(0.,0.,1.));
#348=DIRECTION('',(1.,0.,0.));
#349=DIRECTION('',(0.,0.,1.));
#350=DIRECTION('',(1.,0.,0.));
#351=DIRECTION('',(1.,0.,0.));
#352=DIRECTION('',(0.,0.,-1.));
#353=DIRECTION('',(0.,0.,-1.));
#354=DIRECTION('',(0.,-1.,0.));
#355=DIRECTION('',(0.,-1.,0.));
#356=DIRECTION('',(0.,0.,-1.));
#357=DIRECTION('',(-1.,0.,0.));
#358=DIRECTION('',(0.,0.,1.));
#359=DIRECTION('',(0.,0.,-1.));
#360=DIRECTION('',(0.,1.,0.));
#361=DIRECTION('',(0.,1.,0.));
#362=DIRECTION('',(0.,0.,-1.));
#363=DIRECTION('',(0.,0.,1.));
#364=DIRECTION('',(1.,0.,0.));
#365=DIRECTION('',(0.,0.,1.));
#366=DIRECTION('',(1.,0.,0.));
#367=DIRECTION('',(0.707106781186547,-0.707106781186548,0.));
#368=DIRECTION('',(0.961261695938318,0.275637355817004,0.));
#369=DIRECTION('',(0.,0.,-1.));
#370=DIRECTION('',(-1.,0.,0.));
#371=DIRECTION('',(0.,0.,-1.));
#372=DIRECTION('',(0.707106781186548,0.707106781186547,0.));
#373=DIRECTION('',(-0.707106781186547,0.707106781186548,0.));
#374=DIRECTION('',(0.,0.,-1.));
#375=DIRECTION('',(-0.275637355817004,0.961261695938318,0.));
#376=DIRECTION('',(-0.961261695938318,-0.275637355817004,0.));
#377=DIRECTION('',(0.,0.,-1.));
#378=DIRECTION('',(-1.,0.,0.));
#379=DIRECTION('',(0.,0.,-1.));
#380=DIRECTION('',(0.,0.,1.));
#381=DIRECTION('',(1.,0.,0.));
#382=DIRECTION('',(-0.707106781186548,-0.707106781186547,0.));
#383=DIRECTION('',(0.707106781186547,-0.707106781186548,0.));
#384=DIRECTION('',(0.,0.,-1.));
#385=DIRECTION('',(-0.707106781186547,0.707106781186548,0.));
#386=DIRECTION('',(0.275637355817004,-0.961261695938318,0.));
#387=DIRECTION('',(0.961261695938318,0.275637355817004,0.));
#388=DIRECTION('',(-0.961261695938318,-0.275637355817004,0.));
#389=DIRECTION('',(0.,0.,1.));
#390=DIRECTION('',(1.,0.,0.));
#391=CARTESIAN_POINT('',(0.,0.,0.));
#392=CARTESIAN_POINT('',(0.,2.55,3.5));
#393=CARTESIAN_POINT('',(0.,0.,3.5));
#394=CARTESIAN_POINT('',(-2.,0.,3.5));
#395=CARTESIAN_POINT('',(0.,0.,3.5));
#396=CARTESIAN_POINT('',(-2.55,0.,3.5));
#397=CARTESIAN_POINT('',(0.,0.,3.5));
#398=CARTESIAN_POINT('',(0.,0.,3.121));
#399=CARTESIAN_POINT('',(-1.621,0.,3.121));
#400=CARTESIAN_POINT('',(0.,0.,0.));
#401=CARTESIAN_POINT('',(0.,0.,0.379));
#402=CARTESIAN_POINT('',(-1.621,0.,0.379));
#403=CARTESIAN_POINT('',(0.,0.,0.379));
#404=CARTESIAN_POINT('',(0.,0.,0.));
#405=CARTESIAN_POINT('',(-2.,0.,0.));
#406=CARTESIAN_POINT('',(0.,2.,0.));
#407=CARTESIAN_POINT('',(2.35,1.89264068711928,0.));
#408=CARTESIAN_POINT('',(2.55,1.89264068711929,0.));
#409=CARTESIAN_POINT('',(2.49142135623731,2.0340620433566,0.));
#410=CARTESIAN_POINT('',(2.55,-6.8,0.));
#411=CARTESIAN_POINT('',(2.55,-6.8,0.));
#412=CARTESIAN_POINT('',(2.3359068292431,-6.86139022883701,0.));
#413=CARTESIAN_POINT('',(2.3359068292431,-6.86139022883701,0.));
#414=CARTESIAN_POINT('',(-2.49142135623731,-2.0340620433566,0.));
#415=CARTESIAN_POINT('',(-2.49142135623731,-2.0340620433566,0.));
#416=CARTESIAN_POINT('',(-2.35,-1.89264068711928,0.));
#417=CARTESIAN_POINT('',(-2.55,-1.89264068711929,0.));
#418=CARTESIAN_POINT('',(-2.55,6.8,0.));
#419=CARTESIAN_POINT('',(-2.55,6.8,0.));
#420=CARTESIAN_POINT('',(-2.3359068292431,6.86139022883701,0.));
#421=CARTESIAN_POINT('',(-2.3359068292431,6.86139022883701,0.));
#422=CARTESIAN_POINT('',(2.49142135623731,2.0340620433566,0.));
#423=CARTESIAN_POINT('',(0.,0.,0.));
#424=CARTESIAN_POINT('',(0.,0.,2.7));
#425=CARTESIAN_POINT('',(2.55,0.,2.7));
#426=CARTESIAN_POINT('',(-2.55,0.,2.7));
#427=CARTESIAN_POINT('',(0.,0.,2.7));
#428=CARTESIAN_POINT('',(-2.55,6.8,2.7));
#429=CARTESIAN_POINT('',(-2.55,-1.89264068711929,2.7));
#430=CARTESIAN_POINT('',(-2.55,-1.89264068711929,2.7));
#431=CARTESIAN_POINT('',(-2.55,6.8,2.7));
#432=CARTESIAN_POINT('',(-2.55,6.8,2.7));
#433=CARTESIAN_POINT('',(-2.55,6.8,2.7));
#434=CARTESIAN_POINT('',(-2.55,6.8,2.7));
#435=CARTESIAN_POINT('',(2.55,-6.8,2.7));
#436=CARTESIAN_POINT('',(2.55,1.89264068711929,2.7));
#437=CARTESIAN_POINT('',(2.55,1.89264068711929,2.7));
#438=CARTESIAN_POINT('',(2.55,-6.8,2.7));
#439=CARTESIAN_POINT('',(2.55,-6.8,2.7));
#440=CARTESIAN_POINT('',(2.55,-6.8,2.7));
#441=CARTESIAN_POINT('',(2.55,-6.8,2.7));
#442=CARTESIAN_POINT('',(-2.35,-1.89264068711928,2.7));
#443=CARTESIAN_POINT('',(-2.35,-1.89264068711928,2.7));
#444=CARTESIAN_POINT('',(-2.49142135623731,-2.0340620433566,2.7));
#445=CARTESIAN_POINT('',(-2.49142135623731,-2.0340620433566,2.7));
#446=CARTESIAN_POINT('',(2.3359068292431,-6.86139022883701,2.7));
#447=CARTESIAN_POINT('',(2.3359068292431,-6.86139022883701,2.7));
#448=CARTESIAN_POINT('',(-2.35,-1.89264068711928,2.7));
#449=CARTESIAN_POINT('',(-2.49142135623731,-2.0340620433566,2.7));
#450=CARTESIAN_POINT('',(-2.49142135623731,-2.0340620433566,2.7));
#451=CARTESIAN_POINT('',(2.3359068292431,-6.86139022883701,2.7));
#452=CARTESIAN_POINT('',(2.3359068292431,-6.86139022883701,2.7));
#453=CARTESIAN_POINT('',(2.35,1.89264068711928,2.7));
#454=CARTESIAN_POINT('',(2.49142135623731,2.0340620433566,2.7));
#455=CARTESIAN_POINT('',(2.49142135623731,2.0340620433566,2.7));
#456=CARTESIAN_POINT('',(2.35,1.89264068711928,2.7));
#457=CARTESIAN_POINT('',(2.49142135623731,2.0340620433566,2.7));
#458=CARTESIAN_POINT('',(-2.3359068292431,6.86139022883701,2.7));
#459=CARTESIAN_POINT('',(-2.3359068292431,6.86139022883701,2.7));
#460=CARTESIAN_POINT('',(2.49142135623731,2.0340620433566,2.7));
#461=CARTESIAN_POINT('',(-2.3359068292431,6.86139022883701,2.7));
#462=CARTESIAN_POINT('',(-2.3359068292431,6.86139022883701,2.7));
#463=CARTESIAN_POINT('',(-2.35,-1.89264068711928,2.7));
#464=MECHANICAL_DESIGN_GEOMETRIC_PRESENTATION_REPRESENTATION('',(#274),
#465);
#465=(
GEOMETRIC_REPRESENTATION_CONTEXT(3)
GLOBAL_UNCERTAINTY_ASSIGNED_CONTEXT((#466))
GLOBAL_UNIT_ASSIGNED_CONTEXT((#469,#468,#467))
REPRESENTATION_CONTEXT('8028500 ABAN-8-1M4-5-P2',
'TOP_LEVEL_ASSEMBLY_PART')
);
#466=UNCERTAINTY_MEASURE_WITH_UNIT(LENGTH_MEASURE(0.005),#469,
'DISTANCE_ACCURACY_VALUE','Maximum Tolerance applied to model');
#467=(
NAMED_UNIT(*)
SI_UNIT($,.STERADIAN.)
SOLID_ANGLE_UNIT()
);
#468=(
NAMED_UNIT(*)
PLANE_ANGLE_UNIT()
SI_UNIT($,.RADIAN.)
);
#469=(
LENGTH_UNIT()
NAMED_UNIT(*)
SI_UNIT(.MILLI.,.METRE.)
);
#470=PRODUCT_DEFINITION_SHAPE('','',#471);
#471=PRODUCT_DEFINITION('','',#473,#472);
#472=PRODUCT_DEFINITION_CONTEXT('',#479,'design');
#473=PRODUCT_DEFINITION_FORMATION_WITH_SPECIFIED_SOURCE('','',#475,
 .NOT_KNOWN.);
#474=PRODUCT_RELATED_PRODUCT_CATEGORY('','',(#475));
#475=PRODUCT('8028500 ABAN-8-1M4-5-P2','8028500 ABAN-8-1M4-5-P2',
'8028500 ABAN-8-1M4-5-P2',(#477));
#476=PRODUCT_CATEGORY('','');
#477=PRODUCT_CONTEXT('',#479,'mechanical');
#478=APPLICATION_PROTOCOL_DEFINITION('international standard',
'automotive_design',2010,#479);
#479=APPLICATION_CONTEXT(
'core data for automotive mechanical design processes');
ENDSEC;
END-ISO-10303-21;
