ISO-10303-21;
HEADER;
/* Generated by software containing ST-Developer
 * from STEP Tools, Inc. (www.steptools.com) 
 */
/* OPTION: using custom renumber hook */

FILE_DESCRIPTION(
/* description */ ('STEP AP214'),
/* implementation_level */ '2;1');

FILE_NAME(
/* name */ '8073816_OGVM-30-S-N-G14F',
/* time_stamp */ '2024-09-11T07:03:21+02:00',
/* author */ ('License CC BY-ND 4.0'),
/* organization */ ('CADENAS'),
/* preprocessor_version */ 'ST-DEVELOPER v19.3',
/* originating_system */ 'PARTsolutions',
/* authorisation */ '  ');

FILE_SCHEMA (('AUTOMOTIVE_DESIGN {1 0 10303 214 3 1 1}'));
ENDSEC;

DATA;
#10=PROPERTY_DEFINITION_REPRESENTATION(#14,#12);
#11=PROPERTY_DEFINITION_REPRESENTATION(#15,#13);
#12=REPRESENTATION('',(#16),#695);
#13=REPRESENTATION('',(#17),#695);
#14=PROPERTY_DEFINITION('pmi validation property','',#700);
#15=PROPERTY_DEFINITION('pmi validation property','',#700);
#16=VALUE_REPRESENTATION_ITEM('number of annotations',COUNT_MEASURE(0.));
#17=VALUE_REPRESENTATION_ITEM('number of views',COUNT_MEASURE(0.));
#18=SHAPE_REPRESENTATION_RELATIONSHIP('','',#395,#19);
#19=ADVANCED_BREP_SHAPE_REPRESENTATION('',(#393),#695);
#20=TOROIDAL_SURFACE('',#423,8.208,7.5);
#21=TOROIDAL_SURFACE('',#425,14.4,0.6);
#22=TOROIDAL_SURFACE('',#429,13.25,1.49999999999998);
#23=TOROIDAL_SURFACE('',#444,14.275,0.25);
#24=TOROIDAL_SURFACE('',#451,12.95,0.250000000000004);
#25=PLANE('',#410);
#26=PLANE('',#417);
#27=PLANE('',#421);
#28=PLANE('',#433);
#29=PLANE('',#438);
#30=PLANE('',#439);
#31=PLANE('',#440);
#32=PLANE('',#446);
#33=PLANE('',#453);
#34=B_SPLINE_CURVE_WITH_KNOTS('',3,(#603,#604,#605,#606),.UNSPECIFIED.,
 .F.,.F.,(4,4),(1.69283221431932E-6,0.00137073466637209),.UNSPECIFIED.);
#35=B_SPLINE_CURVE_WITH_KNOTS('',3,(#610,#611,#612,#613),.UNSPECIFIED.,
 .F.,.F.,(4,4),(0.00736469491259616,0.0087226926041345),.UNSPECIFIED.);
#36=B_SPLINE_CURVE_WITH_KNOTS('',3,(#618,#619,#620,#621),.UNSPECIFIED.,
 .F.,.F.,(4,4),(0.00736469491259616,0.0087226926041345),.UNSPECIFIED.);
#37=B_SPLINE_CURVE_WITH_KNOTS('',3,(#622,#623,#624,#625),.UNSPECIFIED.,
 .F.,.F.,(4,4),(1.69283221431932E-6,0.00137073466637209),.UNSPECIFIED.);
#38=CONICAL_SURFACE('',#406,9.5,0.785398163397447);
#39=CONICAL_SURFACE('',#408,9.5,0.785398163397447);
#40=CONICAL_SURFACE('',#415,2.,0.785398163397449);
#41=CONICAL_SURFACE('',#434,6.5785,0.785398163397447);
#42=LINE('',#588,#50);
#43=LINE('',#592,#51);
#44=LINE('',#597,#52);
#45=LINE('',#601,#53);
#46=LINE('',#629,#54);
#47=LINE('',#630,#55);
#48=LINE('',#664,#56);
#49=LINE('',#665,#57);
#50=VECTOR('',#466,1000.);
#51=VECTOR('',#469,1000.);
#52=VECTOR('',#474,1000.);
#53=VECTOR('',#477,1000.);
#54=VECTOR('',#490,1000.);
#55=VECTOR('',#491,1000.);
#56=VECTOR('',#536,1000.);
#57=VECTOR('',#537,1000.);
#58=CYLINDRICAL_SURFACE('',#400,9.5);
#59=CYLINDRICAL_SURFACE('',#403,9.5);
#60=CYLINDRICAL_SURFACE('',#412,2.);
#61=CYLINDRICAL_SURFACE('',#419,3.);
#62=CYLINDRICAL_SURFACE('',#431,11.75);
#63=CYLINDRICAL_SURFACE('',#436,5.7225);
#64=CYLINDRICAL_SURFACE('',#441,14.025);
#65=CYLINDRICAL_SURFACE('',#449,12.7);
#66=ORIENTED_EDGE('',*,*,#146,.T.);
#67=ORIENTED_EDGE('',*,*,#147,.F.);
#68=ORIENTED_EDGE('',*,*,#148,.F.);
#69=ORIENTED_EDGE('',*,*,#149,.T.);
#70=ORIENTED_EDGE('',*,*,#150,.T.);
#71=ORIENTED_EDGE('',*,*,#151,.T.);
#72=ORIENTED_EDGE('',*,*,#152,.T.);
#73=ORIENTED_EDGE('',*,*,#153,.T.);
#74=ORIENTED_EDGE('',*,*,#154,.F.);
#75=ORIENTED_EDGE('',*,*,#155,.T.);
#76=ORIENTED_EDGE('',*,*,#150,.F.);
#77=ORIENTED_EDGE('',*,*,#156,.T.);
#78=ORIENTED_EDGE('',*,*,#157,.T.);
#79=ORIENTED_EDGE('',*,*,#158,.T.);
#80=ORIENTED_EDGE('',*,*,#159,.T.);
#81=ORIENTED_EDGE('',*,*,#160,.T.);
#82=ORIENTED_EDGE('',*,*,#152,.F.);
#83=ORIENTED_EDGE('',*,*,#161,.T.);
#84=ORIENTED_EDGE('',*,*,#162,.T.);
#85=ORIENTED_EDGE('',*,*,#157,.F.);
#86=ORIENTED_EDGE('',*,*,#163,.T.);
#87=ORIENTED_EDGE('',*,*,#159,.F.);
#88=ORIENTED_EDGE('',*,*,#164,.T.);
#89=ORIENTED_EDGE('',*,*,#165,.T.);
#90=ORIENTED_EDGE('',*,*,#166,.F.);
#91=ORIENTED_EDGE('',*,*,#167,.T.);
#92=ORIENTED_EDGE('',*,*,#165,.F.);
#93=ORIENTED_EDGE('',*,*,#168,.T.);
#94=ORIENTED_EDGE('',*,*,#167,.F.);
#95=ORIENTED_EDGE('',*,*,#169,.T.);
#96=ORIENTED_EDGE('',*,*,#168,.F.);
#97=ORIENTED_EDGE('',*,*,#170,.T.);
#98=ORIENTED_EDGE('',*,*,#169,.F.);
#99=ORIENTED_EDGE('',*,*,#170,.F.);
#100=ORIENTED_EDGE('',*,*,#171,.T.);
#101=ORIENTED_EDGE('',*,*,#172,.T.);
#102=ORIENTED_EDGE('',*,*,#171,.F.);
#103=ORIENTED_EDGE('',*,*,#173,.F.);
#104=ORIENTED_EDGE('',*,*,#172,.F.);
#105=ORIENTED_EDGE('',*,*,#146,.F.);
#106=ORIENTED_EDGE('',*,*,#174,.T.);
#107=ORIENTED_EDGE('',*,*,#175,.T.);
#108=ORIENTED_EDGE('',*,*,#174,.F.);
#109=ORIENTED_EDGE('',*,*,#176,.F.);
#110=ORIENTED_EDGE('',*,*,#148,.T.);
#111=ORIENTED_EDGE('',*,*,#177,.F.);
#112=ORIENTED_EDGE('',*,*,#154,.T.);
#113=ORIENTED_EDGE('',*,*,#175,.F.);
#114=ORIENTED_EDGE('',*,*,#178,.T.);
#115=ORIENTED_EDGE('',*,*,#162,.F.);
#116=ORIENTED_EDGE('',*,*,#179,.T.);
#117=ORIENTED_EDGE('',*,*,#178,.F.);
#118=ORIENTED_EDGE('',*,*,#166,.T.);
#119=ORIENTED_EDGE('',*,*,#179,.F.);
#120=ORIENTED_EDGE('',*,*,#177,.T.);
#121=ORIENTED_EDGE('',*,*,#151,.F.);
#122=ORIENTED_EDGE('',*,*,#158,.F.);
#123=ORIENTED_EDGE('',*,*,#164,.F.);
#124=ORIENTED_EDGE('',*,*,#161,.F.);
#125=ORIENTED_EDGE('',*,*,#155,.F.);
#126=ORIENTED_EDGE('',*,*,#176,.T.);
#127=ORIENTED_EDGE('',*,*,#153,.F.);
#128=ORIENTED_EDGE('',*,*,#160,.F.);
#129=ORIENTED_EDGE('',*,*,#163,.F.);
#130=ORIENTED_EDGE('',*,*,#156,.F.);
#131=ORIENTED_EDGE('',*,*,#149,.F.);
#132=ORIENTED_EDGE('',*,*,#180,.F.);
#133=ORIENTED_EDGE('',*,*,#181,.T.);
#134=ORIENTED_EDGE('',*,*,#182,.F.);
#135=ORIENTED_EDGE('',*,*,#180,.T.);
#136=ORIENTED_EDGE('',*,*,#173,.T.);
#137=ORIENTED_EDGE('',*,*,#182,.T.);
#138=ORIENTED_EDGE('',*,*,#183,.F.);
#139=ORIENTED_EDGE('',*,*,#181,.F.);
#140=ORIENTED_EDGE('',*,*,#184,.F.);
#141=ORIENTED_EDGE('',*,*,#147,.T.);
#142=ORIENTED_EDGE('',*,*,#185,.F.);
#143=ORIENTED_EDGE('',*,*,#184,.T.);
#144=ORIENTED_EDGE('',*,*,#183,.T.);
#145=ORIENTED_EDGE('',*,*,#185,.T.);
#146=EDGE_CURVE('',#186,#186,#220,.T.);
#147=EDGE_CURVE('',#187,#187,#221,.T.);
#148=EDGE_CURVE('',#188,#189,#222,.T.);
#149=EDGE_CURVE('',#188,#190,#42,.F.);
#150=EDGE_CURVE('',#190,#191,#223,.T.);
#151=EDGE_CURVE('',#191,#189,#43,.T.);
#152=EDGE_CURVE('',#192,#193,#224,.T.);
#153=EDGE_CURVE('',#193,#194,#44,.T.);
#154=EDGE_CURVE('',#195,#194,#225,.T.);
#155=EDGE_CURVE('',#195,#192,#45,.F.);
#156=EDGE_CURVE('',#190,#196,#34,.T.);
#157=EDGE_CURVE('',#196,#197,#226,.T.);
#158=EDGE_CURVE('',#197,#191,#35,.T.);
#159=EDGE_CURVE('',#198,#199,#227,.T.);
#160=EDGE_CURVE('',#199,#193,#36,.T.);
#161=EDGE_CURVE('',#192,#198,#37,.T.);
#162=EDGE_CURVE('',#200,#200,#228,.T.);
#163=EDGE_CURVE('',#196,#199,#46,.T.);
#164=EDGE_CURVE('',#198,#197,#47,.T.);
#165=EDGE_CURVE('',#201,#201,#229,.T.);
#166=EDGE_CURVE('',#202,#202,#230,.T.);
#167=EDGE_CURVE('',#203,#203,#231,.T.);
#168=EDGE_CURVE('',#204,#204,#232,.T.);
#169=EDGE_CURVE('',#205,#205,#233,.T.);
#170=EDGE_CURVE('',#206,#206,#234,.T.);
#171=EDGE_CURVE('',#207,#207,#235,.T.);
#172=EDGE_CURVE('',#208,#208,#236,.T.);
#173=EDGE_CURVE('',#209,#209,#237,.F.);
#174=EDGE_CURVE('',#210,#210,#238,.T.);
#175=EDGE_CURVE('',#211,#211,#239,.T.);
#176=EDGE_CURVE('',#188,#194,#48,.T.);
#177=EDGE_CURVE('',#195,#189,#49,.T.);
#178=EDGE_CURVE('',#212,#212,#240,.T.);
#179=EDGE_CURVE('',#213,#213,#241,.T.);
#180=EDGE_CURVE('',#214,#214,#242,.T.);
#181=EDGE_CURVE('',#215,#215,#243,.T.);
#182=EDGE_CURVE('',#216,#216,#244,.T.);
#183=EDGE_CURVE('',#217,#217,#245,.F.);
#184=EDGE_CURVE('',#218,#218,#246,.T.);
#185=EDGE_CURVE('',#219,#219,#247,.T.);
#186=VERTEX_POINT('',#581);
#187=VERTEX_POINT('',#583);
#188=VERTEX_POINT('',#586);
#189=VERTEX_POINT('',#587);
#190=VERTEX_POINT('',#589);
#191=VERTEX_POINT('',#591);
#192=VERTEX_POINT('',#595);
#193=VERTEX_POINT('',#596);
#194=VERTEX_POINT('',#598);
#195=VERTEX_POINT('',#600);
#196=VERTEX_POINT('',#607);
#197=VERTEX_POINT('',#609);
#198=VERTEX_POINT('',#616);
#199=VERTEX_POINT('',#617);
#200=VERTEX_POINT('',#628);
#201=VERTEX_POINT('',#633);
#202=VERTEX_POINT('',#635);
#203=VERTEX_POINT('',#638);
#204=VERTEX_POINT('',#641);
#205=VERTEX_POINT('',#644);
#206=VERTEX_POINT('',#647);
#207=VERTEX_POINT('',#650);
#208=VERTEX_POINT('',#653);
#209=VERTEX_POINT('',#656);
#210=VERTEX_POINT('',#659);
#211=VERTEX_POINT('',#662);
#212=VERTEX_POINT('',#668);
#213=VERTEX_POINT('',#671);
#214=VERTEX_POINT('',#677);
#215=VERTEX_POINT('',#679);
#216=VERTEX_POINT('',#682);
#217=VERTEX_POINT('',#686);
#218=VERTEX_POINT('',#689);
#219=VERTEX_POINT('',#692);
#220=CIRCLE('',#398,12.2174999999965);
#221=CIRCLE('',#399,12.7);
#222=CIRCLE('',#401,9.5);
#223=CIRCLE('',#402,9.5);
#224=CIRCLE('',#404,9.5);
#225=CIRCLE('',#405,9.5);
#226=CIRCLE('',#407,9.);
#227=CIRCLE('',#409,9.);
#228=CIRCLE('',#411,6.5785);
#229=CIRCLE('',#413,2.);
#230=CIRCLE('',#414,2.);
#231=CIRCLE('',#416,2.5);
#232=CIRCLE('',#418,3.);
#233=CIRCLE('',#420,3.);
#234=CIRCLE('',#422,8.208);
#235=CIRCLE('',#424,13.8110045027001);
#236=CIRCLE('',#426,14.895);
#237=CIRCLE('',#428,14.4281049264745);
#238=CIRCLE('',#430,11.75);
#239=CIRCLE('',#432,11.75);
#240=CIRCLE('',#435,5.7225);
#241=CIRCLE('',#437,5.7225);
#242=CIRCLE('',#442,14.025);
#243=CIRCLE('',#443,14.025);
#244=CIRCLE('',#445,14.275);
#245=CIRCLE('',#448,13.1103814345187);
#246=CIRCLE('',#450,12.7);
#247=CIRCLE('',#452,12.95);
#248=EDGE_LOOP('',(#66));
#249=EDGE_LOOP('',(#67));
#250=EDGE_LOOP('',(#68,#69,#70,#71));
#251=EDGE_LOOP('',(#72,#73,#74,#75));
#252=EDGE_LOOP('',(#76,#77,#78,#79));
#253=EDGE_LOOP('',(#80,#81,#82,#83));
#254=EDGE_LOOP('',(#84));
#255=EDGE_LOOP('',(#85,#86,#87,#88));
#256=EDGE_LOOP('',(#89));
#257=EDGE_LOOP('',(#90));
#258=EDGE_LOOP('',(#91));
#259=EDGE_LOOP('',(#92));
#260=EDGE_LOOP('',(#93));
#261=EDGE_LOOP('',(#94));
#262=EDGE_LOOP('',(#95));
#263=EDGE_LOOP('',(#96));
#264=EDGE_LOOP('',(#97));
#265=EDGE_LOOP('',(#98));
#266=EDGE_LOOP('',(#99));
#267=EDGE_LOOP('',(#100));
#268=EDGE_LOOP('',(#101));
#269=EDGE_LOOP('',(#102));
#270=EDGE_LOOP('',(#103));
#271=EDGE_LOOP('',(#104));
#272=EDGE_LOOP('',(#105));
#273=EDGE_LOOP('',(#106));
#274=EDGE_LOOP('',(#107));
#275=EDGE_LOOP('',(#108));
#276=EDGE_LOOP('',(#109,#110,#111,#112));
#277=EDGE_LOOP('',(#113));
#278=EDGE_LOOP('',(#114));
#279=EDGE_LOOP('',(#115));
#280=EDGE_LOOP('',(#116));
#281=EDGE_LOOP('',(#117));
#282=EDGE_LOOP('',(#118));
#283=EDGE_LOOP('',(#119));
#284=EDGE_LOOP('',(#120,#121,#122,#123,#124,#125));
#285=EDGE_LOOP('',(#126,#127,#128,#129,#130,#131));
#286=EDGE_LOOP('',(#132));
#287=EDGE_LOOP('',(#133));
#288=EDGE_LOOP('',(#134));
#289=EDGE_LOOP('',(#135));
#290=EDGE_LOOP('',(#136));
#291=EDGE_LOOP('',(#137));
#292=EDGE_LOOP('',(#138));
#293=EDGE_LOOP('',(#139));
#294=EDGE_LOOP('',(#140));
#295=EDGE_LOOP('',(#141));
#296=EDGE_LOOP('',(#142));
#297=EDGE_LOOP('',(#143));
#298=EDGE_LOOP('',(#144));
#299=EDGE_LOOP('',(#145));
#300=FACE_BOUND('',#248,.T.);
#301=FACE_BOUND('',#249,.T.);
#302=FACE_BOUND('',#250,.T.);
#303=FACE_BOUND('',#251,.T.);
#304=FACE_BOUND('',#252,.T.);
#305=FACE_BOUND('',#253,.T.);
#306=FACE_BOUND('',#254,.T.);
#307=FACE_BOUND('',#255,.T.);
#308=FACE_BOUND('',#256,.T.);
#309=FACE_BOUND('',#257,.T.);
#310=FACE_BOUND('',#258,.T.);
#311=FACE_BOUND('',#259,.T.);
#312=FACE_BOUND('',#260,.T.);
#313=FACE_BOUND('',#261,.T.);
#314=FACE_BOUND('',#262,.T.);
#315=FACE_BOUND('',#263,.T.);
#316=FACE_BOUND('',#264,.T.);
#317=FACE_BOUND('',#265,.T.);
#318=FACE_BOUND('',#266,.T.);
#319=FACE_BOUND('',#267,.T.);
#320=FACE_BOUND('',#268,.T.);
#321=FACE_BOUND('',#269,.T.);
#322=FACE_BOUND('',#270,.T.);
#323=FACE_BOUND('',#271,.T.);
#324=FACE_BOUND('',#272,.T.);
#325=FACE_BOUND('',#273,.T.);
#326=FACE_BOUND('',#274,.T.);
#327=FACE_BOUND('',#275,.T.);
#328=FACE_BOUND('',#276,.T.);
#329=FACE_BOUND('',#277,.T.);
#330=FACE_BOUND('',#278,.T.);
#331=FACE_BOUND('',#279,.T.);
#332=FACE_BOUND('',#280,.T.);
#333=FACE_BOUND('',#281,.T.);
#334=FACE_BOUND('',#282,.T.);
#335=FACE_BOUND('',#283,.T.);
#336=FACE_BOUND('',#284,.T.);
#337=FACE_BOUND('',#285,.T.);
#338=FACE_BOUND('',#286,.T.);
#339=FACE_BOUND('',#287,.T.);
#340=FACE_BOUND('',#288,.T.);
#341=FACE_BOUND('',#289,.T.);
#342=FACE_BOUND('',#290,.T.);
#343=FACE_BOUND('',#291,.T.);
#344=FACE_BOUND('',#292,.T.);
#345=FACE_BOUND('',#293,.T.);
#346=FACE_BOUND('',#294,.T.);
#347=FACE_BOUND('',#295,.T.);
#348=FACE_BOUND('',#296,.T.);
#349=FACE_BOUND('',#297,.T.);
#350=FACE_BOUND('',#298,.T.);
#351=FACE_BOUND('',#299,.T.);
#352=DEGENERATE_TOROIDAL_SURFACE('',#397,1.2617692880528,19.4999999999993,
 .F.);
#353=DEGENERATE_TOROIDAL_SURFACE('',#427,1.2617692880528,19.4999999999993,
 .F.);
#354=DEGENERATE_TOROIDAL_SURFACE('',#447,1.2617692880528,19.4999999999993,
 .F.);
#355=ADVANCED_FACE('',(#300,#301),#352,.F.);
#356=ADVANCED_FACE('',(#302),#58,.T.);
#357=ADVANCED_FACE('',(#303),#59,.T.);
#358=ADVANCED_FACE('',(#304),#38,.T.);
#359=ADVANCED_FACE('',(#305),#39,.T.);
#360=ADVANCED_FACE('',(#306,#307),#25,.T.);
#361=ADVANCED_FACE('',(#308,#309),#60,.F.);
#362=ADVANCED_FACE('',(#310,#311),#40,.F.);
#363=ADVANCED_FACE('',(#312,#313),#26,.T.);
#364=ADVANCED_FACE('',(#314,#315),#61,.F.);
#365=ADVANCED_FACE('',(#316,#317),#27,.T.);
#366=ADVANCED_FACE('',(#318,#319),#20,.F.);
#367=ADVANCED_FACE('',(#320,#321),#21,.T.);
#368=ADVANCED_FACE('',(#322,#323),#353,.F.);
#369=ADVANCED_FACE('',(#324,#325),#22,.F.);
#370=ADVANCED_FACE('',(#326,#327),#62,.T.);
#371=ADVANCED_FACE('',(#328,#329),#28,.T.);
#372=ADVANCED_FACE('',(#330,#331),#41,.F.);
#373=ADVANCED_FACE('',(#332,#333),#63,.F.);
#374=ADVANCED_FACE('',(#334,#335),#29,.T.);
#375=ADVANCED_FACE('',(#336),#30,.T.);
#376=ADVANCED_FACE('',(#337),#31,.T.);
#377=ADVANCED_FACE('',(#338,#339),#64,.T.);
#378=ADVANCED_FACE('',(#340,#341),#23,.F.);
#379=ADVANCED_FACE('',(#342,#343),#32,.F.);
#380=ADVANCED_FACE('',(#344,#345),#354,.F.);
#381=ADVANCED_FACE('',(#346,#347),#65,.T.);
#382=ADVANCED_FACE('',(#348,#349),#24,.F.);
#383=ADVANCED_FACE('',(#350,#351),#33,.F.);
#384=CLOSED_SHELL('',(#355,#356,#357,#358,#359,#360,#361,#362,#363,#364,
#365,#366,#367,#368,#369,#370,#371,#372,#373,#374,#375,#376,#377,#378,#379,
#380,#381,#382,#383));
#385=STYLED_ITEM('',(#386),#393);
#386=PRESENTATION_STYLE_ASSIGNMENT((#387));
#387=SURFACE_STYLE_USAGE(.BOTH.,#388);
#388=SURFACE_SIDE_STYLE('',(#389));
#389=SURFACE_STYLE_FILL_AREA(#390);
#390=FILL_AREA_STYLE('',(#391));
#391=FILL_AREA_STYLE_COLOUR('',#392);
#392=COLOUR_RGB('',0.689999997615814,0.689999997615814,0.689999997615814);
#393=MANIFOLD_SOLID_BREP('8073816 OGVM-30-S-N-G14F---(high)',#384);
#394=SHAPE_DEFINITION_REPRESENTATION(#700,#395);
#395=SHAPE_REPRESENTATION('8073816 OGVM-30-S-N-G14F---(high)',(#396),#695);
#396=AXIS2_PLACEMENT_3D('',#578,#454,#455);
#397=AXIS2_PLACEMENT_3D('',#579,#456,#457);
#398=AXIS2_PLACEMENT_3D('',#580,#458,#459);
#399=AXIS2_PLACEMENT_3D('',#582,#460,#461);
#400=AXIS2_PLACEMENT_3D('',#584,#462,#463);
#401=AXIS2_PLACEMENT_3D('',#585,#464,#465);
#402=AXIS2_PLACEMENT_3D('',#590,#467,#468);
#403=AXIS2_PLACEMENT_3D('',#593,#470,#471);
#404=AXIS2_PLACEMENT_3D('',#594,#472,#473);
#405=AXIS2_PLACEMENT_3D('',#599,#475,#476);
#406=AXIS2_PLACEMENT_3D('',#602,#478,#479);
#407=AXIS2_PLACEMENT_3D('',#608,#480,#481);
#408=AXIS2_PLACEMENT_3D('',#614,#482,#483);
#409=AXIS2_PLACEMENT_3D('',#615,#484,#485);
#410=AXIS2_PLACEMENT_3D('',#626,#486,#487);
#411=AXIS2_PLACEMENT_3D('',#627,#488,#489);
#412=AXIS2_PLACEMENT_3D('',#631,#492,#493);
#413=AXIS2_PLACEMENT_3D('',#632,#494,#495);
#414=AXIS2_PLACEMENT_3D('',#634,#496,#497);
#415=AXIS2_PLACEMENT_3D('',#636,#498,#499);
#416=AXIS2_PLACEMENT_3D('',#637,#500,#501);
#417=AXIS2_PLACEMENT_3D('',#639,#502,#503);
#418=AXIS2_PLACEMENT_3D('',#640,#504,#505);
#419=AXIS2_PLACEMENT_3D('',#642,#506,#507);
#420=AXIS2_PLACEMENT_3D('',#643,#508,#509);
#421=AXIS2_PLACEMENT_3D('',#645,#510,#511);
#422=AXIS2_PLACEMENT_3D('',#646,#512,#513);
#423=AXIS2_PLACEMENT_3D('',#648,#514,#515);
#424=AXIS2_PLACEMENT_3D('',#649,#516,#517);
#425=AXIS2_PLACEMENT_3D('',#651,#518,#519);
#426=AXIS2_PLACEMENT_3D('',#652,#520,#521);
#427=AXIS2_PLACEMENT_3D('',#654,#522,#523);
#428=AXIS2_PLACEMENT_3D('',#655,#524,#525);
#429=AXIS2_PLACEMENT_3D('',#657,#526,#527);
#430=AXIS2_PLACEMENT_3D('',#658,#528,#529);
#431=AXIS2_PLACEMENT_3D('',#660,#530,#531);
#432=AXIS2_PLACEMENT_3D('',#661,#532,#533);
#433=AXIS2_PLACEMENT_3D('',#663,#534,#535);
#434=AXIS2_PLACEMENT_3D('',#666,#538,#539);
#435=AXIS2_PLACEMENT_3D('',#667,#540,#541);
#436=AXIS2_PLACEMENT_3D('',#669,#542,#543);
#437=AXIS2_PLACEMENT_3D('',#670,#544,#545);
#438=AXIS2_PLACEMENT_3D('',#672,#546,#547);
#439=AXIS2_PLACEMENT_3D('',#673,#548,#549);
#440=AXIS2_PLACEMENT_3D('',#674,#550,#551);
#441=AXIS2_PLACEMENT_3D('',#675,#552,#553);
#442=AXIS2_PLACEMENT_3D('',#676,#554,#555);
#443=AXIS2_PLACEMENT_3D('',#678,#556,#557);
#444=AXIS2_PLACEMENT_3D('',#680,#558,#559);
#445=AXIS2_PLACEMENT_3D('',#681,#560,#561);
#446=AXIS2_PLACEMENT_3D('',#683,#562,#563);
#447=AXIS2_PLACEMENT_3D('',#684,#564,#565);
#448=AXIS2_PLACEMENT_3D('',#685,#566,#567);
#449=AXIS2_PLACEMENT_3D('',#687,#568,#569);
#450=AXIS2_PLACEMENT_3D('',#688,#570,#571);
#451=AXIS2_PLACEMENT_3D('',#690,#572,#573);
#452=AXIS2_PLACEMENT_3D('',#691,#574,#575);
#453=AXIS2_PLACEMENT_3D('',#693,#576,#577);
#454=DIRECTION('',(0.,0.,1.));
#455=DIRECTION('',(1.,0.,0.));
#456=DIRECTION('',(0.,-1.,0.));
#457=DIRECTION('',(0.,0.,-1.));
#458=DIRECTION('',(0.,-1.,0.));
#459=DIRECTION('',(0.,0.,-1.));
#460=DIRECTION('',(0.,-1.,0.));
#461=DIRECTION('',(0.,0.,-1.));
#462=DIRECTION('',(0.,-1.,0.));
#463=DIRECTION('',(0.,0.,-1.));
#464=DIRECTION('',(0.,-1.,0.));
#465=DIRECTION('',(0.,0.,-1.));
#466=DIRECTION('',(0.,-1.,0.));
#467=DIRECTION('',(0.,-1.,0.));
#468=DIRECTION('',(0.,0.,-1.));
#469=DIRECTION('',(0.,-1.,0.));
#470=DIRECTION('',(0.,-1.,0.));
#471=DIRECTION('',(0.,0.,-1.));
#472=DIRECTION('',(0.,-1.,0.));
#473=DIRECTION('',(0.,0.,-1.));
#474=DIRECTION('',(0.,-1.,0.));
#475=DIRECTION('',(0.,-1.,0.));
#476=DIRECTION('',(0.,0.,-1.));
#477=DIRECTION('',(0.,-1.,0.));
#478=DIRECTION('',(0.,-1.,0.));
#479=DIRECTION('',(0.,0.,-1.));
#480=DIRECTION('',(0.,-1.,0.));
#481=DIRECTION('',(0.,0.,-1.));
#482=DIRECTION('',(0.,-1.,0.));
#483=DIRECTION('',(0.,0.,-1.));
#484=DIRECTION('',(0.,-1.,0.));
#485=DIRECTION('',(0.,0.,-1.));
#486=DIRECTION('',(0.,1.,0.));
#487=DIRECTION('',(0.,0.,1.));
#488=DIRECTION('',(0.,-1.,0.));
#489=DIRECTION('',(0.,0.,-1.));
#490=DIRECTION('',(0.,0.,-1.));
#491=DIRECTION('',(0.,0.,1.));
#492=DIRECTION('',(0.,-1.,0.));
#493=DIRECTION('',(0.,0.,-1.));
#494=DIRECTION('',(0.,-1.,0.));
#495=DIRECTION('',(0.,0.,-1.));
#496=DIRECTION('',(0.,-1.,0.));
#497=DIRECTION('',(0.,0.,-1.));
#498=DIRECTION('',(0.,-1.,0.));
#499=DIRECTION('',(0.,0.,-1.));
#500=DIRECTION('',(0.,-1.,0.));
#501=DIRECTION('',(0.,0.,-1.));
#502=DIRECTION('',(0.,-1.,0.));
#503=DIRECTION('',(0.,0.,-1.));
#504=DIRECTION('',(0.,-1.,0.));
#505=DIRECTION('',(0.,0.,-1.));
#506=DIRECTION('',(0.,-1.,0.));
#507=DIRECTION('',(0.,0.,-1.));
#508=DIRECTION('',(0.,-1.,0.));
#509=DIRECTION('',(0.,0.,-1.));
#510=DIRECTION('',(0.,-1.,0.));
#511=DIRECTION('',(0.,0.,-1.));
#512=DIRECTION('',(0.,-1.,0.));
#513=DIRECTION('',(0.,0.,-1.));
#514=DIRECTION('',(0.,-1.,0.));
#515=DIRECTION('',(0.,0.,-1.));
#516=DIRECTION('',(0.,-1.,0.));
#517=DIRECTION('',(0.,0.,-1.));
#518=DIRECTION('',(0.,-1.,0.));
#519=DIRECTION('',(0.,0.,-1.));
#520=DIRECTION('',(0.,-1.,0.));
#521=DIRECTION('',(0.,0.,-1.));
#522=DIRECTION('',(0.,-1.,0.));
#523=DIRECTION('',(0.,0.,-1.));
#524=DIRECTION('',(0.,-1.,0.));
#525=DIRECTION('',(0.,0.,-1.));
#526=DIRECTION('',(0.,-1.,0.));
#527=DIRECTION('',(0.,0.,-1.));
#528=DIRECTION('',(0.,-1.,0.));
#529=DIRECTION('',(0.,0.,-1.));
#530=DIRECTION('',(0.,-1.,0.));
#531=DIRECTION('',(0.,0.,-1.));
#532=DIRECTION('',(0.,-1.,0.));
#533=DIRECTION('',(0.,0.,-1.));
#534=DIRECTION('',(0.,1.,0.));
#535=DIRECTION('',(0.,0.,1.));
#536=DIRECTION('',(0.,0.,-1.));
#537=DIRECTION('',(0.,0.,1.));
#538=DIRECTION('',(0.,1.,0.));
#539=DIRECTION('',(0.,0.,1.));
#540=DIRECTION('',(0.,-1.,0.));
#541=DIRECTION('',(0.,0.,-1.));
#542=DIRECTION('',(0.,-1.,0.));
#543=DIRECTION('',(0.,0.,-1.));
#544=DIRECTION('',(0.,-1.,0.));
#545=DIRECTION('',(0.,0.,-1.));
#546=DIRECTION('',(0.,1.,0.));
#547=DIRECTION('',(0.,0.,1.));
#548=DIRECTION('',(-1.,0.,0.));
#549=DIRECTION('',(0.,0.,1.));
#550=DIRECTION('',(1.,0.,0.));
#551=DIRECTION('',(0.,0.,-1.));
#552=DIRECTION('',(0.,-1.,0.));
#553=DIRECTION('',(0.,0.,-1.));
#554=DIRECTION('',(0.,-1.,0.));
#555=DIRECTION('',(0.,0.,-1.));
#556=DIRECTION('',(0.,-1.,0.));
#557=DIRECTION('',(0.,0.,-1.));
#558=DIRECTION('',(0.,-1.,0.));
#559=DIRECTION('',(0.,0.,-1.));
#560=DIRECTION('',(0.,-1.,0.));
#561=DIRECTION('',(0.,0.,-1.));
#562=DIRECTION('',(0.,-1.,0.));
#563=DIRECTION('',(0.,0.,-1.));
#564=DIRECTION('',(0.,-1.,0.));
#565=DIRECTION('',(0.,0.,-1.));
#566=DIRECTION('',(0.,-1.,0.));
#567=DIRECTION('',(0.,0.,-1.));
#568=DIRECTION('',(0.,-1.,0.));
#569=DIRECTION('',(0.,0.,-1.));
#570=DIRECTION('',(0.,-1.,0.));
#571=DIRECTION('',(0.,0.,-1.));
#572=DIRECTION('',(0.,-1.,0.));
#573=DIRECTION('',(0.,0.,-1.));
#574=DIRECTION('',(0.,-1.,0.));
#575=DIRECTION('',(0.,0.,-1.));
#576=DIRECTION('',(0.,-1.,0.));
#577=DIRECTION('',(0.,0.,-1.));
#578=CARTESIAN_POINT('',(0.,0.,0.));
#579=CARTESIAN_POINT('',(0.,-9.97919889855442,0.));
#580=CARTESIAN_POINT('',(0.,4.11190820700056,0.));
#581=CARTESIAN_POINT('',(0.,4.11190820700056,-12.2174999999965));
#582=CARTESIAN_POINT('',(0.,3.63399317190271,0.));
#583=CARTESIAN_POINT('',(0.,3.63399317190271,-12.7));
#584=CARTESIAN_POINT('',(0.,0.,0.));
#585=CARTESIAN_POINT('',(0.,8.5,0.));
#586=CARTESIAN_POINT('',(8.5,8.5,4.24264068711928));
#587=CARTESIAN_POINT('',(-8.5,8.5,4.24264068711928));
#588=CARTESIAN_POINT('',(8.5,0.,4.24264068711928));
#589=CARTESIAN_POINT('',(8.5,19.5,4.24264068711928));
#590=CARTESIAN_POINT('',(0.,19.5,0.));
#591=CARTESIAN_POINT('',(-8.5,19.5,4.24264068711928));
#592=CARTESIAN_POINT('',(-8.5,0.,4.24264068711928));
#593=CARTESIAN_POINT('',(0.,0.,0.));
#594=CARTESIAN_POINT('',(0.,19.5,0.));
#595=CARTESIAN_POINT('',(-8.5,19.5,-4.24264068711928));
#596=CARTESIAN_POINT('',(8.5,19.5,-4.24264068711928));
#597=CARTESIAN_POINT('',(8.5,0.,-4.24264068711928));
#598=CARTESIAN_POINT('',(8.5,8.5,-4.24264068711928));
#599=CARTESIAN_POINT('',(0.,8.5,0.));
#600=CARTESIAN_POINT('',(-8.5,8.5,-4.24264068711928));
#601=CARTESIAN_POINT('',(-8.5,0.,-4.24264068711928));
#602=CARTESIAN_POINT('',(0.,19.5,0.));
#603=CARTESIAN_POINT('',(8.5,19.5,4.24264068711928));
#604=CARTESIAN_POINT('',(8.5,19.688678345218,3.82015751879146));
#605=CARTESIAN_POINT('',(8.5,19.8572235415301,3.392445164413));
#606=CARTESIAN_POINT('',(8.5,20.,2.95803989154981));
#607=CARTESIAN_POINT('',(8.5,20.,2.95803989154981));
#608=CARTESIAN_POINT('',(0.,20.,0.));
#609=CARTESIAN_POINT('',(-8.5,20.,2.95803989154981));
#610=CARTESIAN_POINT('',(-8.5,20.,2.95803989154981));
#611=CARTESIAN_POINT('',(-8.5,19.8567941887419,3.39375149402166));
#612=CARTESIAN_POINT('',(-8.5,19.6875766649918,3.82262436972778));
#613=CARTESIAN_POINT('',(-8.5,19.5000000000002,4.24264068711938));
#614=CARTESIAN_POINT('',(0.,19.5,0.));
#615=CARTESIAN_POINT('',(0.,20.,0.));
#616=CARTESIAN_POINT('',(-8.5,20.,-2.95803989154981));
#617=CARTESIAN_POINT('',(8.5,20.,-2.95803989154981));
#618=CARTESIAN_POINT('',(8.5,20.,-2.95803989154981));
#619=CARTESIAN_POINT('',(8.5,19.8567941887419,-3.39375149402166));
#620=CARTESIAN_POINT('',(8.5,19.6875766649918,-3.82262436972778));
#621=CARTESIAN_POINT('',(8.5,19.5000000000002,-4.24264068711938));
#622=CARTESIAN_POINT('',(-8.5,19.5,-4.24264068711928));
#623=CARTESIAN_POINT('',(-8.5,19.688678345218,-3.82015751879146));
#624=CARTESIAN_POINT('',(-8.5,19.8572235415301,-3.392445164413));
#625=CARTESIAN_POINT('',(-8.5,20.,-2.95803989154981));
#626=CARTESIAN_POINT('',(9.,20.,0.));
#627=CARTESIAN_POINT('',(0.,20.,0.));
#628=CARTESIAN_POINT('',(0.,20.,-6.5785));
#629=CARTESIAN_POINT('',(8.5,20.,0.));
#630=CARTESIAN_POINT('',(-8.5,20.,0.));
#631=CARTESIAN_POINT('',(0.,0.,0.));
#632=CARTESIAN_POINT('',(0.,5.5,0.));
#633=CARTESIAN_POINT('',(0.,5.5,-2.));
#634=CARTESIAN_POINT('',(0.,8.,0.));
#635=CARTESIAN_POINT('',(0.,8.,-2.));
#636=CARTESIAN_POINT('',(0.,5.5,0.));
#637=CARTESIAN_POINT('',(0.,5.,0.));
#638=CARTESIAN_POINT('',(0.,5.,-2.5));
#639=CARTESIAN_POINT('',(2.5,5.,0.));
#640=CARTESIAN_POINT('',(0.,5.,0.));
#641=CARTESIAN_POINT('',(0.,5.,-3.));
#642=CARTESIAN_POINT('',(0.,0.,0.));
#643=CARTESIAN_POINT('',(0.,3.,0.));
#644=CARTESIAN_POINT('',(0.,3.,-3.));
#645=CARTESIAN_POINT('',(3.,3.,0.));
#646=CARTESIAN_POINT('',(0.,3.,0.));
#647=CARTESIAN_POINT('',(0.,3.,-8.208));
#648=CARTESIAN_POINT('',(0.,-4.5,0.));
#649=CARTESIAN_POINT('',(0.,0.485613356721747,0.));
#650=CARTESIAN_POINT('',(0.,0.485613356721747,-13.8110045027001));
#651=CARTESIAN_POINT('',(0.,0.600000000000014,0.));
#652=CARTESIAN_POINT('',(0.,0.939079636663761,0.));
#653=CARTESIAN_POINT('',(0.,0.939079636663761,-14.895));
#654=CARTESIAN_POINT('',(0.,-9.97919889855442,0.));
#655=CARTESIAN_POINT('',(0.,1.6,0.));
#656=CARTESIAN_POINT('',(0.,1.6,-14.4281049264745));
#657=CARTESIAN_POINT('',(0.,5.20000000000002,0.));
#658=CARTESIAN_POINT('',(0.,5.2,0.));
#659=CARTESIAN_POINT('',(0.,5.2,-11.75));
#660=CARTESIAN_POINT('',(0.,0.,0.));
#661=CARTESIAN_POINT('',(0.,8.5,0.));
#662=CARTESIAN_POINT('',(0.,8.5,-11.75));
#663=CARTESIAN_POINT('',(11.75,8.5,0.));
#664=CARTESIAN_POINT('',(8.5,8.5,15.));
#665=CARTESIAN_POINT('',(-8.5,8.5,-15.));
#666=CARTESIAN_POINT('',(0.,20.,0.));
#667=CARTESIAN_POINT('',(0.,19.144,0.));
#668=CARTESIAN_POINT('',(0.,19.144,-5.7225));
#669=CARTESIAN_POINT('',(0.,0.,0.));
#670=CARTESIAN_POINT('',(0.,8.,0.));
#671=CARTESIAN_POINT('',(0.,8.,-5.7225));
#672=CARTESIAN_POINT('',(5.7225,8.,0.));
#673=CARTESIAN_POINT('',(-8.5,8.5,-15.));
#674=CARTESIAN_POINT('',(8.5,8.5,15.));
#675=CARTESIAN_POINT('',(0.,-50.,0.));
#676=CARTESIAN_POINT('',(0.,1.85,0.));
#677=CARTESIAN_POINT('',(0.,1.85,-14.025));
#678=CARTESIAN_POINT('',(0.,2.12719134518946,0.));
#679=CARTESIAN_POINT('',(0.,2.12719134518946,-14.025));
#680=CARTESIAN_POINT('',(0.,1.85,0.));
#681=CARTESIAN_POINT('',(0.,1.6,0.));
#682=CARTESIAN_POINT('',(0.,1.6,-14.275));
#683=CARTESIAN_POINT('',(14.275,1.6,0.));
#684=CARTESIAN_POINT('',(0.,-9.97919889855442,0.));
#685=CARTESIAN_POINT('',(0.,3.2,0.));
#686=CARTESIAN_POINT('',(0.,3.2,-13.1103814345187));
#687=CARTESIAN_POINT('',(0.,-50.,0.));
#688=CARTESIAN_POINT('',(0.,3.45,0.));
#689=CARTESIAN_POINT('',(0.,3.45,-12.7));
#690=CARTESIAN_POINT('',(0.,3.45,0.));
#691=CARTESIAN_POINT('',(0.,3.19999999999999,0.));
#692=CARTESIAN_POINT('',(0.,3.19999999999999,-12.95));
#693=CARTESIAN_POINT('',(12.95,3.2,0.));
#694=MECHANICAL_DESIGN_GEOMETRIC_PRESENTATION_REPRESENTATION('',(#385),
#695);
#695=(
GEOMETRIC_REPRESENTATION_CONTEXT(3)
GLOBAL_UNCERTAINTY_ASSIGNED_CONTEXT((#696))
GLOBAL_UNIT_ASSIGNED_CONTEXT((#699,#698,#697))
REPRESENTATION_CONTEXT('8073816 OGVM-30-S-N-G14F---(high)',
'TOP_LEVEL_ASSEMBLY_PART')
);
#696=UNCERTAINTY_MEASURE_WITH_UNIT(LENGTH_MEASURE(0.005),#699,
'DISTANCE_ACCURACY_VALUE','Maximum Tolerance applied to model');
#697=(
NAMED_UNIT(*)
SI_UNIT($,.STERADIAN.)
SOLID_ANGLE_UNIT()
);
#698=(
NAMED_UNIT(*)
PLANE_ANGLE_UNIT()
SI_UNIT($,.RADIAN.)
);
#699=(
LENGTH_UNIT()
NAMED_UNIT(*)
SI_UNIT(.MILLI.,.METRE.)
);
#700=PRODUCT_DEFINITION_SHAPE('','',#701);
#701=PRODUCT_DEFINITION('','',#703,#702);
#702=PRODUCT_DEFINITION_CONTEXT('',#709,'design');
#703=PRODUCT_DEFINITION_FORMATION_WITH_SPECIFIED_SOURCE('','',#705,
 .NOT_KNOWN.);
#704=PRODUCT_RELATED_PRODUCT_CATEGORY('','',(#705));
#705=PRODUCT('8073816 OGVM-30-S-N-G14F---(high)',
'8073816 OGVM-30-S-N-G14F---(high)','8073816 OGVM-30-S-N-G14F---(high)',
(#707));
#706=PRODUCT_CATEGORY('','');
#707=PRODUCT_CONTEXT('',#709,'mechanical');
#708=APPLICATION_PROTOCOL_DEFINITION('international standard',
'automotive_design',2010,#709);
#709=APPLICATION_CONTEXT(
'core data for automotive mechanical design processes');
ENDSEC;
END-ISO-10303-21;
