ISO-10303-21;
HEADER;
/* Generated by software containing ST-Developer
 * from STEP Tools, Inc. (www.steptools.com) 
 */
/* OPTION: using custom renumber hook */

FILE_DESCRIPTION(
/* description */ ('STEP AP214'),
/* implementation_level */ '2;1');

FILE_NAME(
/* name */ '8073831_OGVM-45-G-N-G14F',
/* time_stamp */ '2024-09-13T10:29:18+02:00',
/* author */ ('License CC BY-ND 4.0'),
/* organization */ ('CADENAS'),
/* preprocessor_version */ 'ST-DEVELOPER v19.3',
/* originating_system */ 'PARTsolutions',
/* authorisation */ '  ');

FILE_SCHEMA (('AUTOMOTIVE_DESIGN {1 0 10303 214 3 1 1}'));
ENDSEC;

DATA;
#10=PROPERTY_DEFINITION_REPRESENTATION(#14,#12);
#11=PROPERTY_DEFINITION_REPRESENTATION(#15,#13);
#12=REPRESENTATION('',(#16),#655);
#13=REPRESENTATION('',(#17),#655);
#14=PROPERTY_DEFINITION('pmi validation property','',#660);
#15=PROPERTY_DEFINITION('pmi validation property','',#660);
#16=VALUE_REPRESENTATION_ITEM('number of annotations',COUNT_MEASURE(0.));
#17=VALUE_REPRESENTATION_ITEM('number of views',COUNT_MEASURE(0.));
#18=SHAPE_REPRESENTATION_RELATIONSHIP('','',#373,#19);
#19=ADVANCED_BREP_SHAPE_REPRESENTATION('',(#371),#655);
#20=DEGENERATE_TOROIDAL_SURFACE('',#395,4.77616641519486,34.0000000000005,
 .F.);
#21=DEGENERATE_TOROIDAL_SURFACE('',#407,4.31533443854555,24.0000000000001,
 .T.);
#22=TOROIDAL_SURFACE('',#391,14.5,1.5);
#23=TOROIDAL_SURFACE('',#393,14.4998134010733,2.50000000000001);
#24=TOROIDAL_SURFACE('',#397,15.0579252348803,9.12500000000008);
#25=TOROIDAL_SURFACE('',#399,22.3,1.2);
#26=TOROIDAL_SURFACE('',#405,23.2,0.15);
#27=CYLINDRICAL_SURFACE('',#383,9.25);
#28=CYLINDRICAL_SURFACE('',#385,9.25);
#29=CYLINDRICAL_SURFACE('',#389,13.);
#30=CYLINDRICAL_SURFACE('',#401,23.5);
#31=CYLINDRICAL_SURFACE('',#413,3.75);
#32=CYLINDRICAL_SURFACE('',#417,5.7225);
#33=CYLINDRICAL_SURFACE('',#423,2.);
#34=B_SPLINE_CURVE_WITH_KNOTS('',3,(#557,#558,#559,#560),.UNSPECIFIED.,
 .F.,.F.,(4,4),(1.88187549103104E-6,0.00164388677941706),.UNSPECIFIED.);
#35=B_SPLINE_CURVE_WITH_KNOTS('',3,(#564,#565,#566,#567),.UNSPECIFIED.,
 .F.,.F.,(4,4),(0.00581549179556979,0.00745039780447392),.UNSPECIFIED.);
#36=B_SPLINE_CURVE_WITH_KNOTS('',3,(#569,#570,#571,#572),.UNSPECIFIED.,
 .F.,.F.,(4,4),(0.00581549179556979,0.00745039780447392),.UNSPECIFIED.);
#37=B_SPLINE_CURVE_WITH_KNOTS('',3,(#574,#575,#576,#577),.UNSPECIFIED.,
 .F.,.F.,(4,4),(1.88187549103104E-6,0.00164388677941706),.UNSPECIFIED.);
#38=CONICAL_SURFACE('',#379,8.75,0.785398163397447);
#39=CONICAL_SURFACE('',#381,8.75,0.785398163397447);
#40=CONICAL_SURFACE('',#403,23.5,0.523598775598299);
#41=CONICAL_SURFACE('',#415,6.5785,0.785398163397446);
#42=CONICAL_SURFACE('',#421,2.2,0.785398163397447);
#43=CONICAL_SURFACE('',#425,2.,0.785398163397447);
#44=CIRCLE('',#376,8.75);
#45=CIRCLE('',#377,8.75);
#46=CIRCLE('',#378,6.5785);
#47=CIRCLE('',#380,9.25);
#48=CIRCLE('',#382,9.25);
#49=CIRCLE('',#384,9.25);
#50=CIRCLE('',#386,9.25);
#51=CIRCLE('',#388,13.);
#52=CIRCLE('',#390,13.);
#53=CIRCLE('',#392,14.5000000000052);
#54=CIRCLE('',#394,16.0299999999985);
#55=CIRCLE('',#396,20.9735);
#56=CIRCLE('',#398,23.2905);
#57=CIRCLE('',#400,23.5);
#58=CIRCLE('',#402,23.5);
#59=CIRCLE('',#404,23.3259399483573);
#60=CIRCLE('',#406,23.05);
#61=CIRCLE('',#408,12.25);
#62=CIRCLE('',#410,3.75);
#63=CIRCLE('',#414,3.75);
#64=CIRCLE('',#416,5.7225);
#65=CIRCLE('',#418,5.7225);
#66=CIRCLE('',#420,2.2);
#67=CIRCLE('',#422,2.);
#68=CIRCLE('',#424,2.);
#69=CIRCLE('',#426,2.2);
#70=ORIENTED_EDGE('',*,*,#146,.T.);
#71=ORIENTED_EDGE('',*,*,#147,.F.);
#72=ORIENTED_EDGE('',*,*,#148,.T.);
#73=ORIENTED_EDGE('',*,*,#149,.F.);
#74=ORIENTED_EDGE('',*,*,#150,.T.);
#75=ORIENTED_EDGE('',*,*,#151,.F.);
#76=ORIENTED_EDGE('',*,*,#152,.F.);
#77=ORIENTED_EDGE('',*,*,#153,.F.);
#78=ORIENTED_EDGE('',*,*,#149,.T.);
#79=ORIENTED_EDGE('',*,*,#154,.F.);
#80=ORIENTED_EDGE('',*,*,#147,.T.);
#81=ORIENTED_EDGE('',*,*,#155,.F.);
#82=ORIENTED_EDGE('',*,*,#156,.F.);
#83=ORIENTED_EDGE('',*,*,#157,.F.);
#84=ORIENTED_EDGE('',*,*,#156,.T.);
#85=ORIENTED_EDGE('',*,*,#158,.F.);
#86=ORIENTED_EDGE('',*,*,#159,.F.);
#87=ORIENTED_EDGE('',*,*,#160,.F.);
#88=ORIENTED_EDGE('',*,*,#161,.F.);
#89=ORIENTED_EDGE('',*,*,#162,.F.);
#90=ORIENTED_EDGE('',*,*,#152,.T.);
#91=ORIENTED_EDGE('',*,*,#163,.F.);
#92=ORIENTED_EDGE('',*,*,#164,.F.);
#93=ORIENTED_EDGE('',*,*,#161,.T.);
#94=ORIENTED_EDGE('',*,*,#165,.F.);
#95=ORIENTED_EDGE('',*,*,#159,.T.);
#96=ORIENTED_EDGE('',*,*,#166,.F.);
#97=ORIENTED_EDGE('',*,*,#163,.T.);
#98=ORIENTED_EDGE('',*,*,#167,.F.);
#99=ORIENTED_EDGE('',*,*,#166,.T.);
#100=ORIENTED_EDGE('',*,*,#167,.T.);
#101=ORIENTED_EDGE('',*,*,#168,.F.);
#102=ORIENTED_EDGE('',*,*,#168,.T.);
#103=ORIENTED_EDGE('',*,*,#169,.F.);
#104=ORIENTED_EDGE('',*,*,#169,.T.);
#105=ORIENTED_EDGE('',*,*,#170,.F.);
#106=ORIENTED_EDGE('',*,*,#170,.T.);
#107=ORIENTED_EDGE('',*,*,#171,.F.);
#108=ORIENTED_EDGE('',*,*,#172,.F.);
#109=ORIENTED_EDGE('',*,*,#171,.T.);
#110=ORIENTED_EDGE('',*,*,#173,.F.);
#111=ORIENTED_EDGE('',*,*,#172,.T.);
#112=ORIENTED_EDGE('',*,*,#173,.T.);
#113=ORIENTED_EDGE('',*,*,#174,.F.);
#114=ORIENTED_EDGE('',*,*,#175,.F.);
#115=ORIENTED_EDGE('',*,*,#174,.T.);
#116=ORIENTED_EDGE('',*,*,#176,.F.);
#117=ORIENTED_EDGE('',*,*,#175,.T.);
#118=ORIENTED_EDGE('',*,*,#154,.T.);
#119=ORIENTED_EDGE('',*,*,#157,.T.);
#120=ORIENTED_EDGE('',*,*,#165,.T.);
#121=ORIENTED_EDGE('',*,*,#160,.T.);
#122=ORIENTED_EDGE('',*,*,#151,.T.);
#123=ORIENTED_EDGE('',*,*,#148,.F.);
#124=ORIENTED_EDGE('',*,*,#153,.T.);
#125=ORIENTED_EDGE('',*,*,#162,.T.);
#126=ORIENTED_EDGE('',*,*,#164,.T.);
#127=ORIENTED_EDGE('',*,*,#158,.T.);
#128=ORIENTED_EDGE('',*,*,#155,.T.);
#129=ORIENTED_EDGE('',*,*,#146,.F.);
#130=ORIENTED_EDGE('',*,*,#176,.T.);
#131=ORIENTED_EDGE('',*,*,#177,.F.);
#132=ORIENTED_EDGE('',*,*,#178,.T.);
#133=ORIENTED_EDGE('',*,*,#150,.F.);
#134=ORIENTED_EDGE('',*,*,#179,.T.);
#135=ORIENTED_EDGE('',*,*,#178,.F.);
#136=ORIENTED_EDGE('',*,*,#180,.T.);
#137=ORIENTED_EDGE('',*,*,#179,.F.);
#138=ORIENTED_EDGE('',*,*,#181,.T.);
#139=ORIENTED_EDGE('',*,*,#180,.F.);
#140=ORIENTED_EDGE('',*,*,#182,.T.);
#141=ORIENTED_EDGE('',*,*,#181,.F.);
#142=ORIENTED_EDGE('',*,*,#183,.T.);
#143=ORIENTED_EDGE('',*,*,#182,.F.);
#144=ORIENTED_EDGE('',*,*,#177,.T.);
#145=ORIENTED_EDGE('',*,*,#183,.F.);
#146=EDGE_CURVE('',#184,#185,#216,.T.);
#147=EDGE_CURVE('',#186,#185,#44,.T.);
#148=EDGE_CURVE('',#186,#187,#217,.T.);
#149=EDGE_CURVE('',#184,#187,#45,.T.);
#150=EDGE_CURVE('',#188,#188,#46,.T.);
#151=EDGE_CURVE('',#189,#187,#34,.T.);
#152=EDGE_CURVE('',#190,#189,#47,.T.);
#153=EDGE_CURVE('',#184,#190,#35,.T.);
#154=EDGE_CURVE('',#186,#191,#36,.T.);
#155=EDGE_CURVE('',#192,#185,#37,.T.);
#156=EDGE_CURVE('',#191,#192,#48,.T.);
#157=EDGE_CURVE('',#191,#193,#218,.T.);
#158=EDGE_CURVE('',#194,#192,#219,.F.);
#159=EDGE_CURVE('',#193,#194,#49,.T.);
#160=EDGE_CURVE('',#195,#189,#220,.F.);
#161=EDGE_CURVE('',#196,#195,#50,.T.);
#162=EDGE_CURVE('',#190,#196,#221,.T.);
#163=EDGE_CURVE('',#197,#197,#51,.T.);
#164=EDGE_CURVE('',#196,#194,#222,.T.);
#165=EDGE_CURVE('',#193,#195,#223,.T.);
#166=EDGE_CURVE('',#198,#198,#52,.T.);
#167=EDGE_CURVE('',#199,#199,#53,.T.);
#168=EDGE_CURVE('',#200,#200,#54,.T.);
#169=EDGE_CURVE('',#201,#201,#55,.T.);
#170=EDGE_CURVE('',#202,#202,#56,.T.);
#171=EDGE_CURVE('',#203,#203,#57,.T.);
#172=EDGE_CURVE('',#204,#204,#58,.T.);
#173=EDGE_CURVE('',#205,#205,#59,.T.);
#174=EDGE_CURVE('',#206,#206,#60,.T.);
#175=EDGE_CURVE('',#207,#207,#61,.T.);
#176=EDGE_CURVE('',#208,#208,#62,.F.);
#177=EDGE_CURVE('',#209,#209,#63,.T.);
#178=EDGE_CURVE('',#210,#210,#64,.T.);
#179=EDGE_CURVE('',#211,#211,#65,.T.);
#180=EDGE_CURVE('',#212,#212,#66,.T.);
#181=EDGE_CURVE('',#213,#213,#67,.T.);
#182=EDGE_CURVE('',#214,#214,#68,.T.);
#183=EDGE_CURVE('',#215,#215,#69,.T.);
#184=VERTEX_POINT('',#547);
#185=VERTEX_POINT('',#548);
#186=VERTEX_POINT('',#550);
#187=VERTEX_POINT('',#552);
#188=VERTEX_POINT('',#555);
#189=VERTEX_POINT('',#561);
#190=VERTEX_POINT('',#563);
#191=VERTEX_POINT('',#573);
#192=VERTEX_POINT('',#578);
#193=VERTEX_POINT('',#582);
#194=VERTEX_POINT('',#584);
#195=VERTEX_POINT('',#588);
#196=VERTEX_POINT('',#590);
#197=VERTEX_POINT('',#594);
#198=VERTEX_POINT('',#599);
#199=VERTEX_POINT('',#602);
#200=VERTEX_POINT('',#605);
#201=VERTEX_POINT('',#608);
#202=VERTEX_POINT('',#611);
#203=VERTEX_POINT('',#614);
#204=VERTEX_POINT('',#617);
#205=VERTEX_POINT('',#620);
#206=VERTEX_POINT('',#623);
#207=VERTEX_POINT('',#626);
#208=VERTEX_POINT('',#629);
#209=VERTEX_POINT('',#634);
#210=VERTEX_POINT('',#637);
#211=VERTEX_POINT('',#640);
#212=VERTEX_POINT('',#643);
#213=VERTEX_POINT('',#646);
#214=VERTEX_POINT('',#649);
#215=VERTEX_POINT('',#652);
#216=LINE('',#546,#224);
#217=LINE('',#551,#225);
#218=LINE('',#581,#226);
#219=LINE('',#583,#227);
#220=LINE('',#587,#228);
#221=LINE('',#591,#229);
#222=LINE('',#595,#230);
#223=LINE('',#596,#231);
#224=VECTOR('',#432,1000.);
#225=VECTOR('',#435,1000.);
#226=VECTOR('',#450,1000.);
#227=VECTOR('',#451,1000.);
#228=VECTOR('',#456,1000.);
#229=VECTOR('',#459,1000.);
#230=VECTOR('',#464,1000.);
#231=VECTOR('',#465,1000.);
#232=EDGE_LOOP('',(#70,#71,#72,#73));
#233=EDGE_LOOP('',(#74));
#234=EDGE_LOOP('',(#75,#76,#77,#78));
#235=EDGE_LOOP('',(#79,#80,#81,#82));
#236=EDGE_LOOP('',(#83,#84,#85,#86));
#237=EDGE_LOOP('',(#87,#88,#89,#90));
#238=EDGE_LOOP('',(#91));
#239=EDGE_LOOP('',(#92,#93,#94,#95));
#240=EDGE_LOOP('',(#96));
#241=EDGE_LOOP('',(#97));
#242=EDGE_LOOP('',(#98));
#243=EDGE_LOOP('',(#99));
#244=EDGE_LOOP('',(#100));
#245=EDGE_LOOP('',(#101));
#246=EDGE_LOOP('',(#102));
#247=EDGE_LOOP('',(#103));
#248=EDGE_LOOP('',(#104));
#249=EDGE_LOOP('',(#105));
#250=EDGE_LOOP('',(#106));
#251=EDGE_LOOP('',(#107));
#252=EDGE_LOOP('',(#108));
#253=EDGE_LOOP('',(#109));
#254=EDGE_LOOP('',(#110));
#255=EDGE_LOOP('',(#111));
#256=EDGE_LOOP('',(#112));
#257=EDGE_LOOP('',(#113));
#258=EDGE_LOOP('',(#114));
#259=EDGE_LOOP('',(#115));
#260=EDGE_LOOP('',(#116));
#261=EDGE_LOOP('',(#117));
#262=EDGE_LOOP('',(#118,#119,#120,#121,#122,#123));
#263=EDGE_LOOP('',(#124,#125,#126,#127,#128,#129));
#264=EDGE_LOOP('',(#130));
#265=EDGE_LOOP('',(#131));
#266=EDGE_LOOP('',(#132));
#267=EDGE_LOOP('',(#133));
#268=EDGE_LOOP('',(#134));
#269=EDGE_LOOP('',(#135));
#270=EDGE_LOOP('',(#136));
#271=EDGE_LOOP('',(#137));
#272=EDGE_LOOP('',(#138));
#273=EDGE_LOOP('',(#139));
#274=EDGE_LOOP('',(#140));
#275=EDGE_LOOP('',(#141));
#276=EDGE_LOOP('',(#142));
#277=EDGE_LOOP('',(#143));
#278=EDGE_LOOP('',(#144));
#279=EDGE_LOOP('',(#145));
#280=FACE_BOUND('',#232,.T.);
#281=FACE_BOUND('',#233,.T.);
#282=FACE_BOUND('',#234,.T.);
#283=FACE_BOUND('',#235,.T.);
#284=FACE_BOUND('',#236,.T.);
#285=FACE_BOUND('',#237,.T.);
#286=FACE_BOUND('',#238,.T.);
#287=FACE_BOUND('',#239,.T.);
#288=FACE_BOUND('',#240,.T.);
#289=FACE_BOUND('',#241,.T.);
#290=FACE_BOUND('',#242,.T.);
#291=FACE_BOUND('',#243,.T.);
#292=FACE_BOUND('',#244,.T.);
#293=FACE_BOUND('',#245,.T.);
#294=FACE_BOUND('',#246,.T.);
#295=FACE_BOUND('',#247,.T.);
#296=FACE_BOUND('',#248,.T.);
#297=FACE_BOUND('',#249,.T.);
#298=FACE_BOUND('',#250,.T.);
#299=FACE_BOUND('',#251,.T.);
#300=FACE_BOUND('',#252,.T.);
#301=FACE_BOUND('',#253,.T.);
#302=FACE_BOUND('',#254,.T.);
#303=FACE_BOUND('',#255,.T.);
#304=FACE_BOUND('',#256,.T.);
#305=FACE_BOUND('',#257,.T.);
#306=FACE_BOUND('',#258,.T.);
#307=FACE_BOUND('',#259,.T.);
#308=FACE_BOUND('',#260,.T.);
#309=FACE_BOUND('',#261,.T.);
#310=FACE_BOUND('',#262,.T.);
#311=FACE_BOUND('',#263,.T.);
#312=FACE_BOUND('',#264,.T.);
#313=FACE_BOUND('',#265,.T.);
#314=FACE_BOUND('',#266,.T.);
#315=FACE_BOUND('',#267,.T.);
#316=FACE_BOUND('',#268,.T.);
#317=FACE_BOUND('',#269,.T.);
#318=FACE_BOUND('',#270,.T.);
#319=FACE_BOUND('',#271,.T.);
#320=FACE_BOUND('',#272,.T.);
#321=FACE_BOUND('',#273,.T.);
#322=FACE_BOUND('',#274,.T.);
#323=FACE_BOUND('',#275,.T.);
#324=FACE_BOUND('',#276,.T.);
#325=FACE_BOUND('',#277,.T.);
#326=FACE_BOUND('',#278,.T.);
#327=FACE_BOUND('',#279,.T.);
#328=PLANE('',#375);
#329=PLANE('',#387);
#330=PLANE('',#409);
#331=PLANE('',#411);
#332=PLANE('',#412);
#333=PLANE('',#419);
#334=PLANE('',#427);
#335=ADVANCED_FACE('',(#280,#281),#328,.F.);
#336=ADVANCED_FACE('',(#282),#38,.T.);
#337=ADVANCED_FACE('',(#283),#39,.T.);
#338=ADVANCED_FACE('',(#284),#27,.T.);
#339=ADVANCED_FACE('',(#285),#28,.T.);
#340=ADVANCED_FACE('',(#286,#287),#329,.F.);
#341=ADVANCED_FACE('',(#288,#289),#29,.T.);
#342=ADVANCED_FACE('',(#290,#291),#22,.F.);
#343=ADVANCED_FACE('',(#292,#293),#23,.T.);
#344=ADVANCED_FACE('',(#294,#295),#20,.F.);
#345=ADVANCED_FACE('',(#296,#297),#24,.T.);
#346=ADVANCED_FACE('',(#298,#299),#25,.T.);
#347=ADVANCED_FACE('',(#300,#301),#30,.T.);
#348=ADVANCED_FACE('',(#302,#303),#40,.T.);
#349=ADVANCED_FACE('',(#304,#305),#26,.T.);
#350=ADVANCED_FACE('',(#306,#307),#21,.F.);
#351=ADVANCED_FACE('',(#308,#309),#330,.F.);
#352=ADVANCED_FACE('',(#310),#331,.T.);
#353=ADVANCED_FACE('',(#311),#332,.T.);
#354=ADVANCED_FACE('',(#312,#313),#31,.F.);
#355=ADVANCED_FACE('',(#314,#315),#41,.F.);
#356=ADVANCED_FACE('',(#316,#317),#32,.F.);
#357=ADVANCED_FACE('',(#318,#319),#333,.T.);
#358=ADVANCED_FACE('',(#320,#321),#42,.F.);
#359=ADVANCED_FACE('',(#322,#323),#33,.F.);
#360=ADVANCED_FACE('',(#324,#325),#43,.F.);
#361=ADVANCED_FACE('',(#326,#327),#334,.T.);
#362=CLOSED_SHELL('',(#335,#336,#337,#338,#339,#340,#341,#342,#343,#344,
#345,#346,#347,#348,#349,#350,#351,#352,#353,#354,#355,#356,#357,#358,#359,
#360,#361));
#363=STYLED_ITEM('',(#364),#371);
#364=PRESENTATION_STYLE_ASSIGNMENT((#365));
#365=SURFACE_STYLE_USAGE(.BOTH.,#366);
#366=SURFACE_SIDE_STYLE('',(#367));
#367=SURFACE_STYLE_FILL_AREA(#368);
#368=FILL_AREA_STYLE('',(#369));
#369=FILL_AREA_STYLE_COLOUR('',#370);
#370=COLOUR_RGB('',0.689999997615814,0.689999997615814,0.689999997615814);
#371=MANIFOLD_SOLID_BREP('8073831 OGVM-45-G-N-G14F---(high)',#362);
#372=SHAPE_DEFINITION_REPRESENTATION(#660,#373);
#373=SHAPE_REPRESENTATION('8073831 OGVM-45-G-N-G14F---(high)',(#374),#655);
#374=AXIS2_PLACEMENT_3D('',#544,#428,#429);
#375=AXIS2_PLACEMENT_3D('',#545,#430,#431);
#376=AXIS2_PLACEMENT_3D('',#549,#433,#434);
#377=AXIS2_PLACEMENT_3D('',#553,#436,#437);
#378=AXIS2_PLACEMENT_3D('',#554,#438,#439);
#379=AXIS2_PLACEMENT_3D('',#556,#440,#441);
#380=AXIS2_PLACEMENT_3D('',#562,#442,#443);
#381=AXIS2_PLACEMENT_3D('',#568,#444,#445);
#382=AXIS2_PLACEMENT_3D('',#579,#446,#447);
#383=AXIS2_PLACEMENT_3D('',#580,#448,#449);
#384=AXIS2_PLACEMENT_3D('',#585,#452,#453);
#385=AXIS2_PLACEMENT_3D('',#586,#454,#455);
#386=AXIS2_PLACEMENT_3D('',#589,#457,#458);
#387=AXIS2_PLACEMENT_3D('',#592,#460,#461);
#388=AXIS2_PLACEMENT_3D('',#593,#462,#463);
#389=AXIS2_PLACEMENT_3D('',#597,#466,#467);
#390=AXIS2_PLACEMENT_3D('',#598,#468,#469);
#391=AXIS2_PLACEMENT_3D('',#600,#470,#471);
#392=AXIS2_PLACEMENT_3D('',#601,#472,#473);
#393=AXIS2_PLACEMENT_3D('',#603,#474,#475);
#394=AXIS2_PLACEMENT_3D('',#604,#476,#477);
#395=AXIS2_PLACEMENT_3D('',#606,#478,#479);
#396=AXIS2_PLACEMENT_3D('',#607,#480,#481);
#397=AXIS2_PLACEMENT_3D('',#609,#482,#483);
#398=AXIS2_PLACEMENT_3D('',#610,#484,#485);
#399=AXIS2_PLACEMENT_3D('',#612,#486,#487);
#400=AXIS2_PLACEMENT_3D('',#613,#488,#489);
#401=AXIS2_PLACEMENT_3D('',#615,#490,#491);
#402=AXIS2_PLACEMENT_3D('',#616,#492,#493);
#403=AXIS2_PLACEMENT_3D('',#618,#494,#495);
#404=AXIS2_PLACEMENT_3D('',#619,#496,#497);
#405=AXIS2_PLACEMENT_3D('',#621,#498,#499);
#406=AXIS2_PLACEMENT_3D('',#622,#500,#501);
#407=AXIS2_PLACEMENT_3D('',#624,#502,#503);
#408=AXIS2_PLACEMENT_3D('',#625,#504,#505);
#409=AXIS2_PLACEMENT_3D('',#627,#506,#507);
#410=AXIS2_PLACEMENT_3D('',#628,#508,#509);
#411=AXIS2_PLACEMENT_3D('',#630,#510,#511);
#412=AXIS2_PLACEMENT_3D('',#631,#512,#513);
#413=AXIS2_PLACEMENT_3D('',#632,#514,#515);
#414=AXIS2_PLACEMENT_3D('',#633,#516,#517);
#415=AXIS2_PLACEMENT_3D('',#635,#518,#519);
#416=AXIS2_PLACEMENT_3D('',#636,#520,#521);
#417=AXIS2_PLACEMENT_3D('',#638,#522,#523);
#418=AXIS2_PLACEMENT_3D('',#639,#524,#525);
#419=AXIS2_PLACEMENT_3D('',#641,#526,#527);
#420=AXIS2_PLACEMENT_3D('',#642,#528,#529);
#421=AXIS2_PLACEMENT_3D('',#644,#530,#531);
#422=AXIS2_PLACEMENT_3D('',#645,#532,#533);
#423=AXIS2_PLACEMENT_3D('',#647,#534,#535);
#424=AXIS2_PLACEMENT_3D('',#648,#536,#537);
#425=AXIS2_PLACEMENT_3D('',#650,#538,#539);
#426=AXIS2_PLACEMENT_3D('',#651,#540,#541);
#427=AXIS2_PLACEMENT_3D('',#653,#542,#543);
#428=DIRECTION('',(0.,0.,1.));
#429=DIRECTION('',(1.,0.,0.));
#430=DIRECTION('',(0.,-1.,0.));
#431=DIRECTION('',(0.,0.,-1.));
#432=DIRECTION('',(0.,0.,-1.));
#433=DIRECTION('',(0.,-1.,0.));
#434=DIRECTION('',(0.,0.,-1.));
#435=DIRECTION('',(0.,0.,1.));
#436=DIRECTION('',(0.,-1.,0.));
#437=DIRECTION('',(0.,0.,-1.));
#438=DIRECTION('',(0.,-1.,0.));
#439=DIRECTION('',(0.,0.,-1.));
#440=DIRECTION('',(0.,-1.,0.));
#441=DIRECTION('',(0.,0.,-1.));
#442=DIRECTION('',(0.,-1.,0.));
#443=DIRECTION('',(0.,0.,-1.));
#444=DIRECTION('',(0.,-1.,0.));
#445=DIRECTION('',(0.,0.,-1.));
#446=DIRECTION('',(0.,-1.,0.));
#447=DIRECTION('',(0.,0.,-1.));
#448=DIRECTION('',(0.,-1.,0.));
#449=DIRECTION('',(0.,0.,-1.));
#450=DIRECTION('',(0.,-1.,0.));
#451=DIRECTION('',(0.,-1.,0.));
#452=DIRECTION('',(0.,-1.,0.));
#453=DIRECTION('',(0.,0.,-1.));
#454=DIRECTION('',(0.,-1.,0.));
#455=DIRECTION('',(0.,0.,-1.));
#456=DIRECTION('',(0.,-1.,0.));
#457=DIRECTION('',(0.,-1.,0.));
#458=DIRECTION('',(0.,0.,-1.));
#459=DIRECTION('',(0.,-1.,0.));
#460=DIRECTION('',(0.,-1.,0.));
#461=DIRECTION('',(0.,0.,-1.));
#462=DIRECTION('',(0.,-1.,0.));
#463=DIRECTION('',(0.,0.,-1.));
#464=DIRECTION('',(0.,0.,-1.));
#465=DIRECTION('',(0.,0.,1.));
#466=DIRECTION('',(0.,-1.,0.));
#467=DIRECTION('',(0.,0.,-1.));
#468=DIRECTION('',(0.,-1.,0.));
#469=DIRECTION('',(0.,0.,-1.));
#470=DIRECTION('',(0.,-1.,0.));
#471=DIRECTION('',(0.,0.,-1.));
#472=DIRECTION('',(0.,-1.,0.));
#473=DIRECTION('',(0.,0.,-1.));
#474=DIRECTION('',(0.,-1.,0.));
#475=DIRECTION('',(0.,0.,-1.));
#476=DIRECTION('',(0.,-1.,0.));
#477=DIRECTION('',(0.,0.,-1.));
#478=DIRECTION('',(0.,-1.,0.));
#479=DIRECTION('',(0.,0.,-1.));
#480=DIRECTION('',(0.,-1.,0.));
#481=DIRECTION('',(0.,0.,-1.));
#482=DIRECTION('',(0.,-1.,0.));
#483=DIRECTION('',(0.,0.,-1.));
#484=DIRECTION('',(0.,-1.,0.));
#485=DIRECTION('',(0.,0.,-1.));
#486=DIRECTION('',(0.,-1.,0.));
#487=DIRECTION('',(0.,0.,-1.));
#488=DIRECTION('',(0.,-1.,0.));
#489=DIRECTION('',(0.,0.,-1.));
#490=DIRECTION('',(0.,-1.,0.));
#491=DIRECTION('',(0.,0.,-1.));
#492=DIRECTION('',(0.,-1.,0.));
#493=DIRECTION('',(0.,0.,-1.));
#494=DIRECTION('',(0.,1.,0.));
#495=DIRECTION('',(0.,0.,1.));
#496=DIRECTION('',(0.,-1.,0.));
#497=DIRECTION('',(0.,0.,-1.));
#498=DIRECTION('',(0.,-1.,0.));
#499=DIRECTION('',(0.,0.,-1.));
#500=DIRECTION('',(0.,-1.,0.));
#501=DIRECTION('',(0.,0.,-1.));
#502=DIRECTION('',(0.,-1.,0.));
#503=DIRECTION('',(0.,0.,-1.));
#504=DIRECTION('',(0.,-1.,0.));
#505=DIRECTION('',(0.,0.,-1.));
#506=DIRECTION('',(0.,1.,0.));
#507=DIRECTION('',(0.,0.,1.));
#508=DIRECTION('',(0.,1.,0.));
#509=DIRECTION('',(0.,0.,1.));
#510=DIRECTION('',(-1.,0.,0.));
#511=DIRECTION('',(0.,0.,1.));
#512=DIRECTION('',(1.,0.,0.));
#513=DIRECTION('',(0.,0.,-1.));
#514=DIRECTION('',(0.,-1.,0.));
#515=DIRECTION('',(0.,0.,-1.));
#516=DIRECTION('',(0.,-1.,0.));
#517=DIRECTION('',(0.,0.,-1.));
#518=DIRECTION('',(0.,1.,0.));
#519=DIRECTION('',(0.,0.,1.));
#520=DIRECTION('',(0.,-1.,0.));
#521=DIRECTION('',(0.,0.,-1.));
#522=DIRECTION('',(0.,-1.,0.));
#523=DIRECTION('',(0.,0.,-1.));
#524=DIRECTION('',(0.,-1.,0.));
#525=DIRECTION('',(0.,0.,-1.));
#526=DIRECTION('',(0.,1.,0.));
#527=DIRECTION('',(0.,0.,1.));
#528=DIRECTION('',(0.,-1.,0.));
#529=DIRECTION('',(0.,0.,-1.));
#530=DIRECTION('',(0.,1.,0.));
#531=DIRECTION('',(0.,0.,1.));
#532=DIRECTION('',(0.,-1.,0.));
#533=DIRECTION('',(0.,0.,-1.));
#534=DIRECTION('',(0.,-1.,0.));
#535=DIRECTION('',(0.,0.,-1.));
#536=DIRECTION('',(0.,-1.,0.));
#537=DIRECTION('',(0.,0.,-1.));
#538=DIRECTION('',(0.,-1.,0.));
#539=DIRECTION('',(0.,0.,-1.));
#540=DIRECTION('',(0.,-1.,0.));
#541=DIRECTION('',(0.,0.,-1.));
#542=DIRECTION('',(0.,-1.,0.));
#543=DIRECTION('',(0.,0.,-1.));
#544=CARTESIAN_POINT('',(0.,0.,0.));
#545=CARTESIAN_POINT('',(0.,24.5,0.));
#546=CARTESIAN_POINT('',(8.5,24.5,23.5));
#547=CARTESIAN_POINT('',(8.5,24.5,2.07665596572952));
#548=CARTESIAN_POINT('',(8.5,24.5,-2.07665596572952));
#549=CARTESIAN_POINT('',(0.,24.5,0.));
#550=CARTESIAN_POINT('',(-8.5,24.5,-2.07665596572952));
#551=CARTESIAN_POINT('',(-8.5,24.5,-23.5));
#552=CARTESIAN_POINT('',(-8.5,24.5,2.07665596572952));
#553=CARTESIAN_POINT('',(0.,24.5,0.));
#554=CARTESIAN_POINT('',(0.,24.5,0.));
#555=CARTESIAN_POINT('',(0.,24.5,-6.5785));
#556=CARTESIAN_POINT('',(0.,24.5,0.));
#557=CARTESIAN_POINT('',(-8.5,24.,3.6486298798316));
#558=CARTESIAN_POINT('',(-8.5,24.2035533147927,3.13258187719906));
#559=CARTESIAN_POINT('',(-8.5,24.3735829621765,2.60931476873311));
#560=CARTESIAN_POINT('',(-8.5,24.5,2.07665596572952));
#561=CARTESIAN_POINT('',(-8.5,24.,3.6486298798316));
#562=CARTESIAN_POINT('',(0.,24.,0.));
#563=CARTESIAN_POINT('',(8.5,24.,3.6486298798316));
#564=CARTESIAN_POINT('',(8.5,24.5,2.07665596572952));
#565=CARTESIAN_POINT('',(8.5,24.3738474579924,2.60820031432783));
#566=CARTESIAN_POINT('',(8.5,24.2028878450521,3.13426897490515));
#567=CARTESIAN_POINT('',(8.5,24.,3.64862987983161));
#568=CARTESIAN_POINT('',(0.,24.5,0.));
#569=CARTESIAN_POINT('',(-8.5,24.5,-2.07665596572952));
#570=CARTESIAN_POINT('',(-8.5,24.3738474579924,-2.60820031432783));
#571=CARTESIAN_POINT('',(-8.5,24.2028878450521,-3.13426897490515));
#572=CARTESIAN_POINT('',(-8.5,24.,-3.64862987983161));
#573=CARTESIAN_POINT('',(-8.5,24.,-3.6486298798316));
#574=CARTESIAN_POINT('',(8.5,24.,-3.6486298798316));
#575=CARTESIAN_POINT('',(8.5,24.2035533147927,-3.13258187719906));
#576=CARTESIAN_POINT('',(8.5,24.3735829621765,-2.60931476873311));
#577=CARTESIAN_POINT('',(8.5,24.5,-2.07665596572952));
#578=CARTESIAN_POINT('',(8.5,24.,-3.6486298798316));
#579=CARTESIAN_POINT('',(0.,24.,0.));
#580=CARTESIAN_POINT('',(0.,0.,0.));
#581=CARTESIAN_POINT('',(-8.5,0.,-3.6486298798316));
#582=CARTESIAN_POINT('',(-8.5,17.5,-3.6486298798316));
#583=CARTESIAN_POINT('',(8.5,0.,-3.6486298798316));
#584=CARTESIAN_POINT('',(8.5,17.5,-3.6486298798316));
#585=CARTESIAN_POINT('',(0.,17.5,0.));
#586=CARTESIAN_POINT('',(0.,0.,0.));
#587=CARTESIAN_POINT('',(-8.5,0.,3.6486298798316));
#588=CARTESIAN_POINT('',(-8.5,17.5,3.6486298798316));
#589=CARTESIAN_POINT('',(0.,17.5,0.));
#590=CARTESIAN_POINT('',(8.5,17.5,3.6486298798316));
#591=CARTESIAN_POINT('',(8.5,0.,3.6486298798316));
#592=CARTESIAN_POINT('',(9.25,17.5,0.));
#593=CARTESIAN_POINT('',(0.,17.5,0.));
#594=CARTESIAN_POINT('',(0.,17.5,-13.));
#595=CARTESIAN_POINT('',(8.5,17.5,23.5));
#596=CARTESIAN_POINT('',(-8.5,17.5,-23.5));
#597=CARTESIAN_POINT('',(0.,0.,0.));
#598=CARTESIAN_POINT('',(0.,11.,0.));
#599=CARTESIAN_POINT('',(0.,11.,-13.));
#600=CARTESIAN_POINT('',(0.,11.,0.));
#601=CARTESIAN_POINT('',(0.,9.5,0.));
#602=CARTESIAN_POINT('',(0.,9.5,-14.5000000000052));
#603=CARTESIAN_POINT('',(0.,7.00000000696382,0.));
#604=CARTESIAN_POINT('',(0.,8.9770000000012,0.));
#605=CARTESIAN_POINT('',(0.,8.9770000000012,-16.0299999999985));
#606=CARTESIAN_POINT('',(0.,-17.9135827215264,0.));
#607=CARTESIAN_POINT('',(0.,4.28900000000003,0.));
#608=CARTESIAN_POINT('',(0.,4.28900000000003,-20.9735));
#609=CARTESIAN_POINT('',(0.,-2.6587766370459,0.));
#610=CARTESIAN_POINT('',(0.,1.27699999999999,0.));
#611=CARTESIAN_POINT('',(0.,1.27699999999999,-23.2905));
#612=CARTESIAN_POINT('',(0.,0.599571221455711,0.));
#613=CARTESIAN_POINT('',(0.,0.599571109390038,0.));
#614=CARTESIAN_POINT('',(0.,0.599571109390038,-23.5));
#615=CARTESIAN_POINT('',(0.,0.,0.));
#616=CARTESIAN_POINT('',(0.,0.370000000000001,0.));
#617=CARTESIAN_POINT('',(0.,0.370000000000001,-23.5));
#618=CARTESIAN_POINT('',(0.,0.370000000000001,0.));
#619=CARTESIAN_POINT('',(0.,0.0685191469868529,0.));
#620=CARTESIAN_POINT('',(0.,0.0685191469868529,-23.3259399483573));
#621=CARTESIAN_POINT('',(0.,0.149999999999999,0.));
#622=CARTESIAN_POINT('',(0.,0.15,0.));
#623=CARTESIAN_POINT('',(0.,0.15,-23.05));
#624=CARTESIAN_POINT('',(0.,-14.8504102044063,0.));
#625=CARTESIAN_POINT('',(0.,7.8,0.));
#626=CARTESIAN_POINT('',(0.,7.8,-12.25));
#627=CARTESIAN_POINT('',(12.25,7.8,0.));
#628=CARTESIAN_POINT('',(0.,7.8,0.));
#629=CARTESIAN_POINT('',(0.,7.8,3.75));
#630=CARTESIAN_POINT('',(-8.5,17.5,-23.5));
#631=CARTESIAN_POINT('',(8.5,17.5,23.5));
#632=CARTESIAN_POINT('',(0.,0.,0.));
#633=CARTESIAN_POINT('',(0.,10.3,0.));
#634=CARTESIAN_POINT('',(0.,10.3,-3.75));
#635=CARTESIAN_POINT('',(0.,24.5,0.));
#636=CARTESIAN_POINT('',(0.,23.644,0.));
#637=CARTESIAN_POINT('',(0.,23.644,-5.7225));
#638=CARTESIAN_POINT('',(0.,0.,0.));
#639=CARTESIAN_POINT('',(0.,12.5,0.));
#640=CARTESIAN_POINT('',(0.,12.5,-5.7225));
#641=CARTESIAN_POINT('',(5.7225,12.5,0.));
#642=CARTESIAN_POINT('',(0.,12.5,0.));
#643=CARTESIAN_POINT('',(0.,12.5,-2.2));
#644=CARTESIAN_POINT('',(0.,12.5,0.));
#645=CARTESIAN_POINT('',(0.,12.3,0.));
#646=CARTESIAN_POINT('',(0.,12.3,-2.));
#647=CARTESIAN_POINT('',(0.,0.,0.));
#648=CARTESIAN_POINT('',(0.,10.5,0.));
#649=CARTESIAN_POINT('',(0.,10.5,-2.));
#650=CARTESIAN_POINT('',(0.,10.5,0.));
#651=CARTESIAN_POINT('',(0.,10.3,0.));
#652=CARTESIAN_POINT('',(0.,10.3,-2.2));
#653=CARTESIAN_POINT('',(2.2,10.3,0.));
#654=MECHANICAL_DESIGN_GEOMETRIC_PRESENTATION_REPRESENTATION('',(#363),
#655);
#655=(
GEOMETRIC_REPRESENTATION_CONTEXT(3)
GLOBAL_UNCERTAINTY_ASSIGNED_CONTEXT((#656))
GLOBAL_UNIT_ASSIGNED_CONTEXT((#659,#658,#657))
REPRESENTATION_CONTEXT('8073831 OGVM-45-G-N-G14F---(high)',
'TOP_LEVEL_ASSEMBLY_PART')
);
#656=UNCERTAINTY_MEASURE_WITH_UNIT(LENGTH_MEASURE(0.005),#659,
'DISTANCE_ACCURACY_VALUE','Maximum Tolerance applied to model');
#657=(
NAMED_UNIT(*)
SI_UNIT($,.STERADIAN.)
SOLID_ANGLE_UNIT()
);
#658=(
NAMED_UNIT(*)
PLANE_ANGLE_UNIT()
SI_UNIT($,.RADIAN.)
);
#659=(
LENGTH_UNIT()
NAMED_UNIT(*)
SI_UNIT(.MILLI.,.METRE.)
);
#660=PRODUCT_DEFINITION_SHAPE('','',#661);
#661=PRODUCT_DEFINITION('','',#663,#662);
#662=PRODUCT_DEFINITION_CONTEXT('',#669,'design');
#663=PRODUCT_DEFINITION_FORMATION_WITH_SPECIFIED_SOURCE('','',#665,
 .NOT_KNOWN.);
#664=PRODUCT_RELATED_PRODUCT_CATEGORY('','',(#665));
#665=PRODUCT('8073831 OGVM-45-G-N-G14F---(high)',
'8073831 OGVM-45-G-N-G14F---(high)','8073831 OGVM-45-G-N-G14F---(high)',
(#667));
#666=PRODUCT_CATEGORY('','');
#667=PRODUCT_CONTEXT('',#669,'mechanical');
#668=APPLICATION_PROTOCOL_DEFINITION('international standard',
'automotive_design',2010,#669);
#669=APPLICATION_CONTEXT(
'core data for automotive mechanical design processes');
ENDSEC;
END-ISO-10303-21;
