ISO-10303-21;
HEADER;
/* Generated by software containing ST-Developer
 * from STEP Tools, Inc. (www.steptools.com) 
 */
/* OPTION: using custom renumber hook */

FILE_DESCRIPTION(
/* description */ ('STEP AP214'),
/* implementation_level */ '2;1');

FILE_NAME(
/* name */ '8073847_OGVM-20-G-N-G14F',
/* time_stamp */ '2024-09-10T08:59:52+02:00',
/* author */ ('License CC BY-ND 4.0'),
/* organization */ ('CADENAS'),
/* preprocessor_version */ 'ST-DEVELOPER v19.3',
/* originating_system */ 'PARTsolutions',
/* authorisation */ '  ');

FILE_SCHEMA (('AUTOMOTIVE_DESIGN {1 0 10303 214 3 1 1}'));
ENDSEC;

DATA;
#10=PROPERTY_DEFINITION_REPRESENTATION(#14,#12);
#11=PROPERTY_DEFINITION_REPRESENTATION(#15,#13);
#12=REPRESENTATION('',(#16),#655);
#13=REPRESENTATION('',(#17),#655);
#14=PROPERTY_DEFINITION('pmi validation property','',#660);
#15=PROPERTY_DEFINITION('pmi validation property','',#660);
#16=VALUE_REPRESENTATION_ITEM('number of annotations',COUNT_MEASURE(0.));
#17=VALUE_REPRESENTATION_ITEM('number of views',COUNT_MEASURE(0.));
#18=SHAPE_REPRESENTATION_RELATIONSHIP('','',#373,#19);
#19=ADVANCED_BREP_SHAPE_REPRESENTATION('',(#371),#655);
#20=DEGENERATE_TOROIDAL_SURFACE('',#397,17.7006663387706,33.9999999999991,
 .F.);
#21=DEGENERATE_TOROIDAL_SURFACE('',#405,7.7337848818204,23.9999999999995,
 .F.);
#22=TOROIDAL_SURFACE('',#391,9.75,0.999999999999999);
#23=TOROIDAL_SURFACE('',#395,7.828,0.600000000000002);
#24=TOROIDAL_SURFACE('',#399,6.75886171681999,4.4);
#25=TOROIDAL_SURFACE('',#403,10.7,0.15);
#26=CYLINDRICAL_SURFACE('',#383,8.25);
#27=CYLINDRICAL_SURFACE('',#389,10.75);
#28=CYLINDRICAL_SURFACE('',#413,2.5);
#29=CYLINDRICAL_SURFACE('',#417,5.7225);
#30=CYLINDRICAL_SURFACE('',#423,1.5);
#31=B_SPLINE_CURVE_WITH_KNOTS('',3,(#557,#558,#559,#560),.UNSPECIFIED.,
 .F.,.F.,(4,4),(1.79541091180004E-6,0.000546394977920731),.UNSPECIFIED.);
#32=B_SPLINE_CURVE_WITH_KNOTS('',3,(#564,#565,#566,#567),.UNSPECIFIED.,
 .F.,.F.,(4,4),(0.00649583025403346,0.00703791140918198),.UNSPECIFIED.);
#33=B_SPLINE_CURVE_WITH_KNOTS('',3,(#569,#570,#571,#572),.UNSPECIFIED.,
 .F.,.F.,(4,4),(0.00649583025403346,0.00703791140918198),.UNSPECIFIED.);
#34=B_SPLINE_CURVE_WITH_KNOTS('',3,(#574,#575,#576,#577),.UNSPECIFIED.,
 .F.,.F.,(4,4),(1.79541091180004E-6,0.000546394977920731),.UNSPECIFIED.);
#35=CONICAL_SURFACE('',#379,8.05,0.785398163397448);
#36=CONICAL_SURFACE('',#381,8.05,0.785398163397448);
#37=CONICAL_SURFACE('',#393,9.92335935320942,1.39655667405716);
#38=CONICAL_SURFACE('',#401,11.,0.5235987755983);
#39=CONICAL_SURFACE('',#415,6.5785,0.785398163397448);
#40=CONICAL_SURFACE('',#421,1.7,0.785398163397452);
#41=CONICAL_SURFACE('',#425,1.5,0.785398163397451);
#42=CIRCLE('',#376,8.05);
#43=CIRCLE('',#377,8.05);
#44=CIRCLE('',#378,6.5785);
#45=CIRCLE('',#380,8.25);
#46=CIRCLE('',#382,8.25);
#47=CIRCLE('',#384,8.25);
#48=CIRCLE('',#385,8.25);
#49=CIRCLE('',#386,8.25);
#50=CIRCLE('',#388,10.75);
#51=CIRCLE('',#390,10.75);
#52=CIRCLE('',#392,9.92335935320942);
#53=CIRCLE('',#394,7.72398438807435);
#54=CIRCLE('',#396,7.41100000000007);
#55=CIRCLE('',#398,10.0665);
#56=CIRCLE('',#400,11.);
#57=CIRCLE('',#402,10.8259399483573);
#58=CIRCLE('',#404,10.55);
#59=CIRCLE('',#406,6.4);
#60=CIRCLE('',#408,2.5);
#61=CIRCLE('',#414,2.5);
#62=CIRCLE('',#416,5.7225);
#63=CIRCLE('',#418,5.7225);
#64=CIRCLE('',#420,1.7);
#65=CIRCLE('',#422,1.5);
#66=CIRCLE('',#424,1.5);
#67=CIRCLE('',#426,1.7);
#68=ORIENTED_EDGE('',*,*,#144,.T.);
#69=ORIENTED_EDGE('',*,*,#145,.F.);
#70=ORIENTED_EDGE('',*,*,#146,.T.);
#71=ORIENTED_EDGE('',*,*,#147,.F.);
#72=ORIENTED_EDGE('',*,*,#148,.T.);
#73=ORIENTED_EDGE('',*,*,#149,.F.);
#74=ORIENTED_EDGE('',*,*,#150,.F.);
#75=ORIENTED_EDGE('',*,*,#151,.F.);
#76=ORIENTED_EDGE('',*,*,#147,.T.);
#77=ORIENTED_EDGE('',*,*,#152,.F.);
#78=ORIENTED_EDGE('',*,*,#145,.T.);
#79=ORIENTED_EDGE('',*,*,#153,.F.);
#80=ORIENTED_EDGE('',*,*,#154,.F.);
#81=ORIENTED_EDGE('',*,*,#155,.F.);
#82=ORIENTED_EDGE('',*,*,#156,.F.);
#83=ORIENTED_EDGE('',*,*,#150,.T.);
#84=ORIENTED_EDGE('',*,*,#157,.F.);
#85=ORIENTED_EDGE('',*,*,#158,.F.);
#86=ORIENTED_EDGE('',*,*,#159,.F.);
#87=ORIENTED_EDGE('',*,*,#154,.T.);
#88=ORIENTED_EDGE('',*,*,#160,.F.);
#89=ORIENTED_EDGE('',*,*,#161,.F.);
#90=ORIENTED_EDGE('',*,*,#162,.F.);
#91=ORIENTED_EDGE('',*,*,#155,.T.);
#92=ORIENTED_EDGE('',*,*,#163,.F.);
#93=ORIENTED_EDGE('',*,*,#162,.T.);
#94=ORIENTED_EDGE('',*,*,#163,.T.);
#95=ORIENTED_EDGE('',*,*,#164,.F.);
#96=ORIENTED_EDGE('',*,*,#165,.F.);
#97=ORIENTED_EDGE('',*,*,#164,.T.);
#98=ORIENTED_EDGE('',*,*,#166,.F.);
#99=ORIENTED_EDGE('',*,*,#165,.T.);
#100=ORIENTED_EDGE('',*,*,#166,.T.);
#101=ORIENTED_EDGE('',*,*,#167,.F.);
#102=ORIENTED_EDGE('',*,*,#167,.T.);
#103=ORIENTED_EDGE('',*,*,#168,.F.);
#104=ORIENTED_EDGE('',*,*,#169,.F.);
#105=ORIENTED_EDGE('',*,*,#168,.T.);
#106=ORIENTED_EDGE('',*,*,#169,.T.);
#107=ORIENTED_EDGE('',*,*,#170,.F.);
#108=ORIENTED_EDGE('',*,*,#171,.F.);
#109=ORIENTED_EDGE('',*,*,#170,.T.);
#110=ORIENTED_EDGE('',*,*,#172,.F.);
#111=ORIENTED_EDGE('',*,*,#171,.T.);
#112=ORIENTED_EDGE('',*,*,#158,.T.);
#113=ORIENTED_EDGE('',*,*,#173,.F.);
#114=ORIENTED_EDGE('',*,*,#152,.T.);
#115=ORIENTED_EDGE('',*,*,#159,.T.);
#116=ORIENTED_EDGE('',*,*,#173,.T.);
#117=ORIENTED_EDGE('',*,*,#157,.T.);
#118=ORIENTED_EDGE('',*,*,#149,.T.);
#119=ORIENTED_EDGE('',*,*,#146,.F.);
#120=ORIENTED_EDGE('',*,*,#151,.T.);
#121=ORIENTED_EDGE('',*,*,#156,.T.);
#122=ORIENTED_EDGE('',*,*,#174,.T.);
#123=ORIENTED_EDGE('',*,*,#160,.T.);
#124=ORIENTED_EDGE('',*,*,#153,.T.);
#125=ORIENTED_EDGE('',*,*,#144,.F.);
#126=ORIENTED_EDGE('',*,*,#174,.F.);
#127=ORIENTED_EDGE('',*,*,#161,.T.);
#128=ORIENTED_EDGE('',*,*,#172,.T.);
#129=ORIENTED_EDGE('',*,*,#175,.F.);
#130=ORIENTED_EDGE('',*,*,#176,.T.);
#131=ORIENTED_EDGE('',*,*,#148,.F.);
#132=ORIENTED_EDGE('',*,*,#177,.T.);
#133=ORIENTED_EDGE('',*,*,#176,.F.);
#134=ORIENTED_EDGE('',*,*,#178,.T.);
#135=ORIENTED_EDGE('',*,*,#177,.F.);
#136=ORIENTED_EDGE('',*,*,#179,.T.);
#137=ORIENTED_EDGE('',*,*,#178,.F.);
#138=ORIENTED_EDGE('',*,*,#180,.T.);
#139=ORIENTED_EDGE('',*,*,#179,.F.);
#140=ORIENTED_EDGE('',*,*,#181,.T.);
#141=ORIENTED_EDGE('',*,*,#180,.F.);
#142=ORIENTED_EDGE('',*,*,#175,.T.);
#143=ORIENTED_EDGE('',*,*,#181,.F.);
#144=EDGE_CURVE('',#182,#183,#214,.T.);
#145=EDGE_CURVE('',#184,#183,#42,.T.);
#146=EDGE_CURVE('',#184,#185,#215,.T.);
#147=EDGE_CURVE('',#182,#185,#43,.T.);
#148=EDGE_CURVE('',#186,#186,#44,.T.);
#149=EDGE_CURVE('',#187,#185,#31,.T.);
#150=EDGE_CURVE('',#188,#187,#45,.T.);
#151=EDGE_CURVE('',#182,#188,#32,.T.);
#152=EDGE_CURVE('',#184,#189,#33,.T.);
#153=EDGE_CURVE('',#190,#183,#34,.T.);
#154=EDGE_CURVE('',#189,#190,#46,.T.);
#155=EDGE_CURVE('',#191,#191,#47,.T.);
#156=EDGE_CURVE('',#188,#192,#216,.T.);
#157=EDGE_CURVE('',#193,#187,#217,.F.);
#158=EDGE_CURVE('',#194,#193,#48,.T.);
#159=EDGE_CURVE('',#189,#194,#218,.T.);
#160=EDGE_CURVE('',#195,#190,#219,.F.);
#161=EDGE_CURVE('',#192,#195,#49,.T.);
#162=EDGE_CURVE('',#196,#196,#50,.T.);
#163=EDGE_CURVE('',#197,#197,#51,.T.);
#164=EDGE_CURVE('',#198,#198,#52,.T.);
#165=EDGE_CURVE('',#199,#199,#53,.T.);
#166=EDGE_CURVE('',#200,#200,#54,.T.);
#167=EDGE_CURVE('',#201,#201,#55,.T.);
#168=EDGE_CURVE('',#202,#202,#56,.T.);
#169=EDGE_CURVE('',#203,#203,#57,.T.);
#170=EDGE_CURVE('',#204,#204,#58,.T.);
#171=EDGE_CURVE('',#205,#205,#59,.T.);
#172=EDGE_CURVE('',#206,#206,#60,.F.);
#173=EDGE_CURVE('',#194,#193,#220,.T.);
#174=EDGE_CURVE('',#192,#195,#221,.T.);
#175=EDGE_CURVE('',#207,#207,#61,.T.);
#176=EDGE_CURVE('',#208,#208,#62,.T.);
#177=EDGE_CURVE('',#209,#209,#63,.T.);
#178=EDGE_CURVE('',#210,#210,#64,.T.);
#179=EDGE_CURVE('',#211,#211,#65,.T.);
#180=EDGE_CURVE('',#212,#212,#66,.T.);
#181=EDGE_CURVE('',#213,#213,#67,.T.);
#182=VERTEX_POINT('',#547);
#183=VERTEX_POINT('',#548);
#184=VERTEX_POINT('',#550);
#185=VERTEX_POINT('',#552);
#186=VERTEX_POINT('',#555);
#187=VERTEX_POINT('',#561);
#188=VERTEX_POINT('',#563);
#189=VERTEX_POINT('',#573);
#190=VERTEX_POINT('',#578);
#191=VERTEX_POINT('',#582);
#192=VERTEX_POINT('',#584);
#193=VERTEX_POINT('',#586);
#194=VERTEX_POINT('',#588);
#195=VERTEX_POINT('',#591);
#196=VERTEX_POINT('',#595);
#197=VERTEX_POINT('',#598);
#198=VERTEX_POINT('',#601);
#199=VERTEX_POINT('',#604);
#200=VERTEX_POINT('',#607);
#201=VERTEX_POINT('',#610);
#202=VERTEX_POINT('',#613);
#203=VERTEX_POINT('',#616);
#204=VERTEX_POINT('',#619);
#205=VERTEX_POINT('',#622);
#206=VERTEX_POINT('',#625);
#207=VERTEX_POINT('',#634);
#208=VERTEX_POINT('',#637);
#209=VERTEX_POINT('',#640);
#210=VERTEX_POINT('',#643);
#211=VERTEX_POINT('',#646);
#212=VERTEX_POINT('',#649);
#213=VERTEX_POINT('',#652);
#214=LINE('',#546,#222);
#215=LINE('',#551,#223);
#216=LINE('',#583,#224);
#217=LINE('',#585,#225);
#218=LINE('',#589,#226);
#219=LINE('',#590,#227);
#220=LINE('',#627,#228);
#221=LINE('',#630,#229);
#222=VECTOR('',#432,1000.);
#223=VECTOR('',#435,1000.);
#224=VECTOR('',#452,1000.);
#225=VECTOR('',#453,1000.);
#226=VECTOR('',#456,1000.);
#227=VECTOR('',#457,1000.);
#228=VECTOR('',#506,1000.);
#229=VECTOR('',#511,1000.);
#230=EDGE_LOOP('',(#68,#69,#70,#71));
#231=EDGE_LOOP('',(#72));
#232=EDGE_LOOP('',(#73,#74,#75,#76));
#233=EDGE_LOOP('',(#77,#78,#79,#80));
#234=EDGE_LOOP('',(#81));
#235=EDGE_LOOP('',(#82,#83,#84,#85,#86,#87,#88,#89));
#236=EDGE_LOOP('',(#90));
#237=EDGE_LOOP('',(#91));
#238=EDGE_LOOP('',(#92));
#239=EDGE_LOOP('',(#93));
#240=EDGE_LOOP('',(#94));
#241=EDGE_LOOP('',(#95));
#242=EDGE_LOOP('',(#96));
#243=EDGE_LOOP('',(#97));
#244=EDGE_LOOP('',(#98));
#245=EDGE_LOOP('',(#99));
#246=EDGE_LOOP('',(#100));
#247=EDGE_LOOP('',(#101));
#248=EDGE_LOOP('',(#102));
#249=EDGE_LOOP('',(#103));
#250=EDGE_LOOP('',(#104));
#251=EDGE_LOOP('',(#105));
#252=EDGE_LOOP('',(#106));
#253=EDGE_LOOP('',(#107));
#254=EDGE_LOOP('',(#108));
#255=EDGE_LOOP('',(#109));
#256=EDGE_LOOP('',(#110));
#257=EDGE_LOOP('',(#111));
#258=EDGE_LOOP('',(#112,#113));
#259=EDGE_LOOP('',(#114,#115,#116,#117,#118,#119));
#260=EDGE_LOOP('',(#120,#121,#122,#123,#124,#125));
#261=EDGE_LOOP('',(#126,#127));
#262=EDGE_LOOP('',(#128));
#263=EDGE_LOOP('',(#129));
#264=EDGE_LOOP('',(#130));
#265=EDGE_LOOP('',(#131));
#266=EDGE_LOOP('',(#132));
#267=EDGE_LOOP('',(#133));
#268=EDGE_LOOP('',(#134));
#269=EDGE_LOOP('',(#135));
#270=EDGE_LOOP('',(#136));
#271=EDGE_LOOP('',(#137));
#272=EDGE_LOOP('',(#138));
#273=EDGE_LOOP('',(#139));
#274=EDGE_LOOP('',(#140));
#275=EDGE_LOOP('',(#141));
#276=EDGE_LOOP('',(#142));
#277=EDGE_LOOP('',(#143));
#278=FACE_BOUND('',#230,.T.);
#279=FACE_BOUND('',#231,.T.);
#280=FACE_BOUND('',#232,.T.);
#281=FACE_BOUND('',#233,.T.);
#282=FACE_BOUND('',#234,.T.);
#283=FACE_BOUND('',#235,.T.);
#284=FACE_BOUND('',#236,.T.);
#285=FACE_BOUND('',#237,.T.);
#286=FACE_BOUND('',#238,.T.);
#287=FACE_BOUND('',#239,.T.);
#288=FACE_BOUND('',#240,.T.);
#289=FACE_BOUND('',#241,.T.);
#290=FACE_BOUND('',#242,.T.);
#291=FACE_BOUND('',#243,.T.);
#292=FACE_BOUND('',#244,.T.);
#293=FACE_BOUND('',#245,.T.);
#294=FACE_BOUND('',#246,.T.);
#295=FACE_BOUND('',#247,.T.);
#296=FACE_BOUND('',#248,.T.);
#297=FACE_BOUND('',#249,.T.);
#298=FACE_BOUND('',#250,.T.);
#299=FACE_BOUND('',#251,.T.);
#300=FACE_BOUND('',#252,.T.);
#301=FACE_BOUND('',#253,.T.);
#302=FACE_BOUND('',#254,.T.);
#303=FACE_BOUND('',#255,.T.);
#304=FACE_BOUND('',#256,.T.);
#305=FACE_BOUND('',#257,.T.);
#306=FACE_BOUND('',#258,.T.);
#307=FACE_BOUND('',#259,.T.);
#308=FACE_BOUND('',#260,.T.);
#309=FACE_BOUND('',#261,.T.);
#310=FACE_BOUND('',#262,.T.);
#311=FACE_BOUND('',#263,.T.);
#312=FACE_BOUND('',#264,.T.);
#313=FACE_BOUND('',#265,.T.);
#314=FACE_BOUND('',#266,.T.);
#315=FACE_BOUND('',#267,.T.);
#316=FACE_BOUND('',#268,.T.);
#317=FACE_BOUND('',#269,.T.);
#318=FACE_BOUND('',#270,.T.);
#319=FACE_BOUND('',#271,.T.);
#320=FACE_BOUND('',#272,.T.);
#321=FACE_BOUND('',#273,.T.);
#322=FACE_BOUND('',#274,.T.);
#323=FACE_BOUND('',#275,.T.);
#324=FACE_BOUND('',#276,.T.);
#325=FACE_BOUND('',#277,.T.);
#326=PLANE('',#375);
#327=PLANE('',#387);
#328=PLANE('',#407);
#329=PLANE('',#409);
#330=PLANE('',#410);
#331=PLANE('',#411);
#332=PLANE('',#412);
#333=PLANE('',#419);
#334=PLANE('',#427);
#335=ADVANCED_FACE('',(#278,#279),#326,.F.);
#336=ADVANCED_FACE('',(#280),#35,.T.);
#337=ADVANCED_FACE('',(#281),#36,.T.);
#338=ADVANCED_FACE('',(#282,#283),#26,.T.);
#339=ADVANCED_FACE('',(#284,#285),#327,.F.);
#340=ADVANCED_FACE('',(#286,#287),#27,.T.);
#341=ADVANCED_FACE('',(#288,#289),#22,.T.);
#342=ADVANCED_FACE('',(#290,#291),#37,.T.);
#343=ADVANCED_FACE('',(#292,#293),#23,.F.);
#344=ADVANCED_FACE('',(#294,#295),#20,.F.);
#345=ADVANCED_FACE('',(#296,#297),#24,.T.);
#346=ADVANCED_FACE('',(#298,#299),#38,.T.);
#347=ADVANCED_FACE('',(#300,#301),#25,.T.);
#348=ADVANCED_FACE('',(#302,#303),#21,.T.);
#349=ADVANCED_FACE('',(#304,#305),#328,.F.);
#350=ADVANCED_FACE('',(#306),#329,.T.);
#351=ADVANCED_FACE('',(#307),#330,.T.);
#352=ADVANCED_FACE('',(#308),#331,.T.);
#353=ADVANCED_FACE('',(#309),#332,.T.);
#354=ADVANCED_FACE('',(#310,#311),#28,.F.);
#355=ADVANCED_FACE('',(#312,#313),#39,.F.);
#356=ADVANCED_FACE('',(#314,#315),#29,.F.);
#357=ADVANCED_FACE('',(#316,#317),#333,.T.);
#358=ADVANCED_FACE('',(#318,#319),#40,.F.);
#359=ADVANCED_FACE('',(#320,#321),#30,.F.);
#360=ADVANCED_FACE('',(#322,#323),#41,.F.);
#361=ADVANCED_FACE('',(#324,#325),#334,.T.);
#362=CLOSED_SHELL('',(#335,#336,#337,#338,#339,#340,#341,#342,#343,#344,
#345,#346,#347,#348,#349,#350,#351,#352,#353,#354,#355,#356,#357,#358,#359,
#360,#361));
#363=STYLED_ITEM('',(#364),#371);
#364=PRESENTATION_STYLE_ASSIGNMENT((#365));
#365=SURFACE_STYLE_USAGE(.BOTH.,#366);
#366=SURFACE_SIDE_STYLE('',(#367));
#367=SURFACE_STYLE_FILL_AREA(#368);
#368=FILL_AREA_STYLE('',(#369));
#369=FILL_AREA_STYLE_COLOUR('',#370);
#370=COLOUR_RGB('',0.689999997615814,0.689999997615814,0.689999997615814);
#371=MANIFOLD_SOLID_BREP('8073847 OGVM-20-G-N-G14F---(high)',#362);
#372=SHAPE_DEFINITION_REPRESENTATION(#660,#373);
#373=SHAPE_REPRESENTATION('8073847 OGVM-20-G-N-G14F---(high)',(#374),#655);
#374=AXIS2_PLACEMENT_3D('',#544,#428,#429);
#375=AXIS2_PLACEMENT_3D('',#545,#430,#431);
#376=AXIS2_PLACEMENT_3D('',#549,#433,#434);
#377=AXIS2_PLACEMENT_3D('',#553,#436,#437);
#378=AXIS2_PLACEMENT_3D('',#554,#438,#439);
#379=AXIS2_PLACEMENT_3D('',#556,#440,#441);
#380=AXIS2_PLACEMENT_3D('',#562,#442,#443);
#381=AXIS2_PLACEMENT_3D('',#568,#444,#445);
#382=AXIS2_PLACEMENT_3D('',#579,#446,#447);
#383=AXIS2_PLACEMENT_3D('',#580,#448,#449);
#384=AXIS2_PLACEMENT_3D('',#581,#450,#451);
#385=AXIS2_PLACEMENT_3D('',#587,#454,#455);
#386=AXIS2_PLACEMENT_3D('',#592,#458,#459);
#387=AXIS2_PLACEMENT_3D('',#593,#460,#461);
#388=AXIS2_PLACEMENT_3D('',#594,#462,#463);
#389=AXIS2_PLACEMENT_3D('',#596,#464,#465);
#390=AXIS2_PLACEMENT_3D('',#597,#466,#467);
#391=AXIS2_PLACEMENT_3D('',#599,#468,#469);
#392=AXIS2_PLACEMENT_3D('',#600,#470,#471);
#393=AXIS2_PLACEMENT_3D('',#602,#472,#473);
#394=AXIS2_PLACEMENT_3D('',#603,#474,#475);
#395=AXIS2_PLACEMENT_3D('',#605,#476,#477);
#396=AXIS2_PLACEMENT_3D('',#606,#478,#479);
#397=AXIS2_PLACEMENT_3D('',#608,#480,#481);
#398=AXIS2_PLACEMENT_3D('',#609,#482,#483);
#399=AXIS2_PLACEMENT_3D('',#611,#484,#485);
#400=AXIS2_PLACEMENT_3D('',#612,#486,#487);
#401=AXIS2_PLACEMENT_3D('',#614,#488,#489);
#402=AXIS2_PLACEMENT_3D('',#615,#490,#491);
#403=AXIS2_PLACEMENT_3D('',#617,#492,#493);
#404=AXIS2_PLACEMENT_3D('',#618,#494,#495);
#405=AXIS2_PLACEMENT_3D('',#620,#496,#497);
#406=AXIS2_PLACEMENT_3D('',#621,#498,#499);
#407=AXIS2_PLACEMENT_3D('',#623,#500,#501);
#408=AXIS2_PLACEMENT_3D('',#624,#502,#503);
#409=AXIS2_PLACEMENT_3D('',#626,#504,#505);
#410=AXIS2_PLACEMENT_3D('',#628,#507,#508);
#411=AXIS2_PLACEMENT_3D('',#629,#509,#510);
#412=AXIS2_PLACEMENT_3D('',#631,#512,#513);
#413=AXIS2_PLACEMENT_3D('',#632,#514,#515);
#414=AXIS2_PLACEMENT_3D('',#633,#516,#517);
#415=AXIS2_PLACEMENT_3D('',#635,#518,#519);
#416=AXIS2_PLACEMENT_3D('',#636,#520,#521);
#417=AXIS2_PLACEMENT_3D('',#638,#522,#523);
#418=AXIS2_PLACEMENT_3D('',#639,#524,#525);
#419=AXIS2_PLACEMENT_3D('',#641,#526,#527);
#420=AXIS2_PLACEMENT_3D('',#642,#528,#529);
#421=AXIS2_PLACEMENT_3D('',#644,#530,#531);
#422=AXIS2_PLACEMENT_3D('',#645,#532,#533);
#423=AXIS2_PLACEMENT_3D('',#647,#534,#535);
#424=AXIS2_PLACEMENT_3D('',#648,#536,#537);
#425=AXIS2_PLACEMENT_3D('',#650,#538,#539);
#426=AXIS2_PLACEMENT_3D('',#651,#540,#541);
#427=AXIS2_PLACEMENT_3D('',#653,#542,#543);
#428=DIRECTION('',(0.,0.,1.));
#429=DIRECTION('',(1.,0.,0.));
#430=DIRECTION('',(0.,-1.,0.));
#431=DIRECTION('',(0.,0.,-1.));
#432=DIRECTION('',(0.,0.,-1.));
#433=DIRECTION('',(0.,-1.,0.));
#434=DIRECTION('',(0.,0.,-1.));
#435=DIRECTION('',(0.,0.,1.));
#436=DIRECTION('',(0.,-1.,0.));
#437=DIRECTION('',(0.,0.,-1.));
#438=DIRECTION('',(0.,-1.,0.));
#439=DIRECTION('',(0.,0.,-1.));
#440=DIRECTION('',(0.,-1.,0.));
#441=DIRECTION('',(0.,0.,-1.));
#442=DIRECTION('',(0.,-1.,0.));
#443=DIRECTION('',(0.,0.,-1.));
#444=DIRECTION('',(0.,-1.,0.));
#445=DIRECTION('',(0.,0.,-1.));
#446=DIRECTION('',(0.,-1.,0.));
#447=DIRECTION('',(0.,0.,-1.));
#448=DIRECTION('',(0.,-1.,0.));
#449=DIRECTION('',(0.,0.,-1.));
#450=DIRECTION('',(0.,-1.,0.));
#451=DIRECTION('',(0.,0.,-1.));
#452=DIRECTION('',(0.,-1.,0.));
#453=DIRECTION('',(0.,-1.,0.));
#454=DIRECTION('',(0.,1.,0.));
#455=DIRECTION('',(0.,0.,1.));
#456=DIRECTION('',(0.,-1.,0.));
#457=DIRECTION('',(0.,-1.,0.));
#458=DIRECTION('',(0.,1.,0.));
#459=DIRECTION('',(0.,0.,1.));
#460=DIRECTION('',(0.,-1.,0.));
#461=DIRECTION('',(0.,0.,-1.));
#462=DIRECTION('',(0.,-1.,0.));
#463=DIRECTION('',(0.,0.,-1.));
#464=DIRECTION('',(0.,-1.,0.));
#465=DIRECTION('',(0.,0.,-1.));
#466=DIRECTION('',(0.,-1.,0.));
#467=DIRECTION('',(0.,0.,-1.));
#468=DIRECTION('',(0.,-1.,0.));
#469=DIRECTION('',(0.,0.,-1.));
#470=DIRECTION('',(0.,-1.,0.));
#471=DIRECTION('',(0.,0.,-1.));
#472=DIRECTION('',(0.,1.,0.));
#473=DIRECTION('',(0.,0.,1.));
#474=DIRECTION('',(0.,-1.,0.));
#475=DIRECTION('',(0.,0.,-1.));
#476=DIRECTION('',(0.,-1.,0.));
#477=DIRECTION('',(0.,0.,-1.));
#478=DIRECTION('',(0.,-1.,0.));
#479=DIRECTION('',(0.,0.,-1.));
#480=DIRECTION('',(0.,-1.,0.));
#481=DIRECTION('',(0.,0.,-1.));
#482=DIRECTION('',(0.,-1.,0.));
#483=DIRECTION('',(0.,0.,-1.));
#484=DIRECTION('',(0.,-1.,0.));
#485=DIRECTION('',(0.,0.,-1.));
#486=DIRECTION('',(0.,-1.,0.));
#487=DIRECTION('',(0.,0.,-1.));
#488=DIRECTION('',(0.,1.,0.));
#489=DIRECTION('',(0.,0.,1.));
#490=DIRECTION('',(0.,-1.,0.));
#491=DIRECTION('',(0.,0.,-1.));
#492=DIRECTION('',(0.,-1.,0.));
#493=DIRECTION('',(0.,0.,-1.));
#494=DIRECTION('',(0.,-1.,0.));
#495=DIRECTION('',(0.,0.,-1.));
#496=DIRECTION('',(0.,-1.,0.));
#497=DIRECTION('',(0.,0.,-1.));
#498=DIRECTION('',(0.,-1.,0.));
#499=DIRECTION('',(0.,0.,-1.));
#500=DIRECTION('',(0.,1.,0.));
#501=DIRECTION('',(0.,0.,1.));
#502=DIRECTION('',(0.,1.,0.));
#503=DIRECTION('',(0.,0.,1.));
#504=DIRECTION('',(0.,1.,0.));
#505=DIRECTION('',(0.,0.,1.));
#506=DIRECTION('',(0.,0.,1.));
#507=DIRECTION('',(-1.,0.,0.));
#508=DIRECTION('',(0.,0.,1.));
#509=DIRECTION('',(1.,0.,0.));
#510=DIRECTION('',(0.,0.,-1.));
#511=DIRECTION('',(0.,0.,-1.));
#512=DIRECTION('',(0.,1.,0.));
#513=DIRECTION('',(0.,0.,1.));
#514=DIRECTION('',(0.,-1.,0.));
#515=DIRECTION('',(0.,0.,-1.));
#516=DIRECTION('',(0.,-1.,0.));
#517=DIRECTION('',(0.,0.,-1.));
#518=DIRECTION('',(0.,1.,0.));
#519=DIRECTION('',(0.,0.,1.));
#520=DIRECTION('',(0.,-1.,0.));
#521=DIRECTION('',(0.,0.,-1.));
#522=DIRECTION('',(0.,-1.,0.));
#523=DIRECTION('',(0.,0.,-1.));
#524=DIRECTION('',(0.,-1.,0.));
#525=DIRECTION('',(0.,0.,-1.));
#526=DIRECTION('',(0.,1.,0.));
#527=DIRECTION('',(0.,0.,1.));
#528=DIRECTION('',(0.,-1.,0.));
#529=DIRECTION('',(0.,0.,-1.));
#530=DIRECTION('',(0.,1.,0.));
#531=DIRECTION('',(0.,0.,1.));
#532=DIRECTION('',(0.,-1.,0.));
#533=DIRECTION('',(0.,0.,-1.));
#534=DIRECTION('',(0.,-1.,0.));
#535=DIRECTION('',(0.,0.,-1.));
#536=DIRECTION('',(0.,-1.,0.));
#537=DIRECTION('',(0.,0.,-1.));
#538=DIRECTION('',(0.,-1.,0.));
#539=DIRECTION('',(0.,0.,-1.));
#540=DIRECTION('',(0.,-1.,0.));
#541=DIRECTION('',(0.,0.,-1.));
#542=DIRECTION('',(0.,-1.,0.));
#543=DIRECTION('',(0.,0.,-1.));
#544=CARTESIAN_POINT('',(0.,0.,0.));
#545=CARTESIAN_POINT('',(0.,22.,0.));
#546=CARTESIAN_POINT('',(7.5,22.,11.));
#547=CARTESIAN_POINT('',(7.5,22.,2.92446576317796));
#548=CARTESIAN_POINT('',(7.5,22.,-2.92446576317796));
#549=CARTESIAN_POINT('',(0.,22.,0.));
#550=CARTESIAN_POINT('',(-7.5,22.,-2.92446576317796));
#551=CARTESIAN_POINT('',(-7.5,22.,-11.));
#552=CARTESIAN_POINT('',(-7.5,22.,2.92446576317796));
#553=CARTESIAN_POINT('',(0.,22.,0.));
#554=CARTESIAN_POINT('',(0.,22.,0.));
#555=CARTESIAN_POINT('',(0.,22.,-6.5785));
#556=CARTESIAN_POINT('',(0.,22.,0.));
#557=CARTESIAN_POINT('',(-7.5,21.8,3.43693177121688));
#558=CARTESIAN_POINT('',(-7.5,21.8707636658829,3.26707089459929));
#559=CARTESIAN_POINT('',(-7.5,21.9375805083195,3.09628412205731));
#560=CARTESIAN_POINT('',(-7.5,22.,2.92446576317796));
#561=CARTESIAN_POINT('',(-7.5,21.8,3.43693177121688));
#562=CARTESIAN_POINT('',(0.,21.8,0.));
#563=CARTESIAN_POINT('',(7.5,21.8,3.43693177121688));
#564=CARTESIAN_POINT('',(7.5,22.,2.92446576317796));
#565=CARTESIAN_POINT('',(7.5,21.9373795015704,3.09683742117638));
#566=CARTESIAN_POINT('',(7.5,21.8705452282364,3.26759523162566));
#567=CARTESIAN_POINT('',(7.5,21.8000000000001,3.43693177121691));
#568=CARTESIAN_POINT('',(0.,22.,0.));
#569=CARTESIAN_POINT('',(-7.5,22.,-2.92446576317796));
#570=CARTESIAN_POINT('',(-7.5,21.9373795015704,-3.09683742117638));
#571=CARTESIAN_POINT('',(-7.5,21.8705452282364,-3.26759523162566));
#572=CARTESIAN_POINT('',(-7.5,21.8000000000001,-3.43693177121691));
#573=CARTESIAN_POINT('',(-7.5,21.8,-3.43693177121688));
#574=CARTESIAN_POINT('',(7.5,21.8,-3.43693177121688));
#575=CARTESIAN_POINT('',(7.5,21.8707636658829,-3.26707089459929));
#576=CARTESIAN_POINT('',(7.5,21.9375805083195,-3.09628412205731));
#577=CARTESIAN_POINT('',(7.5,22.,-2.92446576317796));
#578=CARTESIAN_POINT('',(7.5,21.8,-3.43693177121688));
#579=CARTESIAN_POINT('',(0.,21.8,0.));
#580=CARTESIAN_POINT('',(0.,0.,0.));
#581=CARTESIAN_POINT('',(0.,15.,0.));
#582=CARTESIAN_POINT('',(0.,15.,-8.25));
#583=CARTESIAN_POINT('',(7.5,0.,3.43693177121688));
#584=CARTESIAN_POINT('',(7.5,16.,3.43693177121688));
#585=CARTESIAN_POINT('',(-7.5,0.,3.43693177121688));
#586=CARTESIAN_POINT('',(-7.5,16.,3.43693177121688));
#587=CARTESIAN_POINT('',(0.,16.,0.));
#588=CARTESIAN_POINT('',(-7.5,16.,-3.43693177121688));
#589=CARTESIAN_POINT('',(-7.5,0.,-3.43693177121688));
#590=CARTESIAN_POINT('',(7.5,0.,-3.43693177121688));
#591=CARTESIAN_POINT('',(7.5,16.,-3.43693177121688));
#592=CARTESIAN_POINT('',(0.,16.,0.));
#593=CARTESIAN_POINT('',(8.25,15.,0.));
#594=CARTESIAN_POINT('',(0.,15.,0.));
#595=CARTESIAN_POINT('',(0.,15.,-10.75));
#596=CARTESIAN_POINT('',(0.,0.,0.));
#597=CARTESIAN_POINT('',(0.,7.795,0.));
#598=CARTESIAN_POINT('',(0.,7.795,-10.75));
#599=CARTESIAN_POINT('',(0.,7.795,0.));
#600=CARTESIAN_POINT('',(0.,6.81014136311102,0.));
#601=CARTESIAN_POINT('',(0.,6.81014136311102,-9.92335935320942));
#602=CARTESIAN_POINT('',(0.,6.81014136311102,0.));
#603=CARTESIAN_POINT('',(0.,6.42299725212957,0.));
#604=CARTESIAN_POINT('',(0.,6.42299725212957,-7.72398438807435));
#605=CARTESIAN_POINT('',(0.,5.83208206999618,0.));
#606=CARTESIAN_POINT('',(0.,5.40067622858921,0.));
#607=CARTESIAN_POINT('',(0.,5.40067622858921,-7.41100000000007));
#608=CARTESIAN_POINT('',(0.,-17.5210212148854,0.));
#609=CARTESIAN_POINT('',(0.,2.09999999999995,0.));
#610=CARTESIAN_POINT('',(0.,2.09999999999995,-10.0665));
#611=CARTESIAN_POINT('',(0.,-0.801642463785284,0.));
#612=CARTESIAN_POINT('',(0.,0.370000000000004,0.));
#613=CARTESIAN_POINT('',(0.,0.370000000000004,-11.));
#614=CARTESIAN_POINT('',(0.,0.370000000000004,0.));
#615=CARTESIAN_POINT('',(0.,0.0685191469867937,0.));
#616=CARTESIAN_POINT('',(0.,0.0685191469867937,-10.8259399483573));
#617=CARTESIAN_POINT('',(0.,0.149999999999999,0.));
#618=CARTESIAN_POINT('',(0.,0.150000000000002,0.));
#619=CARTESIAN_POINT('',(0.,0.150000000000002,-10.55));
#620=CARTESIAN_POINT('',(0.,-15.3968070804038,0.));
#621=CARTESIAN_POINT('',(0.,4.,0.));
#622=CARTESIAN_POINT('',(0.,4.,-6.4));
#623=CARTESIAN_POINT('',(6.4,4.,0.));
#624=CARTESIAN_POINT('',(0.,4.,0.));
#625=CARTESIAN_POINT('',(0.,4.,2.5));
#626=CARTESIAN_POINT('',(0.,16.,0.));
#627=CARTESIAN_POINT('',(-7.5,16.,-11.));
#628=CARTESIAN_POINT('',(-7.5,16.,-11.));
#629=CARTESIAN_POINT('',(7.5,16.,11.));
#630=CARTESIAN_POINT('',(7.5,16.,11.));
#631=CARTESIAN_POINT('',(0.,16.,0.));
#632=CARTESIAN_POINT('',(0.,0.,0.));
#633=CARTESIAN_POINT('',(0.,8.,0.));
#634=CARTESIAN_POINT('',(0.,8.,-2.5));
#635=CARTESIAN_POINT('',(0.,22.,0.));
#636=CARTESIAN_POINT('',(0.,21.144,0.));
#637=CARTESIAN_POINT('',(0.,21.144,-5.7225));
#638=CARTESIAN_POINT('',(0.,0.,0.));
#639=CARTESIAN_POINT('',(0.,10.,0.));
#640=CARTESIAN_POINT('',(0.,10.,-5.7225));
#641=CARTESIAN_POINT('',(5.7225,10.,0.));
#642=CARTESIAN_POINT('',(0.,10.,0.));
#643=CARTESIAN_POINT('',(0.,10.,-1.7));
#644=CARTESIAN_POINT('',(0.,10.,0.));
#645=CARTESIAN_POINT('',(0.,9.8,0.));
#646=CARTESIAN_POINT('',(0.,9.8,-1.5));
#647=CARTESIAN_POINT('',(0.,0.,0.));
#648=CARTESIAN_POINT('',(0.,8.2,0.));
#649=CARTESIAN_POINT('',(0.,8.2,-1.5));
#650=CARTESIAN_POINT('',(0.,8.2,0.));
#651=CARTESIAN_POINT('',(0.,8.,0.));
#652=CARTESIAN_POINT('',(0.,8.,-1.7));
#653=CARTESIAN_POINT('',(1.7,8.,0.));
#654=MECHANICAL_DESIGN_GEOMETRIC_PRESENTATION_REPRESENTATION('',(#363),
#655);
#655=(
GEOMETRIC_REPRESENTATION_CONTEXT(3)
GLOBAL_UNCERTAINTY_ASSIGNED_CONTEXT((#656))
GLOBAL_UNIT_ASSIGNED_CONTEXT((#659,#658,#657))
REPRESENTATION_CONTEXT('8073847 OGVM-20-G-N-G14F---(high)',
'TOP_LEVEL_ASSEMBLY_PART')
);
#656=UNCERTAINTY_MEASURE_WITH_UNIT(LENGTH_MEASURE(0.005),#659,
'DISTANCE_ACCURACY_VALUE','Maximum Tolerance applied to model');
#657=(
NAMED_UNIT(*)
SI_UNIT($,.STERADIAN.)
SOLID_ANGLE_UNIT()
);
#658=(
NAMED_UNIT(*)
PLANE_ANGLE_UNIT()
SI_UNIT($,.RADIAN.)
);
#659=(
LENGTH_UNIT()
NAMED_UNIT(*)
SI_UNIT(.MILLI.,.METRE.)
);
#660=PRODUCT_DEFINITION_SHAPE('','',#661);
#661=PRODUCT_DEFINITION('','',#663,#662);
#662=PRODUCT_DEFINITION_CONTEXT('',#669,'design');
#663=PRODUCT_DEFINITION_FORMATION_WITH_SPECIFIED_SOURCE('','',#665,
 .NOT_KNOWN.);
#664=PRODUCT_RELATED_PRODUCT_CATEGORY('','',(#665));
#665=PRODUCT('8073847 OGVM-20-G-N-G14F---(high)',
'8073847 OGVM-20-G-N-G14F---(high)','8073847 OGVM-20-G-N-G14F---(high)',
(#667));
#666=PRODUCT_CATEGORY('','');
#667=PRODUCT_CONTEXT('',#669,'mechanical');
#668=APPLICATION_PROTOCOL_DEFINITION('international standard',
'automotive_design',2010,#669);
#669=APPLICATION_CONTEXT(
'core data for automotive mechanical design processes');
ENDSEC;
END-ISO-10303-21;
